Menu:

 

Search:

 

pantera - the great southern trendkill:

 



Title: The Great Southern Trendkill
Artist: 
Album: The Great Southern Trendkill
Author: 


Track 1: Gt.1

D|-------------------------------------------------|-------------------------------------------------|
A|-------------------------------------------------|-------------------------------------------------|
F|-------------------------------------------------|-------------------------------------------------|
C|-------------------------------------------------|-------------------------------------------------|
G|-------------------------------------------------|-------------------------------------------------|
D|-0--0--0--0--0--0--0--0--0--0--0--0--0--0--0--0--|-0--0--0--0--0--0--0--0--0--0--0--0--0--0--0--0--|


D|-------------------------------------------------|-------------------------------------------------|
A|-------------------------------------------------|-------------------------------------------------|
F|-------------------------------------------------|-------------------------------------------------|
C|-------------------------------------------------|-------------------------------------------------|
G|-------------------------------------------------|-------------------------------------------------|
D|-0--0--0--0--0--0--0--0--0--0--0--0--0--0--0--0--|-0--0--0--0--0--0--0--0--0--0--0--0--0--0--0--0--|


D|-------------------------------------------------|-----------------------------------------|
A|-------------------------------------------------|-----------------------------------------|
F|-------------------------------------------------|-----------------------------------------|
C|-------------------------------------------------|-------------3---4-----------------------|
G|-------------------------------------------------|-------------1---2---------------3---4---|
D|-1--1--1--1-----1--1--1-----1--1--1-----1--1--1--|-3--3-----3----------3--3-----3--1---2---|


D|-----------------------------------------|-----------------------------------------|
A|-----------------------------------------|-----------------------------------------|
F|-----------------------------------------|-----------------------------------------|
C|-------------3---4-----------------------|-------------3---4-----------------------|
G|-------------1---2---------------3---4---|-------------1---2---------------3---4---|
D|-3--3-----3----------3--3-----3--1---2---|-3--3-----3----------3--3-----3--1---2---|


D|-----------------------------------------|-----------------------------------------|
A|-----------------------------------------|-----------------------------------------|
F|-----------------------------------------|-----------------------------------------|
C|-------------3---4-----------------------|-------------3---4-----------------------|
G|-------------1---2---------------3---4---|-------------1---2---------------3---4---|
D|-3--3-----3----------3--3-----3--1---2---|-3--3-----3----------3--3-----3--1---2---|


D|-----------------------------------------|-------------------------------------------------|
A|-----------------------------------------|-------------------------------------------------|
F|-----------------------------------------|-------------------------------------------------|
C|-------------3---4-----------------------|-------------------------------------------------|
G|-------------1---2---------------3---4---|-------------------------------------------------|
D|-3--3-----3----------3--3-----3--1---2---|-0--0--0--0--0--0--0--0--0--0--0--0--0--0--0--0--|


D|-------------------------------------------------|-----------------------------------------|
A|-------------------------------------------------|-----------------------------------------|
F|-------------------------------------------------|-----------------------------------------|
C|-------------------------------------------------|-------------3---4-----------------------|
G|-------------------------------------------------|-------------1---2---------------3---4---|
D|-0--0--0--0--0--0--0--0--0--0--0--0--0--0--0--0--|-3--3-----3----------3--3-----3--1---2---|


D|-----------------------------------------|-------------------------------------------------|
A|-----------------------------------------|-------------------------------------------------|
F|-----------------------------------------|-------------------------------------------------|
C|-------------3---4-----------------------|-------------------------------------------------|
G|-------------1---2---------------3---4---|-------------------------------------------------|
D|-3--3-----3----------3--3-----3--1---2---|-0--0--0--0--0--0--0--0--0--0--0--0--0--0--0--0--|


D|-------------------------------------------------|-----------------------------------------|
A|-------------------------------------------------|-----------------------------------------|
F|-------------------------------------------------|-----------------------------------------|
C|-------------------------------------------------|-------------3---4-----------------------|
G|-------------------------------------------------|-------------1---2---------------3---4---|
D|-0--0--0--0--0--0--0--0--0--0--0--0--0--0--0--0--|-3--3-----3----------3--3-----3--1---2---|


D|----------------------------------|-----------------------------------------|----------------------------------|
A|----------------------------------|-----------------------------------------|----------------------------------|
F|----------------------------------|-----------------------------------------|----------------------------------|
C|-------------3---4----------------|-------------3---4-----------------------|-------------3---4----------------|
G|-------------1---2--------3---4---|-------------1---2---------------3---4---|-------------1---2--------3---4---|
D|-3--3-----3----------3----1---2---|-3--3-----3----------3--3-----3--1---2---|-3--3-----3----------3----1---2---|


D|------------------------------------------|---------------------------------------------|
A|------------------------------------------|---------------------------------------------|
F|------------------------------------------|---------------------------------------------|
C|------------------------------------------|---------------------------------------------|
G|-2--2--2--2--2-----2--2-------2--2--2--2--|-2-----2--2----------2--2--2--2--2-----2--2--|
D|-0--0--0--0--0-----0--0--19---0--0--0--0--|-0-----0--0--12------0--0--0--0--0-----0--0--|


D|--------------------------------------|------------------------------------------|
A|--------------------------------------|------------------------------------------|
F|--------------------------------------|------------------------------------------|
C|--------------------------------------|------------------------------------------|
G|------2--2--2--2--2-----2--2----------|-2--2--2--2--2-----2--2-------2--2--2--2--|
D|-19---0--0--0--0--0-----0--0--12------|-0--0--0--0--0-----0--0--19---0--0--0--0--|


D|---------------------------------------------|--------------------------------------|
A|---------------------------------------------|--------------------------------------|
F|---------------------------------------------|--------------------------------------|
C|---------------------------------------------|--------------------------------------|
G|-2-----2--2----------2--2--2--2--2-----2--2--|------2--2--2--2--2-----2--2----------|
D|-0-----0--0--12------0--0--0--0--0-----0--0--|-19---0--0--0--0--0-----0--0--12------|


D|-----------------------------------|-------------------------------------------------|
A|-----------------------------------|-------------------------------------------------|
F|-----------------------------------|-------------------------------------------------|
C|-----------------------------------|-------------------------------------------------|
G|-2--2--2--2------------------------|-------------------------------------------------|
D|-0--0--0--0------------0--0--0--0--|-0--0--0--0--0--0--0--0--0--0--0--0--0--0--0--0--|


D|-------------------------------------------------|-------------------------------------------------|
A|-------------------------------------------------|-------------------------------------------------|
F|-------------------------------------------------|-------------------------------------------------|
C|-------------------------------------------------|-------------------------------------------------|
G|-------------------------------------------------|-------------------------------------------------|
D|-0--0--0--0--0--0--0--0--0--0--0--0--0--0--0--0--|-0--0--0--0--0--0--0--0--0--0--0--0--0--0--0--0--|


D|-------------------------------------------------|-------------------------------------------------|
A|-------------------------------------------------|-------------------------------------------------|
F|-------------------------------------------------|-------------------------------------------------|
C|-------------------------------------------------|-------------------------------------------------|
G|-------------------------------------------------|-------------------------------------------------|
D|-0--0--0--0--0--0--0--0--0--0--0--0--1--1--1--1--|----1--1--1-----1--1--1-----1--1--1--3--3-----3--|


D|-----------------------------------------|---------------------------|-----------------------------------------|
A|-----------------------------------------|---------------------------|-----------------------------------------|
F|-----------------------------------------|---------------------------|-----------------------------------------|
C|-3---4-----------------------------------|-3---4---0-----------------|-3---4-----------------------------------|
G|-1---2---------------3---4---------------|-1---2---------------------|-1---2---------------3---4---------------|
D|---------3--3-----3--1---2---3--3-----3--|---------------3--3-----3--|---------3--3-----3--1---2---3--3-----3--|


D|-----------------------------------------|-----------------------------------------|
A|-----------------------------------------|-----------------------------------------|
F|-----------------------------------------|-----------------------------------------|
C|-3---4-----------------------------------|-3---4-----------------------------------|
G|-1---2---------------3---4---------------|-1---2---------------3---4---------------|
D|---------3--3-----3--1---2---3--3-----3--|---------3--3-----3--1---2---3--3-----3--|


D|-----------------------------------------|-------------------------------------------------|
A|-----------------------------------------|-------------------------------------------------|
F|-----------------------------------------|-------------------------------------------------|
C|-3---4-----------------------------------|-------------------------------------------------|
G|-1---2---------------3---4---------------|-------------------------------------------------|
D|---------3--3-----3--1---2---0--0--0--0--|-0--0--0--0--0--0--0--0--0--0--0--0--0--0--0--0--|


D|-------------------------------------------------|-----------------------------------------|
A|-------------------------------------------------|-----------------------------------------|
F|-------------------------------------------------|-----------------------------------------|
C|-------------------------------------------------|-3---4-----------------------------------|
G|-------------------------------------------------|-1---2---------------3---4---------------|
D|-0--0--0--0--0--0--0--0--0--0--0--0--3--3-----3--|---------3--3-----3--1---2---3--3-----3--|


D|-----------------------------------------|-------------------------------------------------|
A|-----------------------------------------|-------------------------------------------------|
F|-----------------------------------------|-------------------------------------------------|
C|-3---4-----------------------------------|-------------------------------------------------|
G|-1---2---------------3---4---------------|-------------------------------------------------|
D|---------3--3-----3--1---2---0--0--0--0--|-0--0--0--0--0--0--0--0--0--0--0--0--0--0--0--0--|


D|-------------------------------------------------|-----------------------------------------|
A|-------------------------------------------------|-----------------------------------------|
F|-------------------------------------------------|-----------------------------------------|
C|-------------------------------------------------|-3---4-----------------------------------|
G|-------------------------------------------------|-1---2---------------3---4---------------|
D|-0--0--0--0--0--0--0--0--0--0--0--0--3--3-----3--|---------3--3-----3--1---2---3--3-----3--|


D|----------------------------------|-----------------------------------------|----------------------------------|
A|----------------------------------|-----------------------------------------|----------------------------------|
F|----------------------------------|-----------------------------------------|----------------------------------|
C|-3---4----------------------------|-3---4-----------------------------------|-3---4----------------------------|
G|-1---2--------3---4---------------|-1---2---------------3---4---------------|-1---2--------3---4---2--2--2--2--|
D|---------3----1---2---3--3-----3--|---------3--3-----3--1---2---3--3-----3--|---------3----1---2---0--0--0--0--|


D|------------------------------------------|--------------------------------------|
A|------------------------------------------|--------------------------------------|
F|------------------------------------------|--------------------------------------|
C|------------------------------------------|--------------------------------------|
G|-2-----2--2-------2--2--2--2--2-----2--2--|---------2--2--2--2--2-----2--2-------|
D|-0-----0--0--19---0--0--0--0--0-----0--0--|-12------0--0--0--0--0-----0--0--19---|


D|---------------------------------------------|------------------------------------------|
A|---------------------------------------------|------------------------------------------|
F|---------------------------------------------|------------------------------------------|
C|---------------------------------------------|------------------------------------------|
G|-2--2--2--2--2-----2--2----------2--2--2--2--|-2-----2--2-------2--2--2--2--2-----2--2--|
D|-0--0--0--0--0-----0--0--12------0--0--0--0--|-0-----0--0--19---0--0--0--0--0-----0--0--|


D|--------------------------------------|---------------------------------------------|
A|--------------------------------------|---------------------------------------------|
F|--------------------------------------|---------------------------------------------|
C|--------------------------------------|---------------------------------------------|
G|---------2--2--2--2--2-----2--2-------|-2--2--2--2--2-----2--2----------2--2--2--2--|
D|-12------0--0--0--0--0-----0--0--19---|-0--0--0--0--0-----0--0--12------0--0--0--0--|


D|------------------------------|---------------------------------|-------------------------------------|
A|------------------------------|---------------------------------|-------------------------------------|
F|------------------------------|---------------------------------|-------------------------------------|
C|-5----------------------------|-------------5-------5-------5---|-----5-------------5---5-------------|
G|------7---5---7---7---5-------|-5-----------------------7-------|---------7--5--------------7--5------|
D|--------------------------7---|-----5---7-----------------------|---------------7-----------------7---|


D|------------------------|------------------------------|---------------------------------|
A|------------------------|------------------------------|---------------------------------|
F|------------------------|------------------------------|---------------------------------|
C|--------------------5---|-5----------------------------|-------------5-------5-------5---|
G|------------------------|------7---5---7---7---5-------|-5-----------------------7-------|
D|-5-----6---6----7-------|--------------------------7---|-----5---7-----------------------|


D|-------------------------------------|------------------------|------------------------------|
A|-------------------------------------|------------------------|------------------------------|
F|-------------------------------------|------------------------|------------------------------|
C|-----5-------------5---5-------------|--------------------3---|-3----------------------------|
G|---------7--5--------------7--5------|------------------------|------5---3---5---5---3-------|
D|---------------7-----------------7---|-5-----6---6----7-------|--------------------------5---|


D|---------------------------|------------------------------|--------------------------|
A|---------------------------|------------------------------|--------------------------|
F|---------------------------|------------------------------|--------------------------|
C|-----------------------3---|-3----------------------------|----------------------3---|
G|-3-------------------------|------5---3---5---5---3-------|-3------------------------|
D|-----3---4---5---5---------|--------------------------5---|------5----4----3---------|


D|------------------------------|---------------------------|------------------------------|
A|------------------------------|---------------------------|------------------------------|
F|------------------------------|---------------------------|------------------------------|
C|-3----------------------------|-----3---4---5---5-----3---|-3------------------------3---|
G|------5---3---5---5---3-------|-3-------------------------|------5---3---5---3-----------|
D|--------------------------5---|---------------------------|----------------------5-------|


D|---------------------------|------------------------------|---------------------------------|
A|---------------------------|------------------------------|---------------------------------|
F|---------------------------|------------------------------|---------------------------------|
C|-----3-----------------5---|-5----------------------------|-------------5-------5-------5---|
G|---------5---5---5---------|------7---5---7---7---5-------|-5-----------------------7-------|
D|---------------------------|--------------------------7---|-----5---7-----------------------|


D|-------------------------------------|------------------------|------------------------------|
A|-------------------------------------|------------------------|------------------------------|
F|-------------------------------------|------------------------|------------------------------|
C|-----5-------------5---5-------------|--------------------5---|-5----------------------------|
G|---------7--5--------------7--5------|------------------------|------7---5---7---7---5-------|
D|---------------7-----------------7---|-5-----6---6----7-------|--------------------------7---|


D|---------------------------------|-------------------------------------|------------------------|
A|---------------------------------|-------------------------------------|------------------------|
F|---------------------------------|-------------------------------------|------------------------|
C|-------------5-------5-------5---|-----5-------------5---5-------------|--------------------3---|
G|-5-----------------------7-------|---------7--5--------------7--5------|------------------------|
D|-----5---7-----------------------|---------------7-----------------7---|-5-----6---6----7-------|


D|--------|--------|--------|--------|--------|--------|--------|--------|--------|
A|--------|--------|--------|--------|--------|--------|--------|--------|--------|
F|--------|--------|--------|--------|--------|--------|--------|--------|--------|
C|--------|--------|--------|--------|--------|--------|--------|--------|--------|
G|--------|--------|--------|--------|--------|--------|--------|--------|--------|
D|--------|--------|--------|--------|--------|--------|--------|--------|--------|


D|--------|--------|--------|--------|--------|--------|--------|--------|--------|
A|--------|--------|--------|--------|--------|--------|--------|--------|--------|
F|--------|--------|--------|--------|--------|--------|--------|--------|--------|
C|--------|--------|--------|--------|--------|--------|--------|--------|--------|
G|--------|--------|--------|--------|--------|--------|--------|--------|--------|
D|--------|--------|--------|--------|--------|--------|--------|--------|--------|


D|--------|--------|--------|--------|--------|--------|--------|--------|--------|
A|--------|--------|--------|--------|--------|--------|--------|--------|--------|
F|--------|--------|--------|--------|--------|--------|--------|--------|--------|
C|--------|--------|--------|--------|--------|--------|--------|--------|--------|
G|--------|--------|--------|--------|--------|--------|--------|--------|--------|
D|--------|--------|--------|--------|--------|--------|--------|--------|--------|


D|--------|--------|--------|--------|--------|--------|--------|--------|--------|
A|--------|--------|--------|--------|--------|--------|--------|--------|--------|
F|--------|--------|--------|--------|--------|--------|--------|--------|--------|
C|--------|--------|--------|--------|--------|--------|--------|--------|--------|
G|--------|--------|--------|--------|--------|--------|--------|--------|--------|
D|--------|--------|--------|--------|--------|--------|--------|--------|--------|


D|--------|--------|--------|--------|
A|--------|--------|--------|--------|
F|--------|--------|--------|--------|
C|--------|--------|--------|--------|
G|--------|--------|--------|--------|
D|--------|--------|--------|--------|





Track 2: Gt.2(Solo)

D|--------|--------|--------|--------|--------|--------|--------|--------|--------|
A|--------|--------|--------|--------|--------|--------|--------|--------|--------|
F|--------|--------|--------|--------|--------|--------|--------|--------|--------|
C|--------|--------|--------|--------|--------|--------|--------|--------|--------|
G|--------|--------|--------|--------|--------|--------|--------|--------|--------|
D|--------|--------|--------|--------|--------|--------|--------|--------|--------|


D|--------|--------|--------|--------|--------|--------|--------|--------|--------|
A|--------|--------|--------|--------|--------|--------|--------|--------|--------|
F|--------|--------|--------|--------|--------|--------|--------|--------|--------|
C|--------|--------|--------|--------|--------|--------|--------|--------|--------|
G|--------|--------|--------|--------|--------|--------|--------|--------|--------|
D|--------|--------|--------|--------|--------|--------|--------|--------|--------|


D|--------|--------|--------|--------|--------|--------|--------|--------|--------|
A|--------|--------|--------|--------|--------|--------|--------|--------|--------|
F|--------|--------|--------|--------|--------|--------|--------|--------|--------|
C|--------|--------|--------|--------|--------|--------|--------|--------|--------|
G|--------|--------|--------|--------|--------|--------|--------|--------|--------|
D|--------|--------|--------|--------|--------|--------|--------|--------|--------|


D|--------|--------|--------|--------|--------|--------|--------|--------|--------|
A|--------|--------|--------|--------|--------|--------|--------|--------|--------|
F|--------|--------|--------|--------|--------|--------|--------|--------|--------|
C|--------|--------|--------|--------|--------|--------|--------|--------|--------|
G|--------|--------|--------|--------|--------|--------|--------|--------|--------|
D|--------|--------|--------|--------|--------|--------|--------|--------|--------|


D|--------|--------|--------|--------|--------|--------|--------|--------|--------|
A|--------|--------|--------|--------|--------|--------|--------|--------|--------|
F|--------|--------|--------|--------|--------|--------|--------|--------|--------|
C|--------|--------|--------|--------|--------|--------|--------|--------|--------|
G|--------|--------|--------|--------|--------|--------|--------|--------|--------|
D|--------|--------|--------|--------|--------|--------|--------|--------|--------|


D|--------|--------|--------|--------|--------|--------|--------|--------|--------|
A|--------|--------|--------|--------|--------|--------|--------|--------|--------|
F|--------|--------|--------|--------|--------|--------|--------|--------|--------|
C|--------|--------|--------|--------|--------|--------|--------|--------|--------|
G|--------|--------|--------|--------|--------|--------|--------|--------|--------|
D|--------|--------|--------|--------|--------|--------|--------|--------|--------|


D|--------|--------|--------|--------|--------|--------|--------|--------|--------|
A|--------|--------|--------|--------|--------|--------|--------|--------|--------|
F|--------|--------|--------|--------|--------|--------|--------|--------|--------|
C|--------|--------|--------|--------|--------|--------|--------|--------|--------|
G|--------|--------|--------|--------|--------|--------|--------|--------|--------|
D|--------|--------|--------|--------|--------|--------|--------|--------|--------|


D|--------|--------|--------|--------|--------|--------|--------------------|---------------------------|
A|--------|--------|--------|--------|--------|--------|----------------12--|-----12------12------12----|
F|--------|--------|--------|--------|--------|--------|----------------11--|-----11------11------11----|
C|--------|--------|--------|--------|--------|--------|--------------------|---------------------------|
G|--------|--------|--------|--------|--------|--------|--------------------|---------------------------|
D|--------|--------|--------|--------|--------|--------|--------------------|---------------------------|


D|-------12--------------|-12------------------------|------17--18--19----------------------|
A|-12--------12----------|-----12----------------19--|-19---------------19--19--17--19--19--|
F|-11------------11--11--|---------11--11--9---------|--------------------------------------|
C|-----------------------|---------------------------|--------------------------------------|
G|-----------------------|---------------------------|--------------------------------------|
D|-----------------------|---------------------------|--------------------------------------|


D|----------------|------17--18--19----------------------|------19------19--------------|
A|-19-----19--19--|-19---------------19--19--17--19--19--|-19-------19------19--19--17--|
F|----------------|--------------------------------------|------------------------------|
C|----------------|--------------------------------------|------------------------------|
G|----------------|--------------------------------------|------------------------------|
D|----------------|--------------------------------------|------------------------------|


D|---------24-----------24--24--|-24-----24------|--------|--------|--------|--------|
A|-24--24-------24--24----------|----------------|--------|--------|--------|--------|
F|------------------------------|----------------|--------|--------|--------|--------|
C|------------------------------|----------------|--------|--------|--------|--------|
G|------------------------------|----------------|--------|--------|--------|--------|
D|------------------------------|----------------|--------|--------|--------|--------|


D|--------|--------|--------|--------|-24-19-19-19-24-19-19-24-------------------------|
A|--------|--------|--------|--------|-------------------------19-19-24-19-19-24-19-19-|
F|--------|--------|--------|--------|-------------------------------------------------|
C|--------|--------|--------|--------|-------------------------------------------------|
G|--------|--------|--------|--------|-------------------------------------------------|
D|--------|--------|--------|--------|-------------------------------------------------|


D|-24-19-19-19-24-19-19-24-------------------------|-24-19-19-19-24-19-19-24-------------------------|
A|-------------------------19-19-24-19-19-24-19-19-|-------------------------19-19-24-19-19-24-19-19-|
F|-------------------------------------------------|-------------------------------------------------|
C|-------------------------------------------------|-------------------------------------------------|
G|-------------------------------------------------|-------------------------------------------------|
D|-------------------------------------------------|-------------------------------------------------|


D|-19----------19----------19----------19----19--|-19-----19--19-15-|-17-18-17-15-17-15---------------|
A|----17-19-19----17-19-19----17-19-19----17-----|------------------|-------------------17--17--17----|
F|-----------------------------------------------|------------------|---------------------------------|
C|-----------------------------------------------|------------------|---------------------------------|
G|-----------------------------------------------|------------------|---------------------------------|
D|-----------------------------------------------|------------------|---------------------------------|


D|---------------------------|---------------------------|------22------22------22------|
A|-12---12-----------12------|---------------20--20--20--|-20-------20------20------20--|
F|-----------11--11------11--|-11---9----9-----------7---|-7----7-----------------------|
C|---------------------------|---------------------------|------------------------------|
G|---------------------------|---------------------------|------------------------------|
D|---------------------------|---------------------------|------------------------------|


D|-22---22---22---22--22--|-22---22---22-22---22-22---|-22----22--------|---------------------------|
A|------------------------|---------------------------|-----------------|-----13--------------------|
F|-7----------------------|---------------------------|-------------12--|-12------12--12--10----12--|
C|------------------------|---------------------------|-----------------|---------------------------|
G|------------------------|---------------------------|-----------------|---------------------------|
D|------------------------|---------------------------|-----------------|---------------------------|


D|---------------------------|---------------------------|-22------22----22------|
A|-----13--------------------|------15------15-----------|-----------------------|
F|-12------12--12--10---10---|---------------------------|-----------------------|
C|---------------------------|-----------------------0---|-----------------------|
G|---------------------------|-------------------0-------|-----------------------|
D|---------------------------|---------------------------|-----------------------|


D|-15-0--0--0--12-0--0--0--14-0--0--0--10-0--0--0--|-12-0--0--0--8--0--0--0--10-0--0--0--7--0--0--0--|
A|-------------------------------------------------|-------------------------------------------------|
F|-------------------------------------------------|-------------------------------------------------|
C|-------------------------------------------------|-------------------------------------------------|
G|-------------------------------------------------|-------------------------------------------------|
D|-------------------------------------------------|-------------------------------------------------|


D|-8--0--0--0--5--0--0--0--7--0--0--0--3--0--0--0--|-1---1--1--1---1--1--1--1--1--1--1--1--1---|
A|-------------------------------------------------|-------------------------------------------|
F|-------------------------------------------------|-------------------------------------------|
C|-------------------------------------------------|-------------------------------------------|
G|-------------------------------------------------|-------------------------------------------|
D|-------------------------------------------------|-------------------------------------------|


D|-15-0--0--0--12-0--0--0--14-0--0--0--10-0--0--0--|-12-0--0--0--8--0--0--0--10-0--0--0--7--0--0--0--|
A|-------------------------------------------------|-------------------------------------------------|
F|-------------------------------------------------|-------------------------------------------------|
C|-------------------------------------------------|-------------------------------------------------|
G|-------------------------------------------------|-------------------------------------------------|
D|-------------------------------------------------|-------------------------------------------------|


D|-8--0--0--0--5--0--0--0--7--0--0--0--3--0--0--0--|-1---1--1--1---1--1--1--1--1--1--1--1--1---|
A|-------------------------------------------------|-------------------------------------------|
F|-------------------------------------------------|-------------------------------------------|
C|-------------------------------------------------|-------------------------------------------|
G|-------------------------------------------------|-------------------------------------------|
D|-------------------------------------------------|-------------------------------------------|


D|-15-0--0--0--12-0--0--0--14-0--0--0--10-0--0--0--|-12-0--0--0--8--0--0--0--10-0--0--0--7--0--0--0--|
A|-------------------------------------------------|-------------------------------------------------|
F|-------------------------------------------------|-------------------------------------------------|
C|-------------------------------------------------|-------------------------------------------------|
G|-------------------------------------------------|-------------------------------------------------|
D|-------------------------------------------------|-------------------------------------------------|


D|-8--0--0--0--5--0--0--0--7--0--0--0--3--0--0--0--|-1---1--1--1---1--1--1--1--1--1--1--1--1---|
A|-------------------------------------------------|-------------------------------------------|
F|-------------------------------------------------|-------------------------------------------|
C|-------------------------------------------------|-------------------------------------------|
G|-------------------------------------------------|-------------------------------------------|
D|-------------------------------------------------|-------------------------------------------|


D|-15-0--0--0--12-0--0--0--14-0--0--0--10-0--0--0--|-12-0--0--0--8--0--0--0--10-0--0--0--7--0--0--0--|
A|-------------------------------------------------|-------------------------------------------------|
F|-------------------------------------------------|-------------------------------------------------|
C|-------------------------------------------------|-------------------------------------------------|
G|-------------------------------------------------|-------------------------------------------------|
D|-------------------------------------------------|-------------------------------------------------|


D|-8--0--0--0--5--0--0--0--7--0--0--0--3--0--0--0--|-1---1--1--1---1--1--1--1--1--1--1--1--1---|
A|-------------------------------------------------|-------------------------------------------|
F|-------------------------------------------------|-------------------------------------------|
C|-------------------------------------------------|-------------------------------------------|
G|-------------------------------------------------|-------------------------------------------|
D|-------------------------------------------------|-------------------------------------------|





Track 3: Gt.3(Solo)

D|--------|--------|--------|--------|--------|--------|--------|--------|--------|
A|--------|--------|--------|--------|--------|--------|--------|--------|--------|
F|--------|--------|--------|--------|--------|--------|--------|--------|--------|
C|--------|--------|--------|--------|--------|--------|--------|--------|--------|
G|--------|--------|--------|--------|--------|--------|--------|--------|--------|
D|--------|--------|--------|--------|--------|--------|--------|--------|--------|


D|--------|--------|--------|--------|--------|--------|--------|--------|--------|
A|--------|--------|--------|--------|--------|--------|--------|--------|--------|
F|--------|--------|--------|--------|--------|--------|--------|--------|--------|
C|--------|--------|--------|--------|--------|--------|--------|--------|--------|
G|--------|--------|--------|--------|--------|--------|--------|--------|--------|
D|--------|--------|--------|--------|--------|--------|--------|--------|--------|


D|--------|--------|--------|--------|--------|--------|--------|--------|--------|
A|--------|--------|--------|--------|--------|--------|--------|--------|--------|
F|--------|--------|--------|--------|--------|--------|--------|--------|--------|
C|--------|--------|--------|--------|--------|--------|--------|--------|--------|
G|--------|--------|--------|--------|--------|--------|--------|--------|--------|
D|--------|--------|--------|--------|--------|--------|--------|--------|--------|


D|--------|--------|--------|--------|--------|--------|--------|--------|--------|
A|--------|--------|--------|--------|--------|--------|--------|--------|--------|
F|--------|--------|--------|--------|--------|--------|--------|--------|--------|
C|--------|--------|--------|--------|--------|--------|--------|--------|--------|
G|--------|--------|--------|--------|--------|--------|--------|--------|--------|
D|--------|--------|--------|--------|--------|--------|--------|--------|--------|


D|--------|--------|--------|--------|--------|--------|--------|--------|--------|
A|--------|--------|--------|--------|--------|--------|--------|--------|--------|
F|--------|--------|--------|--------|--------|--------|--------|--------|--------|
C|--------|--------|--------|--------|--------|--------|--------|--------|--------|
G|--------|--------|--------|--------|--------|--------|--------|--------|--------|
D|--------|--------|--------|--------|--------|--------|--------|--------|--------|


D|--------|--------|--------|--------|--------|--------|--------|--------|--------|
A|--------|--------|--------|--------|--------|--------|--------|--------|--------|
F|--------|--------|--------|--------|--------|--------|--------|--------|--------|
C|--------|--------|--------|--------|--------|--------|--------|--------|--------|
G|--------|--------|--------|--------|--------|--------|--------|--------|--------|
D|--------|--------|--------|--------|--------|--------|--------|--------|--------|


D|--------|--------|--------|--------|--------|--------|--------|--------|--------|
A|--------|--------|--------|--------|--------|--------|--------|--------|--------|
F|--------|--------|--------|--------|--------|--------|--------|--------|--------|
C|--------|--------|--------|--------|--------|--------|--------|--------|--------|
G|--------|--------|--------|--------|--------|--------|--------|--------|--------|
D|--------|--------|--------|--------|--------|--------|--------|--------|--------|


D|--------|--------|--------|--------|--------|--------|--------|--------|--------|
A|--------|--------|--------|--------|--------|--------|--------|--------|--------|
F|--------|--------|--------|--------|--------|--------|--------|--------|--------|
C|--------|--------|--------|--------|--------|--------|--------|--------|--------|
G|--------|--------|--------|--------|--------|--------|--------|--------|--------|
D|--------|--------|--------|--------|--------|--------|--------|--------|--------|


D|--------|--------|--------|--------|--------|--------|----------------|------------------------------|
A|--------|--------|--------|--------|--------|--------|------------10--|-10---------------------------|
F|--------|--------|--------|--------|--------|--------|------------10--|-10---------------------------|
C|--------|--------|--------|--------|--------|--------|----------------|------12--10--12--12--10------|
G|--------|--------|--------|--------|--------|--------|----------------|--------------------------12--|
D|--------|--------|--------|--------|--------|--------|----------------|------------------------------|


D|-------------------------|------------------------------------------|--------------------------|
A|-------------------------|-13-10-------------13-10-------------10---|-10---14---13---12----15--|
F|-------------------------|-------13-12-10----------13-12-10----10---|-10---14---13---12--------|
C|-10----------------------|----------------12----------------12------|--------------------------|
G|-----10--10-8--10--8-----|------------------------------------------|--------------------------|
D|-------------------------|------------------------------------------|--------------------------|


D|-----------------|-------------|--------|--------------------|--------|--------|
A|-15---15---15----|-15---15-----|-15-----|-15----15--15-------|--------|--------|
F|-----------------|-------------|--------|--------------------|--------|--------|
C|-----------------|-------------|--------|--------------------|--------|--------|
G|-----------------|-------------|--------|--------------------|--------|--------|
D|-----------------|-------------|--------|--------------------|--------|--------|


D|--------|--------|--------|--------|--------|--------|--------|--------|--------|
A|--------|--------|--------|--------|--------|--------|--------|--------|--------|
F|--------|--------|--------|--------|--------|--------|--------|--------|--------|
C|--------|--------|--------|--------|--------|--------|--------|--------|--------|
G|--------|--------|--------|--------|--------|--------|--------|--------|--------|
D|--------|--------|--------|--------|--------|--------|--------|--------|--------|


D|--------|--------|--------|--------|--------|--------|--------|--------|--------|
A|--------|--------|--------|--------|--------|--------|--------|--------|--------|
F|--------|--------|--------|--------|--------|--------|--------|--------|--------|
C|--------|--------|--------|--------|--------|--------|--------|--------|--------|
G|--------|--------|--------|--------|--------|--------|--------|--------|--------|
D|--------|--------|--------|--------|--------|--------|--------|--------|--------|


D|--------|--------|--------|--------|--------|--------|--------|--------|--------|
A|--------|--------|--------|--------|--------|--------|--------|--------|--------|
F|--------|--------|--------|--------|--------|--------|--------|--------|--------|
C|--------|--------|--------|--------|--------|--------|--------|--------|--------|
G|--------|--------|--------|--------|--------|--------|--------|--------|--------|
D|--------|--------|--------|--------|--------|--------|--------|--------|--------|


D|--------|--------|--------|
A|--------|--------|--------|
F|--------|--------|--------|
C|--------|--------|--------|
G|--------|--------|--------|
D|--------|--------|--------|





Track 4: Gt.1

D|--------|--------|--------|--------|--------|--------|--------|--------|--------|
A|--------|--------|--------|--------|--------|--------|--------|--------|--------|
F|--------|--------|--------|--------|--------|--------|--------|--------|--------|
C|--------|--------|--------|--------|--------|--------|--------|--------|--------|
G|--------|--------|--------|--------|--------|--------|--------|--------|--------|
D|--------|--------|--------|--------|--------|--------|--------|--------|--------|


D|--------|--------|--------|--------|--------|--------|--------|--------|--------|
A|--------|--------|--------|--------|--------|--------|--------|--------|--------|
F|--------|--------|--------|--------|--------|--------|--------|--------|--------|
C|--------|--------|--------|--------|--------|--------|--------|--------|--------|
G|--------|--------|--------|--------|--------|--------|--------|--------|--------|
D|--------|--------|--------|--------|--------|--------|--------|--------|--------|


D|--------|--------|--------|--------|--------|--------|--------|--------|--------|
A|--------|--------|--------|--------|--------|--------|--------|--------|--------|
F|--------|--------|--------|--------|--------|--------|--------|--------|--------|
C|--------|--------|--------|--------|--------|--------|--------|--------|--------|
G|--------|--------|--------|--------|--------|--------|--------|--------|--------|
D|--------|--------|--------|--------|--------|--------|--------|--------|--------|


D|--------|--------|--------|--------|--------|--------|--------|--------|--------|
A|--------|--------|--------|--------|--------|--------|--------|--------|--------|
F|--------|--------|--------|--------|--------|--------|--------|--------|--------|
C|--------|--------|--------|--------|--------|--------|--------|--------|--------|
G|--------|--------|--------|--------|--------|--------|--------|--------|--------|
D|--------|--------|--------|--------|--------|--------|--------|--------|--------|


D|--------|--------|--------|--------|--------|--------|--------|--------|--------|
A|--------|--------|--------|--------|--------|--------|--------|--------|--------|
F|--------|--------|--------|--------|--------|--------|--------|--------|--------|
C|--------|--------|--------|--------|--------|--------|--------|--------|--------|
G|--------|--------|--------|--------|--------|--------|--------|--------|--------|
D|--------|--------|--------|--------|--------|--------|--------|--------|--------|


D|--------|--------|--------|--------|--------|--------|--------|--------|--------|
A|--------|--------|--------|--------|--------|--------|--------|--------|--------|
F|--------|--------|--------|--------|--------|--------|--------|--------|--------|
C|--------|--------|--------|--------|--------|--------|--------|--------|--------|
G|--------|--------|--------|--------|--------|--------|--------|--------|--------|
D|--------|--------|--------|--------|--------|--------|--------|--------|--------|


D|--------|--------|--------|--------|--------|--------|--------|--------|--------|
A|--------|--------|--------|--------|--------|--------|--------|--------|--------|
F|--------|--------|--------|--------|--------|--------|--------|--------|--------|
C|--------|--------|--------|--------|--------|--------|--------|--------|--------|
G|--------|--------|--------|--------|--------|--------|--------|--------|--------|
D|--------|--------|--------|--------|--------|--------|--------|--------|--------|


D|--------|--------|--------|--------|--------|--------|--------|--------|--------|
A|--------|--------|--------|--------|--------|--------|--------|--------|--------|
F|--------|--------|--------|--------|--------|--------|--------|--------|--------|
C|--------|--------|--------|--------|--------|--------|--------|--------|--------|
G|--------|--------|--------|--------|--------|--------|--------|--------|--------|
D|--------|--------|--------|--------|--------|--------|--------|--------|--------|


D|--------|--------|--------|--------|--------|--------|--------|------------------------------|
A|--------|--------|--------|--------|--------|--------|--------|------------------------------|
F|--------|--------|--------|--------|--------|--------|--------|------------------------------|
C|--------|--------|--------|--------|--------|--------|--------|-3----------------------------|
G|--------|--------|--------|--------|--------|--------|--------|------5---3---5---5---3-------|
D|--------|--------|--------|--------|--------|--------|--------|--------------------------5---|


D|---------------------------|------------------------------|--------------------------|
A|---------------------------|------------------------------|--------------------------|
F|---------------------------|------------------------------|--------------------------|
C|-----------------------3---|-3----------------------------|----------------------3---|
G|-3-------------------------|------5---3---5---5---3-------|-3------------------------|
D|-----3---4---5---5---------|--------------------------5---|------5----4----3---------|


D|------------------------------|---------------------------|------------------------------|
A|------------------------------|---------------------------|------------------------------|
F|------------------------------|---------------------------|------------------------------|
C|-3----------------------------|-----3---4---5---5-----3---|-3------------------------3---|
G|------5---3---5---5---3-------|-3-------------------------|------5---3---5---3-----------|
D|--------------------------5---|---------------------------|----------------------5-------|


D|---------------------------|--------|--------|--------|--------|--------|--------|
A|---------------------------|--------|--------|--------|--------|--------|--------|
F|---------------------------|--------|--------|--------|--------|--------|--------|
C|-----3-----------------5---|--------|--------|--------|--------|--------|--------|
G|---------5---5---5---------|--------|--------|--------|--------|--------|--------|
D|---------------------------|--------|--------|--------|--------|--------|--------|


D|--------|--------|--------|--------|--------|--------|--------|--------|--------|
A|--------|--------|--------|--------|--------|--------|--------|--------|--------|
F|--------|--------|--------|--------|--------|--------|--------|--------|--------|
C|--------|--------|--------|--------|--------|--------|--------|--------|--------|
G|--------|--------|--------|--------|--------|--------|--------|--------|--------|
D|--------|--------|--------|--------|--------|--------|--------|--------|--------|


D|--------|--------|--------|--------|--------|--------|--------|--------|--------|
A|--------|--------|--------|--------|--------|--------|--------|--------|--------|
F|--------|--------|--------|--------|--------|--------|--------|--------|--------|
C|--------|--------|--------|--------|--------|--------|--------|--------|--------|
G|--------|--------|--------|--------|--------|--------|--------|--------|--------|
D|--------|--------|--------|--------|--------|--------|--------|--------|--------|


D|--------|--------|--------|--------|--------|--------|--------|--------|
A|--------|--------|--------|--------|--------|--------|--------|--------|
F|--------|--------|--------|--------|--------|--------|--------|--------|
C|--------|--------|--------|--------|--------|--------|--------|--------|
G|--------|--------|--------|--------|--------|--------|--------|--------|
D|--------|--------|--------|--------|--------|--------|--------|--------|





Track 5: Gt.1

D|--------|--------|--------|--------|--------|--------|--------|--------|--------|
A|--------|--------|--------|--------|--------|--------|--------|--------|--------|
F|--------|--------|--------|--------|--------|--------|--------|--------|--------|
C|--------|--------|--------|--------|--------|--------|--------|--------|--------|
G|--------|--------|--------|--------|--------|--------|--------|--------|--------|
D|--------|--------|--------|--------|--------|--------|--------|--------|--------|


D|--------|--------|--------|--------|--------|--------|--------|--------|--------|
A|--------|--------|--------|--------|--------|--------|--------|--------|--------|
F|--------|--------|--------|--------|--------|--------|--------|--------|--------|
C|--------|--------|--------|--------|--------|--------|--------|--------|--------|
G|--------|--------|--------|--------|--------|--------|--------|--------|--------|
D|--------|--------|--------|--------|--------|--------|--------|--------|--------|


D|--------|--------|--------|--------|--------|--------|--------|--------|--------|
A|--------|--------|--------|--------|--------|--------|--------|--------|--------|
F|--------|--------|--------|--------|--------|--------|--------|--------|--------|
C|--------|--------|--------|--------|--------|--------|--------|--------|--------|
G|--------|--------|--------|--------|--------|--------|--------|--------|--------|
D|--------|--------|--------|--------|--------|--------|--------|--------|--------|


D|--------|--------|--------|--------|--------|--------|--------|--------|--------|
A|--------|--------|--------|--------|--------|--------|--------|--------|--------|
F|--------|--------|--------|--------|--------|--------|--------|--------|--------|
C|--------|--------|--------|--------|--------|--------|--------|--------|--------|
G|--------|--------|--------|--------|--------|--------|--------|--------|--------|
D|--------|--------|--------|--------|--------|--------|--------|--------|--------|


D|--------|--------|--------|--------|--------|--------|--------|--------|--------|
A|--------|--------|--------|--------|--------|--------|--------|--------|--------|
F|--------|--------|--------|--------|--------|--------|--------|--------|--------|
C|--------|--------|--------|--------|--------|--------|--------|--------|--------|
G|--------|--------|--------|--------|--------|--------|--------|--------|--------|
D|--------|--------|--------|--------|--------|--------|--------|--------|--------|


D|--------|--------|--------|--------|--------|--------|--------|--------|--------|
A|--------|--------|--------|--------|--------|--------|--------|--------|--------|
F|--------|--------|--------|--------|--------|--------|--------|--------|--------|
C|--------|--------|--------|--------|--------|--------|--------|--------|--------|
G|--------|--------|--------|--------|--------|--------|--------|--------|--------|
D|--------|--------|--------|--------|--------|--------|--------|--------|--------|


D|--------|--------|--------|--------|--------|--------|--------|--------|--------|
A|--------|--------|--------|--------|--------|--------|--------|--------|--------|
F|--------|--------|--------|--------|--------|--------|--------|--------|--------|
C|--------|--------|--------|--------|--------|--------|--------|--------|--------|
G|--------|--------|--------|--------|--------|--------|--------|--------|--------|
D|--------|--------|--------|--------|--------|--------|--------|--------|--------|


D|--------|--------|--------|--------|--------|--------|--------|--------|--------|
A|--------|--------|--------|--------|--------|--------|--------|--------|--------|
F|--------|--------|--------|--------|--------|--------|--------|--------|--------|
C|--------|--------|--------|--------|--------|--------|--------|--------|--------|
G|--------|--------|--------|--------|--------|--------|--------|--------|--------|
D|--------|--------|--------|--------|--------|--------|--------|--------|--------|


D|--------|--------|--------|--------|--------|--------|--------|--------|--------|
A|--------|--------|--------|--------|--------|--------|--------|--------|--------|
F|--------|--------|--------|--------|--------|--------|--------|--------|--------|
C|--------|--------|--------|--------|--------|--------|--------|--------|--------|
G|--------|--------|--------|--------|--------|--------|--------|--------|--------|
D|--------|--------|--------|--------|--------|--------|--------|--------|--------|


D|--------|--------|--------|--------|--------|--------|------------------------------|
A|--------|--------|--------|--------|--------|--------|------------------------------|
F|--------|--------|--------|--------|--------|--------|------------------------------|
C|--------|--------|--------|--------|--------|--------|-5----------------------------|
G|--------|--------|--------|--------|--------|--------|------7---5---7---7---5-------|
D|--------|--------|--------|--------|--------|--------|--------------------------7---|


D|---------------------------------|-------------------------------------|------------------------|
A|---------------------------------|-------------------------------------|------------------------|
F|---------------------------------|-------------------------------------|------------------------|
C|-------------5-------5-------5---|-----5-------------5---5-------------|--------------------5---|
G|-5-----------------------7-------|---------7--5--------------7--5------|------------------------|
D|-----5---7-----------------------|---------------7-----------------7---|-5-----6---6----7-------|


D|------------------------------|---------------------------------|-------------------------------------|
A|------------------------------|---------------------------------|-------------------------------------|
F|------------------------------|---------------------------------|-------------------------------------|
C|-5----------------------------|-------------5-------5-------5---|-----5-------------5---5-------------|
G|------7---5---7---7---5-------|-5-----------------------7-------|---------7--5--------------7--5------|
D|--------------------------7---|-----5---7-----------------------|---------------7-----------------7---|


D|---------------------|--------|--------|--------|--------|--------|--------|--------|
A|---------------------|--------|--------|--------|--------|--------|--------|--------|
F|---------------------|--------|--------|--------|--------|--------|--------|--------|
C|---------------------|--------|--------|--------|--------|--------|--------|--------|
G|---------------------|--------|--------|--------|--------|--------|--------|--------|
D|-5-----6---6---------|--------|--------|--------|--------|--------|--------|--------|


D|--------|--------|--------|--------|--------|--------|--------|--------|--------|
A|--------|--------|--------|--------|--------|--------|--------|--------|--------|
F|--------|--------|--------|--------|--------|--------|--------|--------|--------|
C|--------|--------|--------|--------|--------|--------|--------|--------|--------|
G|--------|--------|--------|--------|--------|--------|--------|--------|--------|
D|--------|--------|--------|--------|--------|--------|--------|--------|--------|


D|--------|--------|--------|--------|--------|--------|--------|--------|
A|--------|--------|--------|--------|--------|--------|--------|--------|
F|--------|--------|--------|--------|--------|--------|--------|--------|
C|--------|--------|--------|--------|--------|--------|--------|--------|
G|--------|--------|--------|--------|--------|--------|--------|--------|
D|--------|--------|--------|--------|--------|--------|--------|--------|





Track 6: Gt.1

D|--------|--------|--------|--------|--------|--------|--------|--------|--------|
A|--------|--------|--------|--------|--------|--------|--------|--------|--------|
F|--------|--------|--------|--------|--------|--------|--------|--------|--------|
C|--------|--------|--------|--------|--------|--------|--------|--------|--------|
G|--------|--------|--------|--------|--------|--------|--------|--------|--------|
D|--------|--------|--------|--------|--------|--------|--------|--------|--------|


D|--------|--------|--------|--------|--------|--------|--------|--------|--------|
A|--------|--------|--------|--------|--------|--------|--------|--------|--------|
F|--------|--------|--------|--------|--------|--------|--------|--------|--------|
C|--------|--------|--------|--------|--------|--------|--------|--------|--------|
G|--------|--------|--------|--------|--------|--------|--------|--------|--------|
D|--------|--------|--------|--------|--------|--------|--------|--------|--------|


D|--------|--------|--------|--------|--------|--------|--------|--------|--------|
A|--------|--------|--------|--------|--------|--------|--------|--------|--------|
F|--------|--------|--------|--------|--------|--------|--------|--------|--------|
C|--------|--------|--------|--------|--------|--------|--------|--------|--------|
G|--------|--------|--------|--------|--------|--------|--------|--------|--------|
D|--------|--------|--------|--------|--------|--------|--------|--------|--------|


D|--------|--------|--------|--------|--------|--------|--------|--------|--------|
A|--------|--------|--------|--------|--------|--------|--------|--------|--------|
F|--------|--------|--------|--------|--------|--------|--------|--------|--------|
C|--------|--------|--------|--------|--------|--------|--------|--------|--------|
G|--------|--------|--------|--------|--------|--------|--------|--------|--------|
D|--------|--------|--------|--------|--------|--------|--------|--------|--------|


D|--------|--------|--------|--------|--------|--------|--------|--------|--------|
A|--------|--------|--------|--------|--------|--------|--------|--------|--------|
F|--------|--------|--------|--------|--------|--------|--------|--------|--------|
C|--------|--------|--------|--------|--------|--------|--------|--------|--------|
G|--------|--------|--------|--------|--------|--------|--------|--------|--------|
D|--------|--------|--------|--------|--------|--------|--------|--------|--------|


D|--------|--------|--------|--------|--------|--------|--------|--------|--------|
A|--------|--------|--------|--------|--------|--------|--------|--------|--------|
F|--------|--------|--------|--------|--------|--------|--------|--------|--------|
C|--------|--------|--------|--------|--------|--------|--------|--------|--------|
G|--------|--------|--------|--------|--------|--------|--------|--------|--------|
D|--------|--------|--------|--------|--------|--------|--------|--------|--------|


D|--------|--------|--------|--------|--------|--------|--------|--------|--------|
A|--------|--------|--------|--------|--------|--------|--------|--------|--------|
F|--------|--------|--------|--------|--------|--------|--------|--------|--------|
C|--------|--------|--------|--------|--------|--------|--------|--------|--------|
G|--------|--------|--------|--------|--------|--------|--------|--------|--------|
D|--------|--------|--------|--------|--------|--------|--------|--------|--------|


D|--------|--------|--------|--------|--------|--------|--------|--------|--------|
A|--------|--------|--------|--------|--------|--------|--------|--------|--------|
F|--------|--------|--------|--------|--------|--------|--------|--------|--------|
C|--------|--------|--------|--------|--------|--------|--------|--------|--------|
G|--------|--------|--------|--------|--------|--------|--------|--------|--------|
D|--------|--------|--------|--------|--------|--------|--------|--------|--------|


D|--------|--------|--------|--------|--------|--------|--------|--------|--------|
A|--------|--------|--------|--------|--------|--------|--------|--------|--------|
F|--------|--------|--------|--------|--------|--------|--------|--------|--------|
C|--------|--------|--------|--------|--------|--------|--------|--------|--------|
G|--------|--------|--------|--------|--------|--------|--------|--------|--------|
D|--------|--------|--------|--------|--------|--------|--------|--------|--------|


D|--------|--------|--------|--------|--------|--------|--------|--------|--------|
A|--------|--------|--------|--------|--------|--------|--------|--------|--------|
F|--------|--------|--------|--------|--------|--------|--------|--------|--------|
C|--------|--------|--------|--------|--------|--------|--------|--------|--------|
G|--------|--------|--------|--------|--------|--------|--------|--------|--------|
D|--------|--------|--------|--------|--------|--------|--------|--------|--------|


D|--------|--------|--------|--------|----------------|------------------------------|
A|--------|--------|--------|--------|----------------|------------------------------|
F|--------|--------|--------|--------|----------------|------------------------------|
C|--------|--------|--------|--------|------------3---|-3----------------------------|
G|--------|--------|--------|--------|----------------|------5---3---5---5---3-------|
D|--------|--------|--------|--------|--------7-------|--------------------------5---|


D|--------|--------|--------|--------|--------|--------|--------|--------|--------|
A|--------|--------|--------|--------|--------|--------|--------|--------|--------|
F|--------|--------|--------|--------|--------|--------|--------|--------|--------|
C|--------|--------|--------|--------|--------|--------|--------|--------|--------|
G|--------|--------|--------|--------|--------|--------|--------|--------|--------|
D|--------|--------|--------|--------|--------|--------|--------|--------|--------|


D|--------|--------|--------|--------|--------|--------|--------|--------|--------|
A|--------|--------|--------|--------|--------|--------|--------|--------|--------|
F|--------|--------|--------|--------|--------|--------|--------|--------|--------|
C|--------|--------|--------|--------|--------|--------|--------|--------|--------|
G|--------|--------|--------|--------|--------|--------|--------|--------|--------|
D|--------|--------|--------|--------|--------|--------|--------|--------|--------|


D|--------|--------|--------|--------|--------|
A|--------|--------|--------|--------|--------|
F|--------|--------|--------|--------|--------|
C|--------|--------|--------|--------|--------|
G|--------|--------|--------|--------|--------|
D|--------|--------|--------|--------|--------|





Track 7: Gt.1

D|--------|--------|--------|--------|--------|--------|--------|--------|--------|
A|--------|--------|--------|--------|--------|--------|--------|--------|--------|
F|--------|--------|--------|--------|--------|--------|--------|--------|--------|
C|--------|--------|--------|--------|--------|--------|--------|--------|--------|
G|--------|--------|--------|--------|--------|--------|--------|--------|--------|
D|--------|--------|--------|--------|--------|--------|--------|--------|--------|


D|--------|--------|--------|--------|--------|--------|--------|--------|--------|
A|--------|--------|--------|--------|--------|--------|--------|--------|--------|
F|--------|--------|--------|--------|--------|--------|--------|--------|--------|
C|--------|--------|--------|--------|--------|--------|--------|--------|--------|
G|--------|--------|--------|--------|--------|--------|--------|--------|--------|
D|--------|--------|--------|--------|--------|--------|--------|--------|--------|


D|--------|--------|--------|--------|--------|--------|--------|--------|--------|
A|--------|--------|--------|--------|--------|--------|--------|--------|--------|
F|--------|--------|--------|--------|--------|--------|--------|--------|--------|
C|--------|--------|--------|--------|--------|--------|--------|--------|--------|
G|--------|--------|--------|--------|--------|--------|--------|--------|--------|
D|--------|--------|--------|--------|--------|--------|--------|--------|--------|


D|--------|--------|--------|--------|--------|--------|--------|--------|--------|
A|--------|--------|--------|--------|--------|--------|--------|--------|--------|
F|--------|--------|--------|--------|--------|--------|--------|--------|--------|
C|--------|--------|--------|--------|--------|--------|--------|--------|--------|
G|--------|--------|--------|--------|--------|--------|--------|--------|--------|
D|--------|--------|--------|--------|--------|--------|--------|--------|--------|


D|--------|--------|--------|--------|--------|--------|--------|--------|--------|
A|--------|--------|--------|--------|--------|--------|--------|--------|--------|
F|--------|--------|--------|--------|--------|--------|--------|--------|--------|
C|--------|--------|--------|--------|--------|--------|--------|--------|--------|
G|--------|--------|--------|--------|--------|--------|--------|--------|--------|
D|--------|--------|--------|--------|--------|--------|--------|--------|--------|


D|--------|--------|--------|--------|--------|--------|--------|--------|--------|
A|--------|--------|--------|--------|--------|--------|--------|--------|--------|
F|--------|--------|--------|--------|--------|--------|--------|--------|--------|
C|--------|--------|--------|--------|--------|--------|--------|--------|--------|
G|--------|--------|--------|--------|--------|--------|--------|--------|--------|
D|--------|--------|--------|--------|--------|--------|--------|--------|--------|


D|--------|--------|--------|--------|--------|--------|--------|--------|--------|
A|--------|--------|--------|--------|--------|--------|--------|--------|--------|
F|--------|--------|--------|--------|--------|--------|--------|--------|--------|
C|--------|--------|--------|--------|--------|--------|--------|--------|--------|
G|--------|--------|--------|--------|--------|--------|--------|--------|--------|
D|--------|--------|--------|--------|--------|--------|--------|--------|--------|


D|--------|--------|--------|--------|--------|--------|--------|--------|--------|
A|--------|--------|--------|--------|--------|--------|--------|--------|--------|
F|--------|--------|--------|--------|--------|--------|--------|--------|--------|
C|--------|--------|--------|--------|--------|--------|--------|--------|--------|
G|--------|--------|--------|--------|--------|--------|--------|--------|--------|
D|--------|--------|--------|--------|--------|--------|--------|--------|--------|


D|--------|--------|--------|--------|--------|--------|--------|--------|--------|
A|--------|--------|--------|--------|--------|--------|--------|--------|--------|
F|--------|--------|--------|--------|--------|--------|--------|--------|--------|
C|--------|--------|--------|--------|--------|--------|--------|--------|--------|
G|--------|--------|--------|--------|--------|--------|--------|--------|--------|
D|--------|--------|--------|--------|--------|--------|--------|--------|--------|


D|--------|--------|--------|--------|--------|--------|--------|--------|--------|
A|--------|--------|--------|--------|--------|--------|--------|--------|--------|
F|--------|--------|--------|--------|--------|--------|--------|--------|--------|
C|--------|--------|--------|--------|--------|--------|--------|--------|--------|
G|--------|--------|--------|--------|--------|--------|--------|--------|--------|
D|--------|--------|--------|--------|--------|--------|--------|--------|--------|


D|--------|--------|--------|--------|--------|--------|---------------------------|
A|--------|--------|--------|--------|--------|--------|---------------------------|
F|--------|--------|--------|--------|--------|--------|---------------------------|
C|--------|--------|--------|--------|--------|--------|-----------------------3---|
G|--------|--------|--------|--------|--------|--------|-3-------------------------|
D|--------|--------|--------|--------|--------|--------|-----3---4---5---5---------|


D|------------------------------|--------------------------|------------------------------|
A|------------------------------|--------------------------|------------------------------|
F|------------------------------|--------------------------|------------------------------|
C|-3----------------------------|----------------------3---|-3----------------------------|
G|------5---3---5---5---3-------|-3------------------------|------5---3---5---5---3-------|
D|--------------------------5---|------5----4----3---------|--------------------------5---|


D|---------------------------|------------------------------|---------------------------|
A|---------------------------|------------------------------|---------------------------|
F|---------------------------|------------------------------|---------------------------|
C|-----3---4---5---5-----3---|-3------------------------3---|-----3-----------------5---|
G|-3-------------------------|------5---3---5---3-----------|---------5---5---5---------|
D|---------------------------|----------------------5-------|---------------------------|


D|--------|--------|--------|--------|--------|--------|--------|--------|--------|
A|--------|--------|--------|--------|--------|--------|--------|--------|--------|
F|--------|--------|--------|--------|--------|--------|--------|--------|--------|
C|--------|--------|--------|--------|--------|--------|--------|--------|--------|
G|--------|--------|--------|--------|--------|--------|--------|--------|--------|
D|--------|--------|--------|--------|--------|--------|--------|--------|--------|


D|--------|--------|--------|--------|--------|--------|--------|
A|--------|--------|--------|--------|--------|--------|--------|
F|--------|--------|--------|--------|--------|--------|--------|
C|--------|--------|--------|--------|--------|--------|--------|
G|--------|--------|--------|--------|--------|--------|--------|
D|--------|--------|--------|--------|--------|--------|--------|





Track 8: Gt.1

D|--------|--------|--------|--------|--------|--------|--------|--------|--------|
A|--------|--------|--------|--------|--------|--------|--------|--------|--------|
F|--------|--------|--------|--------|--------|--------|--------|--------|--------|
C|--------|--------|--------|--------|--------|--------|--------|--------|--------|
G|--------|--------|--------|--------|--------|--------|--------|--------|--------|
D|--------|--------|--------|--------|--------|--------|--------|--------|--------|


D|--------|--------|--------|--------|--------|--------|--------|--------|--------|
A|--------|--------|--------|--------|--------|--------|--------|--------|--------|
F|--------|--------|--------|--------|--------|--------|--------|--------|--------|
C|--------|--------|--------|--------|--------|--------|--------|--------|--------|
G|--------|--------|--------|--------|--------|--------|--------|--------|--------|
D|--------|--------|--------|--------|--------|--------|--------|--------|--------|


D|--------|--------|--------|--------|--------|--------|--------|--------|--------|
A|--------|--------|--------|--------|--------|--------|--------|--------|--------|
F|--------|--------|--------|--------|--------|--------|--------|--------|--------|
C|--------|--------|--------|--------|--------|--------|--------|--------|--------|
G|--------|--------|--------|--------|--------|--------|--------|--------|--------|
D|--------|--------|--------|--------|--------|--------|--------|--------|--------|


D|--------|--------|--------|--------|--------|--------|--------|--------|--------|
A|--------|--------|--------|--------|--------|--------|--------|--------|--------|
F|--------|--------|--------|--------|--------|--------|--------|--------|--------|
C|--------|--------|--------|--------|--------|--------|--------|--------|--------|
G|--------|--------|--------|--------|--------|--------|--------|--------|--------|
D|--------|--------|--------|--------|--------|--------|--------|--------|--------|


D|--------|--------|--------|--------|--------|--------|--------|--------|--------|
A|--------|--------|--------|--------|--------|--------|--------|--------|--------|
F|--------|--------|--------|--------|--------|--------|--------|--------|--------|
C|--------|--------|--------|--------|--------|--------|--------|--------|--------|
G|--------|--------|--------|--------|--------|--------|--------|--------|--------|
D|--------|--------|--------|--------|--------|--------|--------|--------|--------|


D|--------|--------|--------|--------|--------|--------|--------|--------|--------|
A|--------|--------|--------|--------|--------|--------|--------|--------|--------|
F|--------|--------|--------|--------|--------|--------|--------|--------|--------|
C|--------|--------|--------|--------|--------|--------|--------|--------|--------|
G|--------|--------|--------|--------|--------|--------|--------|--------|--------|
D|--------|--------|--------|--------|--------|--------|--------|--------|--------|


D|--------|--------|--------|--------|--------|--------|--------|--------|--------|
A|--------|--------|--------|--------|--------|--------|--------|--------|--------|
F|--------|--------|--------|--------|--------|--------|--------|--------|--------|
C|--------|--------|--------|--------|--------|--------|--------|--------|--------|
G|--------|--------|--------|--------|--------|--------|--------|--------|--------|
D|--------|--------|--------|--------|--------|--------|--------|--------|--------|


D|--------|--------|--------|--------|--------|--------|--------|--------|--------|
A|--------|--------|--------|--------|--------|--------|--------|--------|--------|
F|--------|--------|--------|--------|--------|--------|--------|--------|--------|
C|--------|--------|--------|--------|--------|--------|--------|--------|--------|
G|--------|--------|--------|--------|--------|--------|--------|--------|--------|
D|--------|--------|--------|--------|--------|--------|--------|--------|--------|


D|--------|--------|--------|--------|--------|--------|--------|--------|--------|
A|--------|--------|--------|--------|--------|--------|--------|--------|--------|
F|--------|--------|--------|--------|--------|--------|--------|--------|--------|
C|--------|--------|--------|--------|--------|--------|--------|--------|--------|
G|--------|--------|--------|--------|--------|--------|--------|--------|--------|
D|--------|--------|--------|--------|--------|--------|--------|--------|--------|


D|--------|--------|--------|--------|--------|--------|--------|--------|--------|
A|--------|--------|--------|--------|--------|--------|--------|--------|--------|
F|--------|--------|--------|--------|--------|--------|--------|--------|--------|
C|--------|--------|--------|--------|--------|--------|--------|--------|--------|
G|--------|--------|--------|--------|--------|--------|--------|--------|--------|
D|--------|--------|--------|--------|--------|--------|--------|--------|--------|


D|--------|--------|--------|--------|--------|--------|--------|--------|--------|
A|--------|--------|--------|--------|--------|--------|--------|--------|--------|
F|--------|--------|--------|--------|--------|--------|--------|--------|--------|
C|--------|--------|--------|--------|--------|--------|--------|--------|--------|
G|--------|--------|--------|--------|--------|--------|--------|--------|--------|
D|--------|--------|--------|--------|--------|--------|--------|--------|--------|


D|--------|--------|--------|--------|---------------------------|-----------------|
A|--------|--------|--------|--------|---------------------------|-----------------|
F|--------|--------|--------|--------|---------------------------|-------0---------|
C|--------|--------|--------|--------|-5-------------------------|-------------5---|
G|--------|--------|--------|--------|------7---5---7---7--------|-----------------|
D|--------|--------|--------|--------|----------------------0----|-0---------------|


D|---------------------------|-----------------|---------------------------|-----------------|
A|---------------------------|-----------------|---------------------------|-----------------|
F|---------------------------|-------0---------|---------------------------|-------0---------|
C|-5-------------------------|-------------5---|-5-------------------------|-------------5---|
G|------7---5---7---7--------|-----------------|------7---5---7---7--------|-----------------|
D|----------------------1----|-1---------------|----------------------0----|-0---------------|


D|---------------------------|-----------------|---------------------------|-----------------|
A|---------------------------|-----------------|---------------------------|-----------------|
F|---------------------------|-------0---------|---------------------------|-------0---------|
C|-5-------------------------|-------------5---|-5-------------------------|-------------5---|
G|------7---5---7---7--------|-----------------|------7---5---7---7--------|-----------------|
D|----------------------1----|-1---------------|----------------------0----|-0---------------|


D|---------------------------|-----------------|---------------------------|-----------------|
A|---------------------------|-----------------|---------------------------|-----------------|
F|---------------------------|-------0---------|---------------------------|-------0---------|
C|-5-------------------------|-------------5---|-5-------------------------|-------------5---|
G|------7---5---7---7--------|-----------------|------7---5---7---7--------|-----------------|
D|----------------------1----|-1---------------|----------------------0----|-0---------------|


D|---------------------------|-----------------|
A|---------------------------|-----------------|
F|---------------------------|-------0---------|
C|-5-------------------------|-------------5---|
G|------7---5---7---7--------|-----------------|
D|----------------------1----|-1---------------|





Track 9: Bass

F|-------------------------------------------------|-------------------------------------------------|
C|-------------------------------------------------|-------------------------------------------------|
G|-------------------------------------------------|-------------------------------------------------|
D|-0--0--0--0--0--0--0--0--0--0--0--0--0--0--0--0--|-0--0--0--0--0--0--0--0--0--0--0--0--0--0--0--0--|


F|-------------------------------------------------|-------------------------------------------------|
C|-------------------------------------------------|-------------------------------------------------|
G|-------------------------------------------------|-------------------------------------------------|
D|-0--0--0--0--0--0--0--0--0--0--0--0--0--0--0--0--|-0--0--0--0--0--0--0--0--0--0--0--0--0--0--0--0--|


F|-------------------------------------------------|--------|--------------------|
C|-------------------------------------------------|--------|--------------------|
G|-------------------------------------------------|--------|--------------------|
D|-1--1--1--1-----1--1--1-----1--1--1-----1--1--1--|--------|-----------3---19---|


F|-----------------------------------------|-----------------------------------------|
C|-----------------------------------------|-----------------------------------------|
G|-------------1---2-----------------------|-------------1---2-----------------------|
D|-3--3-----3----------3--3-----3--1---2---|-3--3-----3----------3--3-----3--1---2---|


F|-----------------------------------------|-----------------------------------------|
C|-----------------------------------------|-----------------------------------------|
G|-------------1---2-----------------------|-------------1---2-----------------------|
D|-3--3-----3----------3--3-----3--1---2---|-3--3-----3----------3--3-----3--1---2---|


F|-------------------------------------------------|-------------------------------------------------|
C|-------------------------------------------------|-------------------------------------------------|
G|-------------------------------------------------|-------------------------------------------------|
D|-0--0--0--0--0--0--0--0--0--0--0--0--0--0--0--0--|-0--0--0--0--0--0--0--0--0--0--0--0--0--0--0--0--|


F|-----------------------------------------|-----------------------------------------|
C|-----------------------------------------|-----------------------------------------|
G|-------------1---2-----------------------|-------------1---2-----------------------|
D|-3--3-----3----------3--3-----3--1---2---|-3--3-----3----------3--3-----3--1---2---|


F|-------------------------------------------------|-------------------------------------------------|
C|-------------------------------------------------|-------------------------------------------------|
G|-------------------------------------------------|-------------------------------------------------|
D|-0--0--0--0--0--0--0--0--0--0--0--0--0--0--0--0--|-0--0--0--0--0--0--0--0--0--0--0--0--0--0--0--0--|


F|-----------------------------------------|-----------------------------------------|
C|-----------------------------------------|-----------------------------------------|
G|-------------1---2-----------------------|-------------1---2-----------------------|
D|-3--3-----3----------3--3-----3--1---2---|-3--3-----3----------3--3-----3--1---2---|


F|-----------------------------------------|-----------------------------------------|
C|-----------------------------------------|-----------------------------------------|
G|-------------1---2-----------------------|-------------1---2-----------------------|
D|-3--3-----3----------3--3-----3--1---2---|-3--3-----3----------3--3-----3--1---2---|


F|-------------------------------------------------|------------------------------------------|
C|-------------------------------------------------|------------------------------------------|
G|-------------------------------------------------|------------------------------------------|
D|-0--0--0--0--0-----0--0--0--0--0--0--0--0--0--0--|-0-----0--0-------0--0--0--0--0-----0--0--|


F|------------------------------------------|-------------------------------------------------|
C|------------------------------------------|-------------------------------------------------|
G|------------------------------------------|-------------------------------------------------|
D|-0--0--0--0--0--0--0--0--0-----0--0-------|-0--0--0--0--0-----0--0--0--0--0--0--0--0--0--0--|


F|------------------------------------------|------------------------------------------|
C|------------------------------------------|------------------------------------------|
G|------------------------------------------|------------------------------------------|
D|-0-----0--0-------0--0--0--0--0-----0--0--|-0--0--0--0--0--0--0--0--0-----0--0-------|


F|-----------------------------------|-------------------------------------------------|
C|-----------------------------------|-------------------------------------------------|
G|-----------------------------------|-------------------------------------------------|
D|-0--0--0--0------------0--0--0--0--|-0--0--0--0--0--0--0--0--0--0--0--0--0--0--0--0--|


F|-------------------------------------------------|-------------------------------------------------|
C|-------------------------------------------------|-------------------------------------------------|
G|-------------------------------------------------|-------------------------------------------------|
D|-0--0--0--0--0--0--0--0--0--0--0--0--0--0--0--0--|-0--0--0--0--0--0--0--0--0--0--0--0--0--0--0--0--|


F|-------------------------------------------------|------------------------------------------|
C|-------------------------------------------------|------------------------------------------|
G|-------------------------------------------------|------------------------------------------|
D|-0--0--0--0--0--0--0--0--0--0--0--0--1--1--1--1--|----1--1--1-----1--1--1-----1--1--1-------|


F|-------------|-------------------------------------------------|-----------------------------------------|
C|-------------|-------------------------------------------------|-----------------------------------------|
G|-------------|-------------------------------------------------|-1---2-----------------------------------|
D|-------------|-0--0--0--0--0--0--0--0--0--0--0--0--3--3-----3--|---------3--3-----3--1---2---3--3-----3--|


F|-----------------------------------------|-----------------------------------------|
C|-----------------------------------------|-----------------------------------------|
G|-1---2-----------------------------------|-1---2-----------------------------------|
D|---------3--3-----3--1---2---3--3-----3--|---------3--3-----3--1---2---3--3-----3--|


F|-----------------------------------------|-------------------------------------------------|
C|-----------------------------------------|-------------------------------------------------|
G|-1---2-----------------------------------|-------------------------------------------------|
D|---------3--3-----3--1---2---0--0--0--0--|-0--0--0--0--0--0--0--0--0--0--0--0--0--0--0--0--|


F|-------------------------------------------------|-----------------------------------------|
C|-------------------------------------------------|-----------------------------------------|
G|-------------------------------------------------|-1---2-----------------------------------|
D|-0--0--0--0--0--0--0--0--0--0--0--0--3--3-----3--|---------3--3-----3--1---2---3--3-----3--|


F|-----------------------------------------|-------------------------------------------------|
C|-----------------------------------------|-------------------------------------------------|
G|-1---2-----------------------------------|-------------------------------------------------|
D|---------3--3-----3--1---2---0--0--0--0--|-0--0--0--0--0--0--0--0--0--0--0--0--0--0--0--0--|


F|-------------------------------------------------|-----------------------------------------|
C|-------------------------------------------------|-----------------------------------------|
G|-------------------------------------------------|-1---2-----------------------------------|
D|-0--0--0--0--0--0--0--0--0--0--0--0--3--3-----3--|---------3--3-----3--1---2---3--3-----3--|


F|-----------------------------------------|-----------------------------------------|
C|-----------------------------------------|-----------------------------------------|
G|-1---2-----------------------------------|-1---2-----------------------------------|
D|---------3--3-----3--1---2---3--3-----3--|---------3--3-----3--1---2---3--3-----3--|


F|-----------------------------------------|-------------------------------------------------|
C|-----------------------------------------|-------------------------------------------------|
G|-1---2-----------------------------------|-------------------------------------------------|
D|---------3--3-----3--1---2---0--0--0--0--|-0-----0--0--0--0--0--0--0--0--0--0--0-----0--0--|


F|------------------------------------------|------------------------------------------|
C|------------------------------------------|------------------------------------------|
G|------------------------------------------|------------------------------------------|
D|------0--0--0--0--0-----0--0--0--0--0--0--|-0--0--0--0--0-----0--0-------0--0--0--0--|


F|-------------------------------------------------|------------------------------------------|
C|-------------------------------------------------|------------------------------------------|
G|-------------------------------------------------|------------------------------------------|
D|-0-----0--0--0--0--0--0--0--0--0--0--0-----0--0--|------0--0--0--0--0-----0--0--0--0--0--0--|


F|---------------------------------------------|--------|--------|--------|------------------------|
C|---------------------------------------------|--------|--------|--------|--------------------5---|
G|---------------------------------------------|--------|--------|--------|------------------------|
D|-0--0--0--0--0-----0--0--12------0--0--0--0--|--------|--------|--------|-5-----6---6----7-------|


F|------------------------------|---------------------------------|-------------------------------------|
C|-5----------------------------|-------------5-------5-------5---|-----5-------------5---5-------------|
G|------7---5---7---7---5-------|-5-----------------------7-------|---------7--5--------------7--5------|
D|--------------------------7---|-----5---7-----------------------|---------------7-----------------7---|


F|------------------------|------------------------------|---------------------------|
C|--------------------3---|-3----------------------------|-----------------------3---|
G|------------------------|------5---3---5---5---3-------|-3-------------------------|
D|-5-----6---6----7-------|--------------------------5---|-----3---4---5---5---------|


F|------------------------------|--------------------------|------------------------------|
C|-3----------------------------|----------------------3---|-3----------------------------|
G|------5---3---5---5---3-------|-3------------------------|------5---3---5---5---3-------|
D|--------------------------5---|------5----4----3---------|--------------------------5---|


F|---------------------------|------------------------------|------------------------|
C|-----3---4---5---5-----3---|-3------------------------3---|-----3--------------5---|
G|-3-------------------------|------5---3---5---3-----------|---------5----5---------|
D|---------------------------|----------------------5-------|------------------------|


F|------------------------------|---------------------------------|-------------------------------------|
C|-5----------------------------|-------------5-------5-------5---|-----5-------------5---5-------------|
G|------7---5---7---7---5-------|-5-----------------------7-------|---------7--5--------------7--5------|
D|--------------------------7---|-----5---7-----------------------|---------------7-----------------7---|


F|------------------------|------------------------------|---------------------------------|
C|--------------------5---|-5----------------------------|-------------5-------5-------5---|
G|------------------------|------7---5---7---7---5-------|-5-----------------------7-------|
D|-5-----6---6----7-------|--------------------------7---|-----5---7-----------------------|


F|-------------------------------------|------------------------|------------------------------|
C|-----5-------------5---5-------------|--------------------3---|-3----------------------------|
G|---------7--5--------------7--5------|------------------------|------5---3---5---5---3-------|
D|---------------7-----------------7---|-5-----6---6----7-------|--------------------------5---|


F|---------------------------|------------------------------|--------------------------|
C|-----------------------3---|-3----------------------------|----------------------3---|
G|-3-------------------------|------5---3---5---5---3-------|-3------------------------|
D|-----3---4---5---5---------|--------------------------5---|------5----4----3---------|


F|------------------------------|---------------------------|------------------------------|
C|-3----------------------------|-----3---4---5---5-----3---|-3------------------------3---|
G|------5---3---5---5---3-------|-3-------------------------|------5---3---5---3-----------|
D|--------------------------5---|---------------------------|----------------------5-------|


F|------------------------|------------------------------|---------------------------------|
C|-----3--------------5---|-5----------------------------|-------------5-------5-------5---|
G|---------5----5---------|------7---5---7---7---5-------|-5-----------------------7-------|
D|------------------------|--------------------------7---|-----5---7-----------------------|


F|-------------------------------------|------------------------|------------------------------|
C|-----5-------------5---5-------------|--------------------5---|-5----------------------------|
G|---------7--5--------------7--5------|------------------------|------7---5---7---7---5-------|
D|---------------7-----------------7---|-5-----6---6----7-------|--------------------------7---|


F|---------------------------------|-------------------------------------|------------------------|
C|-------------5-------5-------5---|-----5-------------5---5-------------|--------------------3---|
G|-5-----------------------7-------|---------7--5--------------7--5------|------------------------|
D|-----5---7-----------------------|---------------7-----------------7---|-5-----6---6----7-------|


F|------------------------------|---------------------------|------------------------------|
C|-3----------------------------|-----------------------3---|-3----------------------------|
G|------5---3---5---5---3-------|-3-------------------------|------5---3---5---5---3-------|
D|--------------------------5---|-----3---4---5---5---------|--------------------------5---|


F|--------------------------|------------------------------|---------------------------|
C|----------------------3---|-3----------------------------|-----3---4---5---5-----3---|
G|-3------------------------|------5---3---5---5---3-------|-3-------------------------|
D|------5----4----3---------|--------------------------5---|---------------------------|


F|------------------------------|------------------------|---------------------------|
C|-3------------------------3---|-----3--------------5---|-5-------------------------|
G|------5---3---5---3-----------|---------5----5---------|------7---5---7---7--------|
D|----------------------5-------|------------------------|----------------------0----|


F|---------------------------------|---------------------------|---------------------------------|
C|-----------------------------5---|-5-------------------------|---------5---7---7---5---7---5---|
G|---------------------5-----------|------7---5---7---7--------|-----7---------------------------|
D|-0---5---6---7---7-------7-------|----------------------1----|-1-------------------------------|


F|---------------------------|---------------------------------|---------------------------|
C|-5-------------------------|-----------------------------5---|-5-------------------------|
G|------7---5---7---7--------|---------------------------------|------7---5---7---7--------|
D|----------------------0----|-0---5---7---5---7---5---7-------|----------------------1----|


F|---------------------------------|---------------------------|---------------------------------|
C|---------5---7---7---5---7---5---|-5-------------------------|-----------------------------5---|
G|-----7---------------------------|------7---5---7---7--------|---------------------5-----------|
D|-1-------------------------------|----------------------0----|-0---5---6---7---7-------7-------|


F|---------------------------|---------------------------------|---------------------------|
C|-5-------------------------|---------5---7---7---5---7---5---|-5-------------------------|
G|------7---5---7---7--------|-----7---------------------------|------7---5---7---7--------|
D|----------------------1----|-1-------------------------------|----------------------0----|


F|---------------------------------|---------------------------|---------------------------------|
C|-----------------------------5---|-5-------------------------|---------5---7---7---5---7---5---|
G|---------------------------------|------7---5---7---7--------|-----7---------------------------|
D|-0---5---7---5---7---5---7-------|----------------------1----|-1-------------------------------|