Menu:

 

Search:

 

pantera - the great southern trendkill:

 



Title: The Great Southern Trendkill
Artist: 
Album: The Great Southern Trendkill
Author: Vincent Abbott, Darrell Abbott, Philip Anselmo and Rex Brown


Track 1: Rhythm Guitar

C#|---------------------------------|---------------------------------|---------------------------------|
G#|---------------------------------|---------------------------------|---------------------------------|
 E|---------------------------------|---------------------------------|---------------------------------|
 B|---------------------------------|---------------------------------|---------------------------------|
F#|---------------------------------|---------------------------------|---------------------------------|
C#|-0---0---0---0---0---0---0---0---|-0---0---0---0---0---0---0---0---|-0---0---0---0---0---0---0---0---|


C#|---------------------------------|---------------------------------|---------------------------------|
G#|---------------------------------|---------------------------------|---------------------------------|
 E|---------------------------------|---------------------------------|---------------------------------|
 B|---------------------------------|---------------------------------|---------------------------------|
F#|---------------------------------|---------------------------------|---------------------------------|
C#|-0---0---0---0---0---0---0---0---|-0---0---0---0---0---0---0---0---|-0---0---0---0---0---0---0---0---|


C#|---------------------------------|---------------------------------|-----------------------------------------------|
G#|---------------------------------|---------------------------------|-----------------------------------------------|
 E|---------------------------------|---------------------------------|-----------------------------------------------|
 B|---------------------------------|---------------------------------|-3--2--2--2------2--2--2-----2--2--2-----2--2--|
F#|---------------------------------|---------------------------------|-3--2--2--2------2--2--2-----2--2--2-----2--2--|
C#|-0---0---0---0---0---0---0---0---|-0---0---0---0---0---0---0---0---|-1--0--0--0------0--0--0-----0--0--0-----0--0--|


C#|-----------------------------------------|-----------------------------------------|
G#|-----------------------------------------|-----------------------------------------|
 E|-----------------------------------------|-----------------------------------------|
 B|-----------------------------------------|-----------------------------------------|
F#|-------------1---2---------------3---4---|-------------1---2---------------3---4---|
C#|-0--3-----3----------3--3-----0--1---2---|-3--3-----3----------3--3-----0--1---2---|


C#|-----------------------------------------|-----------------------------------------|
G#|-----------------------------------------|-----------------------------------------|
 E|-----------------------------------------|-----------------------------------------|
 B|-----------------------------------------|-----------------------------------------|
F#|-------------1---2---------------3---4---|-------------1---2---------------3---4---|
C#|-3--3-----3----------3--3-----0--1---2---|-3--3-----3----------3--3-----0--1---2---|


C#|-----------------------------------------|-----------------------------------------|
G#|-----------------------------------------|-----------------------------------------|
 E|-----------------------------------------|-----------------------------------------|
 B|-----------------------------------------|-----------------------------------------|
F#|-------------1---2---------------3---4---|-------------1---2---------------3---4---|
C#|-3--3-----3----------3--3-----0--1---2---|-3--3-----3----------3--3-----0--1---2---|


C#|---------------------------------|---------------------------------|---------------------------------|
G#|---------------------------------|---------------------------------|---------------------------------|
 E|---------------------------------|---------------------------------|---------------------------------|
 B|---------------------------------|---------------------------------|---------------------------------|
F#|---------------------------------|---------------------------------|---------------------------------|
C#|-0---0---0---0---0---0---0---0---|-0---0---0---0---0---0---0---0---|-0---0---0---0---0---0---0---0---|


C#|---------------------------------|-----------------------------------------|-----------------------------------------|
G#|---------------------------------|-----------------------------------------|-----------------------------------------|
 E|---------------------------------|-----------------------------------------|-----------------------------------------|
 B|---------------------------------|-----------------------------------------|-----------------------------------------|
F#|---------------------------------|-------------1---2---------------3---4---|-------------1---2---------------3---4---|
C#|-0---0---0---0---0---0---0---0---|-3--3-----3----------3--3-----0--1---2---|-3--3-----3----------3--3-----0--1---2---|


C#|---------------------------------|---------------------------------|---------------------------------|
G#|---------------------------------|---------------------------------|---------------------------------|
 E|---------------------------------|---------------------------------|---------------------------------|
 B|---------------------------------|---------------------------------|---------------------------------|
F#|---------------------------------|---------------------------------|---------------------------------|
C#|-0---0---0---0---0---0---0---0---|-0---0---0---0---0---0---0---0---|-0---0---0---0---0---0---0---0---|


C#|---------------------------------|-----------------------------------------|---------------------------------------|
G#|---------------------------------|-----------------------------------------|---------------------------------------|
 E|---------------------------------|-----------------------------------------|---------------------------------------|
 B|---------------------------------|-----------------------------------------|---------------------------------------|
F#|---------------------------------|-------------1---2---------------3---4---|-------------1---2-------------3---4---|
C#|-0---0---0---0---0---0---0---0---|-3--3-----3----------3--3-----0--1---2---|-3--3-----3---------3--3----0--1---2---|


C#|-----------------------------------------|---------------------------------------|
G#|-----------------------------------------|---------------------------------------|
 E|-----------------------------------------|---------------------------------------|
 B|-----------------------------------------|---------------------------------------|
F#|-------------1---2---------------3---4---|-------------1---2-------------3---3---|
C#|-3--3-----3----------3--3-----0--1---2---|-3--3-----3---------3--3----0--1---1---|


C#|-----------------------------|-------------------------------------|--------------------------------|
G#|-----------------------------|-------------------------------------|--------------------------------|
 E|-----------------------------|-------------------------------------|--------------------------------|
 B|-2-----------------2---2--2--|-----------------2--2--2--2--2-------|------2---2--2------------------|
F#|-2-----------------2---2--2--|-----------------2--2--2--2--2-------|------2---2--2------------------|
C#|-0--------3---19---0---0--0--|-----0---13------0--0--0--0--0---3---|-19---0---0--0------0---13------|


C#|------------------------------------|-------------------------------------|--------------------------------|
G#|------------------------------------|-------------------------------------|--------------------------------|
 E|------------------------------------|-------------------------------------|--------------------------------|
 B|-2--2--2--2--2------------2---2--2--|-----------------2--2--2--2--2-------|------2---2--2------------------|
F#|-2--2--2--2--2------------2---2--2--|-----------------2--2--2--2--2-------|------2---2--2------------------|
C#|-0--0--0--0--0---3---19---0---0--0--|-----0---13------0--0--0--0--0---3---|-19---0---0--0------0---13------|


C#|----------------------------------|---------------------------------|---------------------------------|
G#|----------------------------------|---------------------------------|---------------------------------|
 E|----------------------------------|---------------------------------|---------------------------------|
 B|-2--2--2--2--2--------------------|---------------------------------|---------------------------------|
F#|-2--2--2--2--2--------------------|---------------------------------|---------------------------------|
C#|-0--0--0--0--0------------0---0---|-0---0---0---0---0---0---0---0---|-0---0---0---0---0---0---0---0---|


C#|---------------------------------|---------------------------------|---------------------------------|
G#|---------------------------------|---------------------------------|---------------------------------|
 E|---------------------------------|---------------------------------|---------------------------------|
 B|---------------------------------|---------------------------------|---------------------------------|
F#|---------------------------------|---------------------------------|---------------------------------|
C#|-0---0---0---0---0---0---0---0---|-0---0---0---0---0---0---0---0---|-0---0---0---0---0---0---0---0---|


C#|---------------------------------|---------------------------------|-------------------------------------|
G#|---------------------------------|---------------------------------|-------------------------------------|
 E|---------------------------------|---------------------------------|-------------------------------------|
 B|---------------------------------|---------------------------------|-------------------------3--2--2--2--|
F#|---------------------------------|---------------------------------|-------------------------3--2--2--2--|
C#|-0---0---0---0---0---0---0---0---|-0---0---0---0---0---0---0---0---|-0---0---0---0---0---0---1--0--0--0--|


C#|-----------------------------------------------|-----------------------------------------|
G#|-----------------------------------------------|-----------------------------------------|
 E|-----------------------------------------------|-----------------------------------------|
 B|-----2--2--2-----2--2--2-----2--2--------------|-----------------------------------------|
F#|-----2--2--2-----2--2--2-----2--2--------------|-1---2---------------3---4---------------|
C#|-----0--0--0-----0--0--0-----0--0--0--3-----3--|---------3--3-----0--1---2---3--3-----3--|


C#|-----------------------------------------|-----------------------------------------|
G#|-----------------------------------------|-----------------------------------------|
 E|-----------------------------------------|-----------------------------------------|
 B|-----------------------------------------|-----------------------------------------|
F#|-1---2---------------3---4---------------|-1---2---------------3---4---------------|
C#|---------3--3-----0--1---2---3--3-----3--|---------3--3-----0--1---2---3--3-----3--|


C#|-----------------------------------------|-----------------------------------------|
G#|-----------------------------------------|-----------------------------------------|
 E|-----------------------------------------|-----------------------------------------|
 B|-----------------------------------------|-----------------------------------------|
F#|-1---2---------------3---4---------------|-1---2---------------3---4---------------|
C#|---------3--3-----0--1---2---3--3-----3--|---------3--3-----0--1---2---3--3-----3--|


C#|-------------------------------------|---------------------------------|---------------------------------|
G#|-------------------------------------|---------------------------------|---------------------------------|
 E|-------------------------------------|---------------------------------|---------------------------------|
 B|-------------------------------------|---------------------------------|---------------------------------|
F#|-1---2---------------3---4-----------|---------------------------------|---------------------------------|
C#|---------3--3-----0--1---2---0---0---|-0---0---0---0---0---0---0---0---|-0---0---0---0---0---0---0---0---|


C#|---------------------------------|-------------------------------------|-----------------------------------------|
G#|---------------------------------|-------------------------------------|-----------------------------------------|
 E|---------------------------------|-------------------------------------|-----------------------------------------|
 B|---------------------------------|-------------------------------------|-----------------------------------------|
F#|---------------------------------|-------------------------------------|-1---2---------------3---4---------------|
C#|-0---0---0---0---0---0---0---0---|-0---0---0---0---0---0---3--3-----3--|---------3--3-----0--1---2---3--3-----3--|


C#|-------------------------------------|---------------------------------|---------------------------------|
G#|-------------------------------------|---------------------------------|---------------------------------|
 E|-------------------------------------|---------------------------------|---------------------------------|
 B|-------------------------------------|---------------------------------|---------------------------------|
F#|-1---2---------------3---4-----------|---------------------------------|---------------------------------|
C#|---------3--3-----0--1---2---0---0---|-0---0---0---0---0---0---0---0---|-0---0---0---0---0---0---0---0---|


C#|---------------------------------|-------------------------------------|-----------------------------------------|
G#|---------------------------------|-------------------------------------|-----------------------------------------|
 E|---------------------------------|-------------------------------------|-----------------------------------------|
 B|---------------------------------|-------------------------------------|-----------------------------------------|
F#|---------------------------------|-------------------------------------|-1---2---------------3---4---------------|
C#|-0---0---0---0---0---0---0---0---|-0---0---0---0---0---0---3--3-----3--|---------3--3-----0--1---2---3--3-----3--|


C#|---------------------------------------|-----------------------------------------|
G#|---------------------------------------|-----------------------------------------|
 E|---------------------------------------|-----------------------------------------|
 B|---------------------------------------|-----------------------------------------|
F#|-1---2-------------3---4---------------|-1---2---------------3---4---------------|
C#|--------3--3----0--1---2---3--3-----3--|---------3--3-----0--1---2---3--3-----3--|


C#|--------------------------------|--------------------------------|----------------------------------|
G#|--------------------------------|--------------------------------|----------------------------------|
 E|--------------------------------|--------------------------------|----------------------------------|
 B|---------------------------2----|--------------2---2--2----------|---------2--2--2--2--2------------|
F#|-1---2-------------3---3---2----|--------------2---2--2----------|---------2--2--2--2--2------------|
C#|--------3--3----0--1---1---0----|-----3---19---0---0--0------0---|-13------0--0--0--0--0---3---19---|


C#|---------------------------------------|--------------------------------|----------------------------------|
G#|---------------------------------------|--------------------------------|----------------------------------|
 E|---------------------------------------|--------------------------------|----------------------------------|
 B|-2---2--2------------------2--2--2--2--|-2------------2---2--2----------|---------2--2--2--2--2------------|
F#|-2---2--2------------------2--2--2--2--|-2------------2---2--2----------|---------2--2--2--2--2------------|
C#|-0---0--0------0---13------0--0--0--0--|-0---3---19---0---0--0------0---|-13------0--0--0--0--0---3---19---|


C#|---------------------------------------|-------------------------------------------------|
G#|---------------------------------------|-------------------------------------------------|
 E|---------------------------------------|-------------------------------------------------|
 B|-2---2--2------------------2--2--5--5--|-------------------------------5-----5-----5-----|
F#|-2---2--2------------------2--2--------|----7--5--7--7--5-----5-----------------7--------|
C#|-0---0--0------0---13------0--0--------|-------------------7-----4--7--------------------|


C#|---------------------------------------------|-------------------------------------------------|
G#|---------------------------------------------|-------------------------------------------------|
 E|---------------------------------------------|-------------------------------------------------|
 B|-5---------5--5------------------------5--5--|-------------------------------5-----5-----5-----|
F#|----7-5----------7-5-------------------------|----7--5--7--7--5-----5-----------------7--------|
C#|--------7------------7--5----6--6---7--------|-------------------7-----4--7--------------------|


C#|---------------------------------------------|---------------------------------------------|
G#|---------------------------------------------|---------------------------------------------|
 E|---------------------------------------------|---------------------------------------------|
 B|-5---------5--5------------------------3--3--|---------------------------------------3--3--|
F#|----7-5----------7-5-------------------------|----5--3--5--5--3-----3----------------------|
C#|--------7------------7--5----6--6---7--------|-------------------5-----3--4--5--5----------|


C#|---------------------------------------------|---------------------------------------------|
G#|---------------------------------------------|---------------------------------------------|
 E|---------------------------------------------|---------------------------------------------|
 B|---------------------------------------3--3--|-------------------------3--4--5--5----3--3--|
F#|----5--3--5--5--3-----3----------------------|----5--3--5--5--3-----3----------------------|
C#|-------------------5------5---4---3----------|-------------------5-------------------------|


C#|---------------------------------------------|-----------------------------------------------|
G#|---------------------------------------------|-----------------------------------------------|
 E|---------------------------------------------|-----------------------------------------------|
 B|-------------------3-----3-------------5--5--|-------------------------------5-----5---------|
F#|----5--3--5--3--------------5--5--5----------|----7--5--7--7--5-----5-----------------7------|
C#|----------------5----------------------------|-------------------7-----4--7------------------|


C#|--------|--------|--------|--------|--------|--------|--------|--------|--------|
G#|--------|--------|--------|--------|--------|--------|--------|--------|--------|
 E|--------|--------|--------|--------|--------|--------|--------|--------|--------|
 B|--------|--------|--------|--------|--------|--------|--------|--------|--------|
F#|--------|--------|--------|--------|--------|--------|--------|--------|--------|
C#|--------|--------|--------|--------|--------|--------|--------|--------|--------|


C#|----------------|---------------------------------------------|---------------------------------------------|
G#|----------------|---------------------------------------------|---------------------------------------------|
 E|----------------|---------------------------------------------|---------------------------------------------|
 B|----------------|-5---------5--5------------------------3--3--|---------------------------------------3--3--|
F#|----------------|----7-5----------7-5-------------------------|----5--3--5--5--3-----3----------------------|
C#|----------------|--------7------------7--5----6--6---7--------|-------------------5-----3--4--5--5----------|


C#|---------------------------------------------|---------------------------------------------|
G#|---------------------------------------------|---------------------------------------------|
 E|---------------------------------------------|---------------------------------------------|
 B|---------------------------------------3--3--|-------------------------3--4--5--5----3--3--|
F#|----5--3--5--5--3-----3----------------------|----5--3--5--5--3-----3----------------------|
C#|-------------------5------5---4---3----------|-------------------5-------------------------|


C#|---------------------------------------------|------------------------------------|
G#|---------------------------------------------|------------------------------------|
 E|---------------------------------------------|------------------------------------|
 B|-------------------3-----3-------------5--5--|-------------------------5----5--5--|
F#|----5--3--5--3--------------5--5--5----------|----7--5--7--7----------------------|
C#|----------------5----------------------------|----------------0---0---------------|


C#|------------------------------------|------------------------------------|------------------------------------|
G#|------------------------------------|------------------------------------|------------------------------------|
 E|------------------------------------|------------------------------------|------------------------------------|
 B|-------------------------5----5--5--|-------------------------5----5--5--|-------------------------5----5--5--|
F#|----7--5--7--7----------------------|----7--5--7--7----------------------|----7--5--7--7----------------------|
C#|----------------1---1---------------|----------------0---0---------------|----------------1---1---------------|


C#|------------------------------------|------------------------------------|------------------------------------|
G#|------------------------------------|------------------------------------|------------------------------------|
 E|------------------------------------|------------------------------------|------------------------------------|
 B|-------------------------5----5--5--|-------------------------5----5--5--|-------------------------5----5--5--|
F#|----7--5--7--7----------------------|----7--5--7--7----------------------|----7--5--7--7----------------------|
C#|----------------0---0---------------|----------------1---1---------------|----------------0---0---------------|


C#|------------------------------------|
G#|------------------------------------|
 E|------------------------------------|
 B|-------------------------5----5-----|
F#|----7--5--7--7----------------------|
C#|----------------1---1---------------|





Track 2: Lead Guitar (w/slide)

C#|--------|--------|--------|--------|--------|--------|--------|--------|--------|
G#|--------|--------|--------|--------|--------|--------|--------|--------|--------|
 E|--------|--------|--------|--------|--------|--------|--------|--------|--------|
 B|--------|--------|--------|--------|--------|--------|--------|--------|--------|
F#|--------|--------|--------|--------|--------|--------|--------|--------|--------|
C#|--------|--------|--------|--------|--------|--------|--------|--------|--------|


C#|--------|--------|--------|--------|--------|--------|--------|--------|--------|
G#|--------|--------|--------|--------|--------|--------|--------|--------|--------|
 E|--------|--------|--------|--------|--------|--------|--------|--------|--------|
 B|--------|--------|--------|--------|--------|--------|--------|--------|--------|
F#|--------|--------|--------|--------|--------|--------|--------|--------|--------|
C#|--------|--------|--------|--------|--------|--------|--------|--------|--------|


C#|--------|--------|--------|--------|--------|--------|--------|--------|--------|
G#|--------|--------|--------|--------|--------|--------|--------|--------|--------|
 E|--------|--------|--------|--------|--------|--------|--------|--------|--------|
 B|--------|--------|--------|--------|--------|--------|--------|--------|--------|
F#|--------|--------|--------|--------|--------|--------|--------|--------|--------|
C#|--------|--------|--------|--------|--------|--------|--------|--------|--------|


C#|--------|--------|--------|--------|--------|--------|--------|--------|--------|
G#|--------|--------|--------|--------|--------|--------|--------|--------|--------|
 E|--------|--------|--------|--------|--------|--------|--------|--------|--------|
 B|--------|--------|--------|--------|--------|--------|--------|--------|--------|
F#|--------|--------|--------|--------|--------|--------|--------|--------|--------|
C#|--------|--------|--------|--------|--------|--------|--------|--------|--------|


C#|--------|--------|--------|--------|--------|--------|--------|--------|--------|
G#|--------|--------|--------|--------|--------|--------|--------|--------|--------|
 E|--------|--------|--------|--------|--------|--------|--------|--------|--------|
 B|--------|--------|--------|--------|--------|--------|--------|--------|--------|
F#|--------|--------|--------|--------|--------|--------|--------|--------|--------|
C#|--------|--------|--------|--------|--------|--------|--------|--------|--------|


C#|--------|--------|--------|--------|--------|--------|--------|--------|--------|
G#|--------|--------|--------|--------|--------|--------|--------|--------|--------|
 E|--------|--------|--------|--------|--------|--------|--------|--------|--------|
 B|--------|--------|--------|--------|--------|--------|--------|--------|--------|
F#|--------|--------|--------|--------|--------|--------|--------|--------|--------|
C#|--------|--------|--------|--------|--------|--------|--------|--------|--------|


C#|--------|--------|--------|--------|--------|--------|--------|--------|--------|
G#|--------|--------|--------|--------|--------|--------|--------|--------|--------|
 E|--------|--------|--------|--------|--------|--------|--------|--------|--------|
 B|--------|--------|--------|--------|--------|--------|--------|--------|--------|
F#|--------|--------|--------|--------|--------|--------|--------|--------|--------|
C#|--------|--------|--------|--------|--------|--------|--------|--------|--------|


C#|--------|--------|--------|--------|--------|--------|--------|--------|--------|
G#|--------|--------|--------|--------|--------|--------|--------|--------|--------|
 E|--------|--------|--------|--------|--------|--------|--------|--------|--------|
 B|--------|--------|--------|--------|--------|--------|--------|--------|--------|
F#|--------|--------|--------|--------|--------|--------|--------|--------|--------|
C#|--------|--------|--------|--------|--------|--------|--------|--------|--------|


C#|--------|--------|--------|--------|--------|----------------|-----------------------------------------|
G#|--------|--------|--------|--------|--------|----------------|-----------12----12----12----12-12-12-12-|
 E|--------|--------|--------|--------|--------|----------------|-----------9-----9-----9-----9--9--9--9--|
 B|--------|--------|--------|--------|--------|----------------|-----------------------------------------|
F#|--------|--------|--------|--------|--------|----------------|-----------------------------------------|
C#|--------|--------|--------|--------|--------|----------------|-----------------------------------------|


C#|------12----------12---------------------|--------|--------|------------------|
G#|---------12----------12------------------|--------|--------|------------10-10-|
 E|------------11-11-------11-11-9---9------|--------|--------|------------10-10-|
 B|-----------------------------------------|--------|--------|------------------|
F#|-----------------------------------------|--------|--------|------------------|
C#|-----------------------------------------|--------|--------|------------------|


C#|---------------------------------------------|------------------------------------------------|
G#|-----------------------------------------1310|---------1310--------10------12--12--12---13-13-|
 E|---------------------------------------------|-131210------131210--10------12--12--12---------|
 B|----12--1012-12-10----10---------------------|-------12----------12---------------------------|
F#|-------------------12----10--8-108----8------|------------------------------------------------|
C#|---------------------------------------------|------------------------------------------------|


C#|-------------------|-----------------------|--------|--------|----------------|
G#|----------13----13-|----------13-13--------|--------|--------|----------------|
 E|-------------------|-----------------------|--------|--------|----------------|
 B|-------------------|-----------------------|--------|--------|----------------|
F#|-------------------|-----------------------|--------|--------|----------------|
C#|-------------------|-----------------------|--------|--------|----------------|


C#|----------------------------|----22--22----22----22--22--22--22-25-25-|----25--25---25-25---25-----------|
G#|------------------20--22-22-|-----------22----22----------------------|----------------------------------|
 E|----------------------------|-----------------------------------------|----------------------------13-13-|
 B|----------------------------|-----------------------------------------|----------------------------------|
F#|----------------------------|-----------------------------------------|----------------------------------|
C#|----------------------------|-----------------------------------------|----------------------------------|


C#|-----------------------------------------|----------------25--22--22---------|--------|
G#|-13------------------13------------------|----18--15-------------------------|--------|
 E|----13-12-10---13-13----13-12-10---10----|-----------------------------------|--------|
 B|-----------------------------------------|-----------------------------------|--------|
F#|-----------------------------------------|-----------------------------------|--------|
C#|-----------------------------------------|-----------------------------------|--------|


C#|--------|--------|--------|--------|--------|--------|--------|
G#|--------|--------|--------|--------|--------|--------|--------|
 E|--------|--------|--------|--------|--------|--------|--------|
 B|--------|--------|--------|--------|--------|--------|--------|
F#|--------|--------|--------|--------|--------|--------|--------|
C#|--------|--------|--------|--------|--------|--------|--------|





Track 3: Lead Guitar 2

C#|--------|--------|--------|--------|--------|--------|--------|--------|--------|
G#|--------|--------|--------|--------|--------|--------|--------|--------|--------|
 E|--------|--------|--------|--------|--------|--------|--------|--------|--------|
 B|--------|--------|--------|--------|--------|--------|--------|--------|--------|
F#|--------|--------|--------|--------|--------|--------|--------|--------|--------|
C#|--------|--------|--------|--------|--------|--------|--------|--------|--------|


C#|--------|--------|--------|--------|--------|--------|--------|--------|--------|
G#|--------|--------|--------|--------|--------|--------|--------|--------|--------|
 E|--------|--------|--------|--------|--------|--------|--------|--------|--------|
 B|--------|--------|--------|--------|--------|--------|--------|--------|--------|
F#|--------|--------|--------|--------|--------|--------|--------|--------|--------|
C#|--------|--------|--------|--------|--------|--------|--------|--------|--------|


C#|--------|--------|--------|--------|--------|--------|--------|--------|--------|
G#|--------|--------|--------|--------|--------|--------|--------|--------|--------|
 E|--------|--------|--------|--------|--------|--------|--------|--------|--------|
 B|--------|--------|--------|--------|--------|--------|--------|--------|--------|
F#|--------|--------|--------|--------|--------|--------|--------|--------|--------|
C#|--------|--------|--------|--------|--------|--------|--------|--------|--------|


C#|--------|--------|--------|--------|--------|--------|--------|--------|--------|
G#|--------|--------|--------|--------|--------|--------|--------|--------|--------|
 E|--------|--------|--------|--------|--------|--------|--------|--------|--------|
 B|--------|--------|--------|--------|--------|--------|--------|--------|--------|
F#|--------|--------|--------|--------|--------|--------|--------|--------|--------|
C#|--------|--------|--------|--------|--------|--------|--------|--------|--------|


C#|--------|--------|--------|--------|--------|--------|--------|--------|--------|
G#|--------|--------|--------|--------|--------|--------|--------|--------|--------|
 E|--------|--------|--------|--------|--------|--------|--------|--------|--------|
 B|--------|--------|--------|--------|--------|--------|--------|--------|--------|
F#|--------|--------|--------|--------|--------|--------|--------|--------|--------|
C#|--------|--------|--------|--------|--------|--------|--------|--------|--------|


C#|--------|--------|--------|--------|--------|--------|--------|--------|--------|
G#|--------|--------|--------|--------|--------|--------|--------|--------|--------|
 E|--------|--------|--------|--------|--------|--------|--------|--------|--------|
 B|--------|--------|--------|--------|--------|--------|--------|--------|--------|
F#|--------|--------|--------|--------|--------|--------|--------|--------|--------|
C#|--------|--------|--------|--------|--------|--------|--------|--------|--------|


C#|--------|--------|--------|--------|--------|--------|--------|--------|--------|
G#|--------|--------|--------|--------|--------|--------|--------|--------|--------|
 E|--------|--------|--------|--------|--------|--------|--------|--------|--------|
 B|--------|--------|--------|--------|--------|--------|--------|--------|--------|
F#|--------|--------|--------|--------|--------|--------|--------|--------|--------|
C#|--------|--------|--------|--------|--------|--------|--------|--------|--------|


C#|--------|--------|--------|--------|--------|--------|--------|--------|--------|
G#|--------|--------|--------|--------|--------|--------|--------|--------|--------|
 E|--------|--------|--------|--------|--------|--------|--------|--------|--------|
 B|--------|--------|--------|--------|--------|--------|--------|--------|--------|
F#|--------|--------|--------|--------|--------|--------|--------|--------|--------|
C#|--------|--------|--------|--------|--------|--------|--------|--------|--------|


C#|--------|--------|--------|--------|--------|--------|--------|------------------|
G#|--------|--------|--------|--------|--------|--------|--------|------------18-18-|
 E|--------|--------|--------|--------|--------|--------|--------|------------------|
 B|--------|--------|--------|--------|--------|--------|--------|------------------|
F#|--------|--------|--------|--------|--------|--------|--------|------------------|
C#|--------|--------|--------|--------|--------|--------|--------|------------------|


C#|----171819----------------------------------|----171819------------------19----19-------------|
G#|-----------19-19-17-19--19---19----18-18-18-|-----------19-19-17-19--19-----19----19-19-17-24-|
 E|--------------------------------------------|-------------------------------------------------|
 B|--------------------------------------------|-------------------------------------------------|
F#|--------------------------------------------|-------------------------------------------------|
C#|--------------------------------------------|-------------------------------------------------|


C#|----24--------24-23-24--24--24-------|--------|--------|--------|-------------2419|
G#|-24-----24-24------------------------|--------|--------|--------|-----------------|
 E|-------------------------------------|--------|--------|--------|-----------------|
 B|-------------------------------------|--------|--------|--------|-----------------|
F#|-------------------------------------|--------|--------|--------|-----------------|
C#|-------------------------------------|--------|--------|--------|-----------------|


C#|-191924191924----------------2419191924191924----------------2419|-191924191924-----------------------------------------------|
G#|-------------1919121919121919----------------1919121919121919----|-------------191912191912191924-----24-----24--22-24--24-24-|
 E|-----------------------------------------------------------------|-------------------------------2123---2124---21-----21------|
 B|-----------------------------------------------------------------|------------------------------------------------------------|
F#|-----------------------------------------------------------------|------------------------------------------------------------|
C#|-----------------------------------------------------------------|------------------------------------------------------------|


C#|-------------------------------------------|-------------------------------------|
G#|------24--24-2420222322202220--------------|----15------12-----------------------|
 E|-----------------------------19-19-19---14-|--------11-----11-11--9---9----7--7--|
 B|-------------------------------------------|-------------------------------------|
F#|-------------------------------------------|-------------------------------------|
C#|-------------------------------------------|-------------------------------------|


C#|----------------|--------|--------|-------------1515|-150-1415140-140-0-140-0-140-1212120-1012100-100-0-100-0-100-8-8-|
G#|----------------|--------|--------|-----------------|-----------------------------------------------------------------|
 E|------7---------|--------|--------|-----------------|-----------------------------------------------------------------|
 B|----------------|--------|--------|-----------------|-----------------------------------------------------------------|
F#|----------------|--------|--------|-----------------|-----------------------------------------------------------------|
C#|----------------|--------|--------|-----------------|-----------------------------------------------------------------|


C#|-8-0-7-8-7-0-7-0-0-7-0-0-5-0-1--1-1-1-1-1-1-1-1-1-1-1-----1515|-150-1415140-140-0-140-0-140-1212120-1012100-100-0-100-0-100-8-8-|
G#|--------------------------------------------------------------|-----------------------------------------------------------------|
 E|--------------------------------------------------------------|-----------------------------------------------------------------|
 B|--------------------------------------------------------------|-----------------------------------------------------------------|
F#|--------------------------------------------------------------|-----------------------------------------------------------------|
C#|--------------------------------------------------------------|-----------------------------------------------------------------|


C#|-8-0-7-8-7-0-7-0-0-7-0-0-5-0-1--1-1-1-1-1-1-1-1-1-1-1-----1515|-150-1415140-140-0-140-0-140-1212120-1012100-100-0-100-0-100-8-8-|
G#|--------------------------------------------------------------|-----------------------------------------------------------------|
 E|--------------------------------------------------------------|-----------------------------------------------------------------|
 B|--------------------------------------------------------------|-----------------------------------------------------------------|
F#|--------------------------------------------------------------|-----------------------------------------------------------------|
C#|--------------------------------------------------------------|-----------------------------------------------------------------|


C#|-8-0-7-8-7-0-7-0-0-7-0-0-5-0-1--1-1-1-1-1-1-1-1-1-1-1-----1515|-150-1415140-140-0-140-0-140-1212120-1012100-100-0-100-0-100-8-8-|
G#|--------------------------------------------------------------|-----------------------------------------------------------------|
 E|--------------------------------------------------------------|-----------------------------------------------------------------|
 B|--------------------------------------------------------------|-----------------------------------------------------------------|
F#|--------------------------------------------------------------|-----------------------------------------------------------------|
C#|--------------------------------------------------------------|-----------------------------------------------------------------|


C#|-8-0-7-8-7-0-7-0-0-7-0-0-5-0-1--1-1-1-1-1-1-1-1-1-1-1--------|
G#|-------------------------------------------------------------|
 E|-------------------------------------------------------------|
 B|-------------------------------------------------------------|
F#|-------------------------------------------------------------|
C#|-------------------------------------------------------------|





Track 4: Rhythm Guitar

C#|--------|--------|--------|--------|--------|--------|--------|--------|--------|
G#|--------|--------|--------|--------|--------|--------|--------|--------|--------|
 E|--------|--------|--------|--------|--------|--------|--------|--------|--------|
 B|--------|--------|--------|--------|--------|--------|--------|--------|--------|
F#|--------|--------|--------|--------|--------|--------|--------|--------|--------|
C#|--------|--------|--------|--------|--------|--------|--------|--------|--------|


C#|--------|--------|--------|--------|--------|--------|--------|--------|--------|
G#|--------|--------|--------|--------|--------|--------|--------|--------|--------|
 E|--------|--------|--------|--------|--------|--------|--------|--------|--------|
 B|--------|--------|--------|--------|--------|--------|--------|--------|--------|
F#|--------|--------|--------|--------|--------|--------|--------|--------|--------|
C#|--------|--------|--------|--------|--------|--------|--------|--------|--------|


C#|--------|--------|--------|--------|--------|--------|--------|--------|--------|
G#|--------|--------|--------|--------|--------|--------|--------|--------|--------|
 E|--------|--------|--------|--------|--------|--------|--------|--------|--------|
 B|--------|--------|--------|--------|--------|--------|--------|--------|--------|
F#|--------|--------|--------|--------|--------|--------|--------|--------|--------|
C#|--------|--------|--------|--------|--------|--------|--------|--------|--------|


C#|--------|--------|--------|--------|--------|--------|--------|--------|--------|
G#|--------|--------|--------|--------|--------|--------|--------|--------|--------|
 E|--------|--------|--------|--------|--------|--------|--------|--------|--------|
 B|--------|--------|--------|--------|--------|--------|--------|--------|--------|
F#|--------|--------|--------|--------|--------|--------|--------|--------|--------|
C#|--------|--------|--------|--------|--------|--------|--------|--------|--------|


C#|--------|--------|--------|--------|--------|--------|--------|--------|--------|
G#|--------|--------|--------|--------|--------|--------|--------|--------|--------|
 E|--------|--------|--------|--------|--------|--------|--------|--------|--------|
 B|--------|--------|--------|--------|--------|--------|--------|--------|--------|
F#|--------|--------|--------|--------|--------|--------|--------|--------|--------|
C#|--------|--------|--------|--------|--------|--------|--------|--------|--------|


C#|--------|--------|--------|--------|--------|--------|--------|--------|--------|
G#|--------|--------|--------|--------|--------|--------|--------|--------|--------|
 E|--------|--------|--------|--------|--------|--------|--------|--------|--------|
 B|--------|--------|--------|--------|--------|--------|--------|--------|--------|
F#|--------|--------|--------|--------|--------|--------|--------|--------|--------|
C#|--------|--------|--------|--------|--------|--------|--------|--------|--------|


C#|--------|--------|--------|--------|--------|--------|--------|--------|--------|
G#|--------|--------|--------|--------|--------|--------|--------|--------|--------|
 E|--------|--------|--------|--------|--------|--------|--------|--------|--------|
 B|--------|--------|--------|--------|--------|--------|--------|--------|--------|
F#|--------|--------|--------|--------|--------|--------|--------|--------|--------|
C#|--------|--------|--------|--------|--------|--------|--------|--------|--------|


C#|--------|--------|--------|--------|--------|--------|--------|--------|--------|
G#|--------|--------|--------|--------|--------|--------|--------|--------|--------|
 E|--------|--------|--------|--------|--------|--------|--------|--------|--------|
 B|--------|--------|--------|--------|--------|--------|--------|--------|--------|
F#|--------|--------|--------|--------|--------|--------|--------|--------|--------|
C#|--------|--------|--------|--------|--------|--------|--------|--------|--------|


C#|--------|--------|--------|--------|--------|--------|--------|------------------|
G#|--------|--------|--------|--------|--------|--------|--------|------------------|
 E|--------|--------|--------|--------|--------|--------|--------|------------------|
 B|--------|--------|--------|--------|--------|--------|--------|------------5-----|
F#|--------|--------|--------|--------|--------|--------|--------|------------------|
C#|--------|--------|--------|--------|--------|--------|--------|------------------|


C#|---------------------------------------------|-------------------------------------------------|
G#|---------------------------------------------|-------------------------------------------------|
 E|---------------------------------------------|-------------------------------------------------|
 B|-5---------5--5------------------------5--5--|-------------------------------5-----5-----5-----|
F#|----7-5----------7-5-------------------------|----7--5--7--7--5-----5-----------------7--------|
C#|--------7------------7--5----6--6---7--------|-------------------7-----4--7--------------------|


C#|-------------------------------------------|--------|--------|--------|--------|
G#|-------------------------------------------|--------|--------|--------|--------|
 E|-------------------------------------------|--------|--------|--------|--------|
 B|-5---------5--5----------------------------|--------|--------|--------|--------|
F#|----7-5----------7-5-----------------------|--------|--------|--------|--------|
C#|--------7------------7--5----6--6---7------|--------|--------|--------|--------|


C#|--------|--------|--------|--------|--------|--------|--------|--------|--------|
G#|--------|--------|--------|--------|--------|--------|--------|--------|--------|
 E|--------|--------|--------|--------|--------|--------|--------|--------|--------|
 B|--------|--------|--------|--------|--------|--------|--------|--------|--------|
F#|--------|--------|--------|--------|--------|--------|--------|--------|--------|
C#|--------|--------|--------|--------|--------|--------|--------|--------|--------|


C#|--------|--------|--------|--------|--------|--------|--------|
G#|--------|--------|--------|--------|--------|--------|--------|
 E|--------|--------|--------|--------|--------|--------|--------|
 B|--------|--------|--------|--------|--------|--------|--------|
F#|--------|--------|--------|--------|--------|--------|--------|
C#|--------|--------|--------|--------|--------|--------|--------|





Track 5: Rhythm Guitar

C#|--------|--------|--------|--------|--------|--------|--------|--------|--------|
G#|--------|--------|--------|--------|--------|--------|--------|--------|--------|
 E|--------|--------|--------|--------|--------|--------|--------|--------|--------|
 B|--------|--------|--------|--------|--------|--------|--------|--------|--------|
F#|--------|--------|--------|--------|--------|--------|--------|--------|--------|
C#|--------|--------|--------|--------|--------|--------|--------|--------|--------|


C#|--------|--------|--------|--------|--------|--------|--------|--------|--------|
G#|--------|--------|--------|--------|--------|--------|--------|--------|--------|
 E|--------|--------|--------|--------|--------|--------|--------|--------|--------|
 B|--------|--------|--------|--------|--------|--------|--------|--------|--------|
F#|--------|--------|--------|--------|--------|--------|--------|--------|--------|
C#|--------|--------|--------|--------|--------|--------|--------|--------|--------|


C#|--------|--------|--------|--------|--------|--------|--------|--------|--------|
G#|--------|--------|--------|--------|--------|--------|--------|--------|--------|
 E|--------|--------|--------|--------|--------|--------|--------|--------|--------|
 B|--------|--------|--------|--------|--------|--------|--------|--------|--------|
F#|--------|--------|--------|--------|--------|--------|--------|--------|--------|
C#|--------|--------|--------|--------|--------|--------|--------|--------|--------|


C#|--------|--------|--------|--------|--------|--------|--------|--------|--------|
G#|--------|--------|--------|--------|--------|--------|--------|--------|--------|
 E|--------|--------|--------|--------|--------|--------|--------|--------|--------|
 B|--------|--------|--------|--------|--------|--------|--------|--------|--------|
F#|--------|--------|--------|--------|--------|--------|--------|--------|--------|
C#|--------|--------|--------|--------|--------|--------|--------|--------|--------|


C#|--------|--------|--------|--------|--------|--------|--------|--------|--------|
G#|--------|--------|--------|--------|--------|--------|--------|--------|--------|
 E|--------|--------|--------|--------|--------|--------|--------|--------|--------|
 B|--------|--------|--------|--------|--------|--------|--------|--------|--------|
F#|--------|--------|--------|--------|--------|--------|--------|--------|--------|
C#|--------|--------|--------|--------|--------|--------|--------|--------|--------|


C#|--------|--------|--------|--------|--------|--------|--------|--------|--------|
G#|--------|--------|--------|--------|--------|--------|--------|--------|--------|
 E|--------|--------|--------|--------|--------|--------|--------|--------|--------|
 B|--------|--------|--------|--------|--------|--------|--------|--------|--------|
F#|--------|--------|--------|--------|--------|--------|--------|--------|--------|
C#|--------|--------|--------|--------|--------|--------|--------|--------|--------|


C#|--------|--------|--------|--------|--------|--------|--------|--------|--------|
G#|--------|--------|--------|--------|--------|--------|--------|--------|--------|
 E|--------|--------|--------|--------|--------|--------|--------|--------|--------|
 B|--------|--------|--------|--------|--------|--------|--------|--------|--------|
F#|--------|--------|--------|--------|--------|--------|--------|--------|--------|
C#|--------|--------|--------|--------|--------|--------|--------|--------|--------|


C#|--------|--------|--------|--------|--------|--------|--------|--------|--------|
G#|--------|--------|--------|--------|--------|--------|--------|--------|--------|
 E|--------|--------|--------|--------|--------|--------|--------|--------|--------|
 B|--------|--------|--------|--------|--------|--------|--------|--------|--------|
F#|--------|--------|--------|--------|--------|--------|--------|--------|--------|
C#|--------|--------|--------|--------|--------|--------|--------|--------|--------|


C#|--------|--------|--------|--------|--------|--------|--------|--------|--------|
G#|--------|--------|--------|--------|--------|--------|--------|--------|--------|
 E|--------|--------|--------|--------|--------|--------|--------|--------|--------|
 B|--------|--------|--------|--------|--------|--------|--------|--------|--------|
F#|--------|--------|--------|--------|--------|--------|--------|--------|--------|
C#|--------|--------|--------|--------|--------|--------|--------|--------|--------|


C#|--------|------------------|---------------------------------------------|---------------------------------------------|
G#|--------|------------------|---------------------------------------------|---------------------------------------------|
 E|--------|------------------|---------------------------------------------|---------------------------------------------|
 B|--------|------------3--3--|---------------------------------------3--3--|---------------------------------------3--3--|
F#|--------|------------------|----5--3--5--5--3-----3----------------------|----5--3--5--5--3-----3----------------------|
C#|--------|------------------|-------------------5-----3--4--5--5----------|-------------------5------5---4---3----------|


C#|---------------------------------------------|---------------------------------------------|
G#|---------------------------------------------|---------------------------------------------|
 E|---------------------------------------------|---------------------------------------------|
 B|-------------------------3--4--5--5----3--3--|-------------------3-----3-------------5-----|
F#|----5--3--5--5--3-----3----------------------|----5--3--5--3--------------5--5--5----------|
C#|-------------------5-------------------------|----------------5----------------------------|


C#|--------|--------|--------|--------|--------|--------|--------|--------|--------|
G#|--------|--------|--------|--------|--------|--------|--------|--------|--------|
 E|--------|--------|--------|--------|--------|--------|--------|--------|--------|
 B|--------|--------|--------|--------|--------|--------|--------|--------|--------|
F#|--------|--------|--------|--------|--------|--------|--------|--------|--------|
C#|--------|--------|--------|--------|--------|--------|--------|--------|--------|


C#|--------|--------|--------|--------|--------|--------|--------|
G#|--------|--------|--------|--------|--------|--------|--------|
 E|--------|--------|--------|--------|--------|--------|--------|
 B|--------|--------|--------|--------|--------|--------|--------|
F#|--------|--------|--------|--------|--------|--------|--------|
C#|--------|--------|--------|--------|--------|--------|--------|





Track 6: Rhythm Guitar

C#|--------|--------|--------|--------|--------|--------|--------|--------|--------|
G#|--------|--------|--------|--------|--------|--------|--------|--------|--------|
 E|--------|--------|--------|--------|--------|--------|--------|--------|--------|
 B|--------|--------|--------|--------|--------|--------|--------|--------|--------|
F#|--------|--------|--------|--------|--------|--------|--------|--------|--------|
C#|--------|--------|--------|--------|--------|--------|--------|--------|--------|


C#|--------|--------|--------|--------|--------|--------|--------|--------|--------|
G#|--------|--------|--------|--------|--------|--------|--------|--------|--------|
 E|--------|--------|--------|--------|--------|--------|--------|--------|--------|
 B|--------|--------|--------|--------|--------|--------|--------|--------|--------|
F#|--------|--------|--------|--------|--------|--------|--------|--------|--------|
C#|--------|--------|--------|--------|--------|--------|--------|--------|--------|


C#|--------|--------|--------|--------|--------|--------|--------|--------|--------|
G#|--------|--------|--------|--------|--------|--------|--------|--------|--------|
 E|--------|--------|--------|--------|--------|--------|--------|--------|--------|
 B|--------|--------|--------|--------|--------|--------|--------|--------|--------|
F#|--------|--------|--------|--------|--------|--------|--------|--------|--------|
C#|--------|--------|--------|--------|--------|--------|--------|--------|--------|


C#|--------|--------|--------|--------|--------|--------|--------|--------|--------|
G#|--------|--------|--------|--------|--------|--------|--------|--------|--------|
 E|--------|--------|--------|--------|--------|--------|--------|--------|--------|
 B|--------|--------|--------|--------|--------|--------|--------|--------|--------|
F#|--------|--------|--------|--------|--------|--------|--------|--------|--------|
C#|--------|--------|--------|--------|--------|--------|--------|--------|--------|


C#|--------|--------|--------|--------|--------|--------|--------|--------|--------|
G#|--------|--------|--------|--------|--------|--------|--------|--------|--------|
 E|--------|--------|--------|--------|--------|--------|--------|--------|--------|
 B|--------|--------|--------|--------|--------|--------|--------|--------|--------|
F#|--------|--------|--------|--------|--------|--------|--------|--------|--------|
C#|--------|--------|--------|--------|--------|--------|--------|--------|--------|


C#|--------|--------|--------|--------|--------|--------|--------|--------|--------|
G#|--------|--------|--------|--------|--------|--------|--------|--------|--------|
 E|--------|--------|--------|--------|--------|--------|--------|--------|--------|
 B|--------|--------|--------|--------|--------|--------|--------|--------|--------|
F#|--------|--------|--------|--------|--------|--------|--------|--------|--------|
C#|--------|--------|--------|--------|--------|--------|--------|--------|--------|


C#|--------|--------|--------|--------|--------|--------|--------|--------|--------|
G#|--------|--------|--------|--------|--------|--------|--------|--------|--------|
 E|--------|--------|--------|--------|--------|--------|--------|--------|--------|
 B|--------|--------|--------|--------|--------|--------|--------|--------|--------|
F#|--------|--------|--------|--------|--------|--------|--------|--------|--------|
C#|--------|--------|--------|--------|--------|--------|--------|--------|--------|


C#|--------|--------|--------|--------|--------|--------|--------|--------|--------|
G#|--------|--------|--------|--------|--------|--------|--------|--------|--------|
 E|--------|--------|--------|--------|--------|--------|--------|--------|--------|
 B|--------|--------|--------|--------|--------|--------|--------|--------|--------|
F#|--------|--------|--------|--------|--------|--------|--------|--------|--------|
C#|--------|--------|--------|--------|--------|--------|--------|--------|--------|


C#|--------|--------|--------|--------|--------|--------|--------|--------|--------|
G#|--------|--------|--------|--------|--------|--------|--------|--------|--------|
 E|--------|--------|--------|--------|--------|--------|--------|--------|--------|
 B|--------|--------|--------|--------|--------|--------|--------|--------|--------|
F#|--------|--------|--------|--------|--------|--------|--------|--------|--------|
C#|--------|--------|--------|--------|--------|--------|--------|--------|--------|


C#|--------|--------|--------|--------|--------|----------------|-------------------------------------------------|
G#|--------|--------|--------|--------|--------|----------------|-------------------------------------------------|
 E|--------|--------|--------|--------|--------|----------------|-------------------------------------------------|
 B|--------|--------|--------|--------|--------|-------------5--|-------------------------------5-----5-----5-----|
F#|--------|--------|--------|--------|--------|----------------|----7--5--7--7--5-----5-----------------7--------|
C#|--------|--------|--------|--------|--------|----------------|-------------------7-----4--7--------------------|


C#|---------------------------------------------|-------------------------------------------------|
G#|---------------------------------------------|-------------------------------------------------|
 E|---------------------------------------------|-------------------------------------------------|
 B|-5---------5--5------------------------5--5--|-------------------------------5-----5-----5-----|
F#|----7-5----------7-5-------------------------|----7--5--7--7--5-----5-----------------7--------|
C#|--------7------------7--5----6--6---7--------|-------------------7-----4--7--------------------|


C#|--------|--------|--------|--------|--------|--------|--------|--------|--------|
G#|--------|--------|--------|--------|--------|--------|--------|--------|--------|
 E|--------|--------|--------|--------|--------|--------|--------|--------|--------|
 B|--------|--------|--------|--------|--------|--------|--------|--------|--------|
F#|--------|--------|--------|--------|--------|--------|--------|--------|--------|
C#|--------|--------|--------|--------|--------|--------|--------|--------|--------|


C#|--------|--------|--------|--------|
G#|--------|--------|--------|--------|
 E|--------|--------|--------|--------|
 B|--------|--------|--------|--------|
F#|--------|--------|--------|--------|
C#|--------|--------|--------|--------|





Track 7: Untitled

G|--------|--------|--------|--------|--------|--------|--------|--------|--------|
D|--------|--------|--------|--------|--------|--------|--------|--------|--------|
A|--------|--------|--------|--------|--------|--------|--------|--------|--------|
E|--------|--------|--------|--------|--------|--------|--------|--------|--------|


G|--------|--------|--------|--------|--------|--------|--------|--------|--------|
D|--------|--------|--------|--------|--------|--------|--------|--------|--------|
A|--------|--------|--------|--------|--------|--------|--------|--------|--------|
E|--------|--------|--------|--------|--------|--------|--------|--------|--------|


G|--------|--------|--------|--------|--------|--------|--------|--------|--------|
D|--------|--------|--------|--------|--------|--------|--------|--------|--------|
A|--------|--------|--------|--------|--------|--------|--------|--------|--------|
E|--------|--------|--------|--------|--------|--------|--------|--------|--------|


G|--------|--------|--------|--------|--------|--------|--------|--------|--------|
D|--------|--------|--------|--------|--------|--------|--------|--------|--------|
A|--------|--------|--------|--------|--------|--------|--------|--------|--------|
E|--------|--------|--------|--------|--------|--------|--------|--------|--------|


G|--------|--------|--------|--------|--------|--------|--------|--------|--------|
D|--------|--------|--------|--------|--------|--------|--------|--------|--------|
A|--------|--------|--------|--------|--------|--------|--------|--------|--------|
E|--------|--------|--------|--------|--------|--------|--------|--------|--------|


G|--------|--------|--------|--------|--------|--------|--------|--------|--------|
D|--------|--------|--------|--------|--------|--------|--------|--------|--------|
A|--------|--------|--------|--------|--------|--------|--------|--------|--------|
E|--------|--------|--------|--------|--------|--------|--------|--------|--------|


G|--------|--------|--------|--------|--------|--------|--------|--------|--------|
D|--------|--------|--------|--------|--------|--------|--------|--------|--------|
A|--------|--------|--------|--------|--------|--------|--------|--------|--------|
E|--------|--------|--------|--------|--------|--------|--------|--------|--------|


G|--------|--------|--------|--------|--------|--------|--------|--------|--------|
D|--------|--------|--------|--------|--------|--------|--------|--------|--------|
A|--------|--------|--------|--------|--------|--------|--------|--------|--------|
E|--------|--------|--------|--------|--------|--------|--------|--------|--------|


G|--------|--------|--------|--------|--------|--------|--------|--------|--------|
D|--------|--------|--------|--------|--------|--------|--------|--------|--------|
A|--------|--------|--------|--------|--------|--------|--------|--------|--------|
E|--------|--------|--------|--------|--------|--------|--------|--------|--------|


G|--------|--------|--------|--------|--------|--------|--------|--------|--------|
D|--------|--------|--------|--------|--------|--------|--------|--------|--------|
A|--------|--------|--------|--------|--------|--------|--------|--------|--------|
E|--------|--------|--------|--------|--------|--------|--------|--------|--------|


G|--------|--------|--------|--------|--------|--------|--------|--------|--------|
D|--------|--------|--------|--------|--------|--------|--------|--------|--------|
A|--------|--------|--------|--------|--------|--------|--------|--------|--------|
E|--------|--------|--------|--------|--------|--------|--------|--------|--------|


G|--------|--------|--------|--------|
D|--------|--------|--------|--------|
A|--------|--------|--------|--------|
E|--------|--------|--------|--------|