Menu:

 

Search:

 

pantera - the art of shredding:

 



Title: The Art Of Shredding
Artist: 
Album: Cowboys From Hell
Author: Pantera


Track 1: Rhy Gtr. I

E|--------|--------|--------|--------|-----------------------|--------------------|
B|--------|--------|--------|--------|-----------------------|--------------------|
G|--------|--------|--------|--------|-----------------------|--------------------|
D|--------|--------|--------|--------|-------2---2---2---1---|--------------------|
A|--------|--------|--------|--------|-------2---2---2---1---|--------------------|
E|--------|--------|--------|--------|-----------------------|--------------------|


E|-----------------------|--------------------|-----------------------|--------------------|
B|-----------------------|--------------------|-----------------------|--------------------|
G|-----------------------|--------------------|-----------------------|--------------------|
D|-------2---2---2---1---|--------------------|-------2---2---2---1---|--------------------|
A|-------2---2---2---1---|--------------------|-------2---2---2---1---|--------------------|
E|-----------------------|--------------------|-----------------------|--------------------|


E|-----------------------|--------------3-----|-3---------------------|---------------------------------|
B|-----------------------|--------------------|-----------------------|---------------------------------|
G|-----------------------|--------------------|-----------------------|---------------------------------|
D|-------2---2---2---1---|--------------------|-------------------4---|-----2-------0-------------------|
A|-------2---2---2---1---|--------------------|-----------------------|---------------------4---2-------|
E|-----------------------|--------------------|-------0---2-----------|-----------------------------3---|


E|------------------------------|------------------------------|------------------------------|
B|------------------------------|------------------------------|------------------------------|
G|------------------------------|------------------------------|------------------------------|
D|--------------------------4---|-----2----0-------------------|--------------------------4---|
A|-0---3------------------------|------------------4---2-------|-0---3------------------------|
E|---------4----0---2-----------|--------------------------3---|---------4----0---2-----------|


E|---------------------------------|------------------------------|------------------------------|
B|---------------------------------|------------------------------|------------------------------|
G|---------------------------------|------------------------------|------------------------------|
D|-----2-------0-------------------|--------------------------4---|-----2----0-------------------|
A|---------------------4---2-------|-0---3------------------------|------------------4---2-------|
E|-----------------------------3---|---------4----0---2-----------|--------------------------3---|


E|------------------------------|-------------------------------------|---------------------------------|
B|------------------------------|-------------------------------------|---------------------------------|
G|------------------------------|-------------------------------------|---------------------------------|
D|--------------4-------4-------|-2-------2---------------------------|-----------------4-------4-------|
A|-0---3------------2-------2---|-----2-------2---5--5--4---5--5--4---|-5---4---2---0-------2-------2---|
E|---------4--------------------|-------------------------------------|---------------------------------|


E|-------------------------------------|---------------------------------|-------------------------------------|
B|-------------------------------------|---------------------------------|-------------------------------------|
G|-------------------------------------|---------------------------------|-------------------------------------|
D|-2-------2---------------------------|---------------------------------|-------------------------------------|
A|-----2-------2---5--5--4---5--5--4---|-5---4---2---0---4-------4-------|-2-------2---------------------------|
E|-------------------------------------|---------------------2-------2---|-----2-------2---5--5--4---5--5--4---|


E|---------------------------------|-------------------------------------|---------------------------------|
B|---------------------------------|-------------------------------------|---------------------------------|
G|---------------------------------|-------------------------------------|---------------------------------|
D|---------------------------------|-------------------------------------|-----------------4-------4-------|
A|-----------------4-------4-------|-2-------2---------------------------|---------------------2-------2---|
E|-5---4---2---0-------2-------2---|-----2-------2---5--5--4---5--5--4---|-5---4---2---0-------------------|


E|-------------------------------------|---------------------------------|-------------------------------------|
B|-------------------------------------|---------------------------------|-------------------------------------|
G|-------------------------------------|---------------------------------|-------------------------------------|
D|-2-------2---------------------------|-----------------4-------4-------|-2-------2---------------------------|
A|-----2-------2---5--5--4---5--5--4---|-5---4---2---0-------2-------2---|-----2-------2---5--5--4---5--5--4---|
E|-------------------------------------|---------------------------------|-------------------------------------|


E|---------------------------------|-----------------------------------------|-------------------------------|
B|---------------------------------|-----------------------------------------|-------------------------------|
G|---------------------------------|-----------------------------------------|-------------------------------|
D|-----------------6-------6-------|-7--7------7---------6---------6---------|-7---------7---------6-----7---|
A|-5---4---2---0-------4-------4---|-------4-------4--4--4---4--4--4---4--4--|-4---4--4--4---4--4--4-----4---|
E|---------------------------------|-----------------------------------------|-------------------------------|


E|---------------------|---------------------------|---------------------------------|
B|---------------------|---------------------------|---------------------------------|
G|---------------------|---------------------------|---------------------------------|
D|------7----7---6-----|-7-------------------------|-3-------------------5-----------|
A|------4----4---4-----|-4-----------------5-------|-1-----------7-------3-----------|
E|---------------------|------12---0---0---3---0---|-----0---0---5---0-------0---0---|


E|-----------------------------------|---------------------------------|-----------------------------------|
B|-----------------------------------|---------------------------------|-----------------------------------|
G|-----------------------------------|---------------------------------|-----------------------------------|
D|---------8--8--7-------------------|-3-------------------5-----------|---------8--8--7-------------------|
A|-8-------6--6--5-----------5-------|-1-----------7-------3-----------|-8-------6--6--5-----------5-------|
E|-6---0-------------0---0---3---0---|-----0---0---5---0-------0---0---|-6---0-------------0---0---3---0---|


E|---------------------------------|-----------------------------------|---------------------------------|
B|---------------------------------|-----------------------------------|---------------------------------|
G|---------------------------------|-----------------------------------|---------------------------------|
D|-3-------------------5-----------|---------8--8--7-------------------|-3-------------------5-----------|
A|-1-----------7-------3-----------|-8-------6--6--5-----------5-------|-1-----------7-------3-----------|
E|-----0---0---5---0-------0---0---|-6---0-------------0---0---3---0---|-----0---0---5---0-------0---0---|


E|-----------------------------------|---------------------------------|-----------------------------------|
B|-----------------------------------|---------------------------------|-----------------------------------|
G|-----------------------------------|---------------------------------|-----------------------------------|
D|---------8--8--7-------------------|-3-------------------5-----------|---------8--8--7-------------------|
A|-8-------6--6--5-----------5-------|-1-----------7-------3-----------|-8-------6--6--5-----------5-------|
E|-6---0-------------0---0---3---0---|-----0---0---5---0-------0---0---|-6---0-------------0---0---3---0---|


E|---------------------------------|-----------------------------------|---------------------------------|
B|---------------------------------|-----------------------------------|---------------------------------|
G|---------------------------------|-----------------------------------|---------------------------------|
D|-3-------------------5-----------|---------8--8--7-------------------|-3-------------------5-----------|
A|-1-----------7-------3-----------|-8-------6--6--5-----------5-------|-1-----------7-------3-----------|
E|-----0---0---5---0-------0---0---|-6---0-------------0---0---3---0---|-----0---0---5---0-------0---0---|


E|---------------------------------|-------------------------------|---------------------------|
B|---------------------------------|-------------------------------|---------------------------|
G|---------------------------------|-------------------------------|---------------------------|
D|---------8--8--7---3---------3---|-4---------4---3---------------|-----5---------------------|
A|-8-------6--6--5---1---------1---|-2---------2---1---------------|-----5---------------------|
E|-6---0---------------------------|-------------------------------|-----3-----0---0---0---0---|


E|---------------------------------|---------------------------------|---------------------------------|
B|---------------------------------|---------------------------------|---------------------------------|
G|---------------------------------|---------------------------------|---------------------------------|
D|---------------------------------|---------------------------------|---------------------------------|
A|---------------------------------|---------------------------------|---------------------------------|
E|-0---0---0---0---0---0---0---0---|-0---0---0---0---2---4---4---4---|-4---4---4---4---4---4---4---4---|


E|------------------------------|---------------------------------|-----------------------------------|
B|------------------------------|---------------------------------|-----------------------------------|
G|------------------------------|---------------------------------|-----------------------------------|
D|------------------------------|---------------------------------|-----------------3-----------3--3--|
A|------------------------------|---------------------------------|-----------------1---1---1---1--1--|
E|-4---4---4----0---0---0---0---|-0---0---0---0---0---0---0---0---|-0---0---0---0---------------------|


E|-------------------------------------|---------------------------------|---------------------------------|
B|-------------------------------------|---------------------------------|---------------------------------|
G|-------------------------------------|---------------------------------|---------------------------------|
D|-4-----------4--4--3-----------3--3--|-4-------------------------------|---------------------------------|
A|-2---2---2---2--2--1---1---1---1--1--|-2---2---2---2-------------------|---------------------------------|
E|-------------------------------------|-----------------0---0---0---0---|-0---0---0---0---0---0---0---0---|


E|---------------------------------|---------------------------------|------------------------------|
B|---------------------------------|---------------------------------|------------------------------|
G|---------------------------------|---------------------------------|------------------------------|
D|---------------------------------|---------------------------------|------------------------------|
A|---------------------------------|---------------------------------|------------------------------|
E|-0---0---0---0---2---4---4---4---|-4---4---4---4---4---4---4---4---|-4---4---4----0---0---0---0---|


E|---------------------------------|-------------------------------|----------------------------|
B|---------------------------------|-------------------------------|----------------------------|
G|---------------------------------|-------------------------------|----------------------------|
D|---------------------------------|-----------------3---------3---|-4---------4---3------------|
A|---------------------------------|-----------------1---------1---|-2---------2---1------------|
E|-0---0---0---0---0---0---0---0---|-0---0---0---0-----------------|----------------------------|


E|---------------------------|---------------------------------|-----------------------------------|
B|---------------------------|---------------------------------|-----------------------------------|
G|---------------------------|---------------------------------|-----------------------------------|
D|---------------------------|-3-------------------5-----------|---------8--8--7-------------------|
A|-------------------5-------|-1-----------7-------3-----------|-8-------6--6--5-----------5-------|
E|------6----0---0---3---0---|-----0---0---5---0-------0---0---|-6---0-------------0---0---3---0---|


E|-----------------------------------|---------------------------------|---------------------------------|
B|-----------------------------------|---------------------------------|---------------------------------|
G|-----------------------------------|---------------------------------|---------------------------------|
D|-3-------------------5-------------|---------------------------------|-3-------------------5-----------|
A|-1-----------7-------3-------8--8--|-7---7---6---6-----------5-------|-1-----------7-------3-----------|
E|-----0---0---5---0-------0---6--6--|-5---5---4---4---0---0---3---0---|-----0---0---5---0-------0---0---|


E|-----------------------------------|---------------------------------|----------------------------------|
B|-----------------------------------|---------------------------------|----------------------------------|
G|-----------------------------------|---------------------------------|----------------------------------|
D|---------8--8--7-------------------|-3-------------------5-----------|----------------------------------|
A|-8-------6--6--5-----------5-------|-1-----------7-------3-------8---|-8--7---7--7--6---6--6------------|
E|-6---0-------------0---0---3---0---|-----0---0---5---0-------0---6---|-6--5---5--5--4---4--4------------|


E|--------|--------|---------------------------------|---------------------------------|
B|--------|--------|---------------------------------|---------------------------------|
G|-4------|-4------|---------------------------------|---------------------------------|
D|-4------|-4------|---------------------------------|---------------------------------|
A|-2------|-2------|---------------------------------|---------------------------------|
E|-2------|-2------|-0---0---0---0---0---0---0---0---|-0---0---0---0---0---0---0---0---|


E|---------------------------------|------------------------------|---------------------------------|
B|---------------------------------|------------------------------|---------------------------------|
G|---------------------------------|------------------------------|---------------------------------|
D|---------------------------------|------------------------------|---------------------------------|
A|---------------------------------|------------------------------|---------------------------------|
E|-2---4---4---4---4---4---4---4---|-4---4---4---4---4---4---4----|-0---0---0---0---0---0---0---0---|


E|---------------------------------|-------------------------------------|-----------------------------------|
B|---------------------------------|-------------------------------------|-----------------------------------|
G|---------------------------------|-------------------------------------|-----------------------------------|
D|---------------------------------|-3-----------3--3--4-----------4--4--|-3-----------3--3--4---------------|
A|---------------------------------|-1---1---1---1--1--2---2---2---2--2--|-1---1---1---1--1--2---2---2---2---|
E|-0---0---0---0---0---0---0---0---|-------------------------------------|-----------------------------------|


E|---------------------------------|---------------------------------|---------------------------------|
B|---------------------------------|---------------------------------|---------------------------------|
G|---------------------------------|---------------------------------|---------------------------------|
D|---------------------------------|---------------------------------|---------------------------------|
A|---------------------------------|---------------------------------|---------------------------------|
E|-0---0---0---0---0---0---0---0---|-0---0---0---0---0---0---0---0---|-2---4---4---4---4---4---4---4---|


E|------------------------------|---------------------------------|---------------------------------|
B|------------------------------|---------------------------------|---------------------------------|
G|------------------------------|---------------------------------|---------------------------------|
D|------------------------------|---------------------------------|---------------------------------|
A|------------------------------|---------------------------------|---------------------------------|
E|-4---4---4---4---4---4---4----|-0---0---0---0---0---0---0---0---|-0---0---0---0---0---0---0---0---|


E|-----------------------------|--------------------|---------------------------------|
B|-----------------------------|--------------------|---------------------------------|
G|-----------------------------|--------------------|---------------------------------|
D|-3---------3---4---------4---|-3------------------|-----------------3---------------|
A|-1---------1---2---------2---|-1------------------|---------5-------1-----------7---|
E|-----------------------------|---------------6----|-0---0---3---0-------0---0---5---|


E|-----------------------------------|---------------------------------|-----------------------------------|
B|-----------------------------------|---------------------------------|-----------------------------------|
G|-----------------------------------|---------------------------------|-----------------------------------|
D|-----5-------------------8--8--7---|-----------------3---------------|-----5-----------------------------|
A|-----3-----------8-------6--6--5---|---------5-------1-----------7---|-----3-------8--8--7---7---6---6---|
E|-0-------0---0---6---0-------------|-0---0---3---0-------0---0---5---|-0-------0---6--6--5---5---4---4---|


E|---------------------------------|-----------------------------------|---------------------------------|
B|---------------------------------|-----------------------------------|---------------------------------|
G|---------------------------------|-----------------------------------|---------------------------------|
D|-----------------3---------------|-----5-------------------8--8--7---|-----------------3---------------|
A|---------5-------1-----------7---|-----3-----------8-------6--6--5---|---------5-------1-----------7---|
E|-0---0---3---0-------0---0---5---|-0-------0---0---6---0-------------|-0---0---3---0-------0---0---5---|


E|-------------------------------------|---------------------------------|-----------------------------------|
B|-------------------------------------|---------------------------------|-----------------------------------|
G|-------------------------------------|---------------------------------|-----------------------------------|
D|-----5-------------------------------|-----------------3---------------|-----5-------------------8--8--7---|
A|-----3-------8--8--7---7--7--6---6---|---------5-------1-----------7---|-----3-----------8-------6--6--5---|
E|-0-------0---6--6--5---5--5--4---4---|-0---0---3---0-------0---0---5---|-0-------0---0---6---0-------------|


E|---------------------------------|-------------------------------------|---------------------------------|
B|---------------------------------|-------------------------------------|---------------------------------|
G|---------------------------------|-------------------------------------|---------------------------------|
D|-----------------3---------------|-----5-------------------------------|-----------------3---------------|
A|---------5-------1-----------7---|-----3-------8--8--7---7--7--6---6---|---------5-------1-----------7---|
E|-0---0---3---0-------0---0---5---|-0-------0---6--6--5---5--5--4---4---|-0---0---3---0-------0---0---5---|


E|-----------------------------------|---------------------------------|-------------------------------------|
B|-----------------------------------|---------------------------------|-------------------------------------|
G|-----------------------------------|---------------------------------|-------------------------------------|
D|-----5-------------------8--8--7---|-----------------3---------------|-----5-------------------------------|
A|-----3-----------8-------6--6--5---|---------5-------1-----------7---|-----3-------8--8--7---7--7--6---6---|
E|-0-------0---0---6---0-------------|-0---0---3---0-------0---0---5---|-0-------0---6--6--5---5--5--4---4---|


E|---------------------------|------------------------------|-----------------|--------|
B|---------------------------|------------------------------|-----------------|--------|
G|---------------------------|------------------------------|-----------------|--------|
D|---------------------------|------------------------------|-----------------|--------|
A|-7--------7--------7-------|-----7--------------------5---|-7---------------|--------|
E|-----7--------6--------5---|-5-------6----5---6---7-------|-----------------|--------|


E|---------------------------|------------------------------|---------------------------|
B|---------------------------|------------------------------|---------------------------|
G|---------------------------|------------------------------|---------------------------|
D|---------------------------|------------------------------|---------------------------|
A|-7--------7--------7-------|-----7--------------------5---|-7--------7--------7-------|
E|-----7--------6--------5---|-5-------6----5---6---7-------|-----7--------6--------5---|


E|------------------------------|---------------------------------------|-------------------------------------------------|
B|------------------------------|---------------------------------------|-------------------------------------------------|
G|------------------------------|-9--9--8-------9--9--8-------9--9--8---|-------------------------------------------------|
D|------------------------------|-9--9--8-------9--9--8-------9--9--8---|-------------------------------------------------|
A|-----7--------------------5---|-7--7--6---0---7--7--6---0---7--7--6---|-6--6--6--6--6--6--6--6--6--6--6--6--6--6--6--6--|
E|-5-------6----5---6---7-------|-----------0-------------0-------------|-------------------------------------------------|


E|---------------------------------------|-------------------------------------------------|
B|---------------------------------------|-------------------------------------------------|
G|-9--9--8-------9--9--8-------8--8--7---|-------------------------------------------------|
D|-9--9--8-------9--9--8-------8--8--7---|-------------------------------------------------|
A|-7--7--6---0---7--7--6---0---6--6--5---|-5--5--5--5--5--5--5--5--5--5--5--5--5--5--5--5--|
E|-----------0-------------0-------------|-------------------------------------------------|


E|---------------------------------------|-------------------------------------------------|
B|---------------------------------------|-------------------------------------------------|
G|-9--9--8-------9--9--8-------9--9--8---|-------------------------------------------------|
D|-9--9--8-------9--9--8-------9--9--8---|-------------------------------------------------|
A|-7--7--6---0---7--7--6---0---7--7--6---|-6--6--6--6--6--6--6--6--6--6--6--6--6--6--6--6--|
E|-----------0-------------0-------------|-------------------------------------------------|


E|---------------------------------------|-------------------------------------------------|
B|---------------------------------------|-------------------------------------------------|
G|-9--9--8-------9--9--8-------8--8--7---|-------------------------------------------------|
D|-9--9--8-------9--9--8-------8--8--7---|-------------------------------------------------|
A|-7--7--6---0---7--7--6---0---6--6--5---|-5--5--5--5--5--5--5--5--5--5--5--5--5--5--5--5--|
E|-----------0-------------0-------------|-------------------------------------------------|


E|---------------------------|------------------------------|---------------------------------------|
B|---------------------------|------------------------------|---------------------------------------|
G|---------------------------|------------------------------|-9--9--8-------9--9--8-------9--9--8---|
D|---------------------------|------------------------------|-9--9--8-------9--9--8-------9--9--8---|
A|-7--------7--------7-------|-----7--------------------5---|-7--7--6---0---7--7--6---0---7--7--6---|
E|-----7--------6--------5---|-5-------6----5---6---7-------|-----------0-------------0-------------|


E|-------------------------------------------------|---------------------------------------|
B|-------------------------------------------------|---------------------------------------|
G|-------------------------------------------------|-9--9--8-------9--9--8-------8--8--7---|
D|-------------------------------------------------|-9--9--8-------9--9--8-------8--8--7---|
A|-6--6--6--6--6--6--6--6--6--6--6--6--6--6--6--6--|-7--7--6---0---7--7--6---0---6--6--5---|
E|-------------------------------------------------|-----------0-------------0-------------|


E|-------------------------------------------------|---------------------------------------|
B|-------------------------------------------------|---------------------------------------|
G|-------------------------------------------------|-9--9--8-------9--9--8-------9--9--8---|
D|-------------------------------------------------|-9--9--8-------9--9--8-------9--9--8---|
A|-5--5--5--5--5--5--5--5--5--5--5--5--5--5--5--5--|-7--7--6---0---7--7--6---0---7--7--6---|
E|-------------------------------------------------|-----------0-------------0-------------|


E|-------------------------------------------------|---------------------------------------|
B|-------------------------------------------------|---------------------------------------|
G|-------------------------------------------------|-9--9--8-------9--9--8-------8--8--7---|
D|-------------------------------------------------|-9--9--8-------9--9--8-------8--8--7---|
A|-6--6--6--6--6--6--6--6--6--6--6--6--6--6--6--6--|-7--7--6---0---7--7--6---0---6--6--5---|
E|-------------------------------------------------|-----------0-------------0-------------|


E|-------------------------------------------------|---------------------------------|
B|-------------------------------------------------|---------------------------------|
G|-------------------------------------------------|---------------------------------|
D|-------------------------------------------------|-1---0-------1---0-------1---2---|
A|-5--5--5--5--5--5--5--5--5--5--5--5--5--5--5--5--|-1---0-------1---0-------1---2---|
E|-------------------------------------------------|-----------------------------0---|


E|------------------------------|---------------------------------|------------------------------|
B|------------------------------|---------------------------------|------------------------------|
G|------------------------------|---------------------------------|------------------------------|
D|-2----------------------------|-1---0-------1---0-------1---3---|-3----------------------------|
A|-2----------------------------|-1---0-------1---0-------1---3---|-3----------------------------|
E|-0----0---0---0---0---0---0---|-----------------------------1---|-1----1---1---1---1---1---1---|


E|-----------------------------------|------------------------------|------------------------------|
B|-----------------------------------|------------------------------|------------------------------|
G|-----------------------------------|------------------------------|------------------------------|
D|-------------------------3--3--5---|-5------------------------4---|-4-----------3----------------|
A|-3---2-------3---2-------3--3--5---|-5------------------------4---|-4-----------3----------------|
E|-1---0-------1---0-------1--1--3---|-3----3---3---3---3---3---2---|-2---2---2---1----1---1---1---|


E|---------------------------------|------------------------------|---------------------------------|
B|---------------------------------|------------------------------|---------------------------------|
G|---------------------------------|------------------------------|---------------------------------|
D|-1---0-------1---0-------1---2---|-2----------------------------|-1---0-------1---0-------1---3---|
A|-1---0-------1---0-------1---2---|-2----------------------------|-1---0-------1---0-------1---3---|
E|-----------------------------0---|-0----0---0---0---0---0---0---|-----------------------------1---|


E|------------------------------|-----------------------------------|--------------------|
B|------------------------------|-----------------------------------|--------------------|
G|------------------------------|-----------------------------------|--------------------|
D|-3----------------------------|-------------------------3--3--5---|-5-----5--------4---|
A|-3----------------------------|-3---2-------3---2-------3--3--5---|-5-----5--------4---|
E|-1----1---1---1---1---1---1---|-1---0-------1---0-------1--1--3---|-3-----3--------2---|


E|------------------------|--------------------|-----------------------------------|
B|------------------------|--------------------|-----------------------------------|
G|------------------------|--------------------|-----------------------------------|
D|-4--------3-----3---3---|-6------------------|-6-----------6--6--7-------6-------|
A|-4--------3-----3---3---|-6------------------|-6-----------6--6--7-------6-------|
E|-2--------1-----1---1---|-4------------------|-4---4---4---4--4--5---4---4---4---|


E|-------------------------------------|-----------------------------------|-----------------------------------|
B|-------------------------------------|-----------------------------------|-----------------------------------|
G|-------------------------------------|-----------------------------------|-----------------------------------|
D|-----6--6--7-------------------------|-6-----------6--6--7-------6-------|-----6--6--7-----------------------|
A|-----6--6--7-------4---4---4--4--6---|-6-----------6--6--7-------6-------|-----6--6--7-------2---2-----------|
E|-4---4--4--5---0---2---2---2--2--4---|-4---4---4---4--4--5---4---4---4---|-4---4--4--5---0---0---0---2---3---|


E|-----------------------------------|-------------------------------------|-----------------------------------|
B|-----------------------------------|-------------------------------------|-----------------------------------|
G|-----------------------------------|-------------------------------------|-----------------------------------|
D|-6-----------6--6--7-------6-------|-----6--6--7-------------------------|-6-----------6--6--7-------6-------|
A|-6-----------6--6--7-------6-------|-----6--6--7-------4---4---4--4--6---|-6-----------6--6--7-------6-------|
E|-4---4---4---4--4--5---4---4---4---|-4---4--4--5---0---2---2---2--2--4---|-4---4---4---4--4--5---4---4---4---|


E|-----------------------------------|-----------------------------------|--------------------------------|
B|-----------------------------------|-----------------------------------|--------------------------------|
G|-----------------------------------|-----------------------------------|--------------------------------|
D|-----6--6--7-----------------------|-6-----------6--6--7-------6-------|-----6--6--7--------------------|
A|-----6--6--7-------2---2-----------|-6-----------6--6--7-------6-------|-----6--6--7-------4---4---4----|
E|-4---4--4--5---0---0---0---2---3---|-4---4---4---4--4--5---4---4---4---|-4---4--4--5---0---2---2---2----|


E|---------------------------------|---------------------------------|--------|-------------|
B|---------------------------------|---------------------------------|--------|-------------|
G|---------------------------------|---------------------------------|--------|-------------|
D|-11--11--11--10--10--10--9---9---|-9---8---8---8---7-------6---5---|-5------|-5-----------|
A|-9---9---9---8---8---8---7---7---|-7---6---6---6---5-------4---3---|-3------|-3-----------|
E|---------------------------------|---------------------------------|--------|-------------|


E|--------|--------|--------|--------|--------|--------|--------------------|--------|
B|--------|--------|--------|--------|--------|--------|--------------------|--------|
G|--------|--------|--------|--------|--------|--------|-12-10-8--7---------|--------|
D|--------|--------|--------|--------|--------|--------|-12-10-8--7---------|--------|
A|--------|--------|--------|--------|--------|--------|--------------------|--------|
E|--------|--------|--------|--------|--------|--------|--------------------|--------|


E|--------|------------|------------------------------|------------------------------|
B|--------|------------|------------------------------|------------------------------|
G|--------|--------7---|-7----------------------------|--------------------------2---|
D|--------|--------7---|-7-----------2------------3---|-3-----------5------------2---|
A|--------|--------5---|-5---5---5---2------------3---|-3-----------5------------0---|
E|--------|------------|-------------0----0---0---1---|-1---1---1---3----3---3-------|


E|--------|------------|------------------------------|------------------------------|
B|--------|------------|------------------------------|------------------------------|
G|-2------|-2------7---|-7----------------------------|--------------------------2---|
D|-2------|-2------7---|-7-----------2------------3---|-3-----------5------------2---|
A|-0------|-0------5---|-5---5---5---2------------3---|-3-----------5------------0---|
E|--------|------------|-------------0----0---0---1---|-1---1---1---3----3---3-------|


E|------------------------------|------------------------------|------------------------------|
B|------------------------------|------------------------------|------------------------------|
G|-2-------2----------------2---|---------2----------------7---|-7-----------9------------10--|
D|-2-------2----------------2---|---------2----------------7---|-7-----------9------------10--|
A|-0---0---0------------0---0---|-0---0---0------------0---5---|-5---5---5---7----7---7---8---|
E|--------------3---5-----------|--------------3---5-----------|------------------------------|


E|------------------------------|--------|------------|------------------------------|
B|------------------------------|--------|------------|------------------------------|
G|-10----------12-----------14--|-14-----|-14-----7---|-7----------------------------|
D|-10----------12-----------14--|-14-----|-14-----7---|-7-----------2------------3---|
A|-8---8---8---10---10--10--12--|-12-----|-12-----5---|-5---5---5---2------------3---|
E|------------------------------|--------|------------|-------------0----0---0---1---|


E|------------------------------|---------------------------------|-----------------------|
B|------------------------------|---------------------------------|-----------------------|
G|--------------------------4---|-4-----------5---5-----------7---|-7-----------8-----8---|
D|-3-----------5------------4---|-4-----------5---5-----------7---|-7-----------8-----8---|
A|-3-----------5------------2---|-2---2---2---3---3---3---3---5---|-5---5---5---6-----6---|
E|-1---1---1---3----3---3-------|---------------------------------|-----------------------|


E|---------------------------------|-----------------------------------|---------------------------------|
B|---------------------------------|-----------------------------------|---------------------------------|
G|---------------------------------|-----------------------------------|---------------------------------|
D|-----------------3---------------|-----5-------------------8--8--7---|-----------------3---------------|
A|---------5-------1-----------7---|-----3-----------8-------6--6--5---|---------5-------1-----------7---|
E|-0---0---3---0-------0---0---5---|-0-------0---0---6---0-------------|-0---0---3---0-------0---0---5---|


E|-------------------------------------|---------------------------------|-----------------------------------|
B|-------------------------------------|---------------------------------|-----------------------------------|
G|-------------------------------------|---------------------------------|-----------------------------------|
D|-----5-------------------------------|-----------------3---------------|-----5-------------------8--8--7---|
A|-----3-------8--8--7---7--7--6---6---|---------5-------1-----------7---|-----3-----------8-------6--6--5---|
E|-0-------0---6--6--5---5--5--4---4---|-0---0---3---0-------0---0---5---|-0-------0---0---6---0-------------|


E|---------------------------------|-------------------------------------|---------------------------------|
B|---------------------------------|-------------------------------------|---------------------------------|
G|---------------------------------|-------------------------------------|---------------------------------|
D|-----------------3---------------|-----5-------------------------------|-----------------3---------------|
A|---------5-------1-----------7---|-----3-------8--8--7---7--7--6---6---|---------5-------1-----------7---|
E|-0---0---3---0-------0---0---5---|-0-------0---6--6--5---5--5--4---4---|-0---0---3---0-------0---0---5---|


E|-----------------------------------|---------------------------------|-------------------------------------|
B|-----------------------------------|---------------------------------|-------------------------------------|
G|-----------------------------------|---------------------------------|-------------------------------------|
D|-----5-------------------8--8--7---|-----------------3---------------|-----5-------------------------------|
A|-----3-----------8-------6--6--5---|---------5-------1-----------7---|-----3-------8--8--7---7--7--6---6---|
E|-0-------0---0---6---0-------------|-0---0---3---0-------0---0---5---|-0-------0---6--6--5---5--5--4---4---|


E|---------------------------------|-----------------------------------|---------------------------------|
B|---------------------------------|-----------------------------------|---------------------------------|
G|---------------------------------|-----------------------------------|---------------------------------|
D|-----------------3---------------|-----5-------------------8--8--7---|-----------------3---------------|
A|---------5-------1-----------7---|-----3-----------8-------6--6--5---|---------5-------1-----------7---|
E|-0---0---3---0-------0---0---5---|-0-------0---0---6---0-------------|-0---0---3---0-------0---0---5---|


E|-------------------------------------|---------------------------------|-----------------------------------|
B|-------------------------------------|---------------------------------|-----------------------------------|
G|-------------------------------------|---------------------------------|-----------------------------------|
D|-----5-------------------------------|-----------------3---------------|-----5-------------------8--8--7---|
A|-----3-------8--8--7---7--7--6---6---|---------5-------1-----------7---|-----3-----------8-------6--6--5---|
E|-0-------0---6--6--5---5--5--4---4---|-0---0---3---0-------0---0---5---|-0-------0---0---6---0-------------|


E|---------------------------------|-------------------------------------|---------------------------|
B|---------------------------------|-------------------------------------|---------------------------|
G|---------------------------------|-------------------------------------|---------------------------|
D|-----------------3---------------|-----5-------------------------------|---------------------------|
A|---------5-------1-----------7---|-----3-------8--8--7---7--7--6---6---|-7--------7--------7-------|
E|-0---0---3---0-------0---0---5---|-0-------0---6--6--5---5--5--4---4---|-----7--------6--------5---|


E|------------------------------|---------------------------|------------------------------|
B|------------------------------|---------------------------|------------------------------|
G|------------------------------|---------------------------|------------------------------|
D|------------------------------|---------------------------|------------------------------|
A|-----7--------------------5---|-7--------7--------7-------|-----7--------------------5---|
E|-5-------6----5---6---7-------|-----7--------6--------5---|-5-------6----5---6---7-------|


E|---------------------------|------------------------------|------------|
B|---------------------------|------------------------------|------------|
G|---------------------------|------------------------------|------------|
D|---------------------------|------------------------------|-2----------|
A|-7--------7--------7-------|-----7--------------------5---|-2----------|
E|-----7--------6--------5---|-5-------6----5---6---7-------|-0----------|





Track 2: Pick Slides

E|--------|--------|--------|--------|--------|--------|--------|-------24----|-------------|
B|--------|--------|--------|--------|--------|--------|--------|-------24----|-12----------|
G|--------|--------|--------|--------|--------|--------|--------|-------------|-12----------|
D|--------|--------|--------|--------|--------|--------|--------|-------------|-------------|
A|--------|--------|--------|--------|--------|--------|--------|-------------|-------------|
E|--------|--------|--------|--------|--------|--------|--------|-------------|-------------|


E|--------|--------|--------|--------|--------|--------|--------|--------|--------|
B|--------|--------|--------|--------|--------|--------|--------|--------|--------|
G|--------|--------|--------|--------|--------|--------|--------|--------|--------|
D|--------|--------|--------|--------|--------|--------|--------|--------|--------|
A|--------|--------|--------|--------|--------|--------|--------|--------|--------|
E|--------|--------|--------|--------|--------|--------|--------|--------|--------|


E|--------|--------|--------|--------|--------|--------|--------|--------|--------|
B|--------|--------|--------|--------|--------|--------|--------|--------|--------|
G|--------|--------|--------|--------|--------|--------|--------|--------|--------|
D|--------|--------|--------|--------|--------|--------|--------|--------|--------|
A|--------|--------|--------|--------|--------|--------|--------|--------|--------|
E|--------|--------|--------|--------|--------|--------|--------|--------|--------|


E|--------|--------|--------|--------|--------|--------|--------|--------|--------|
B|--------|--------|--------|--------|--------|--------|--------|--------|--------|
G|--------|--------|--------|--------|--------|--------|--------|--------|--------|
D|--------|--------|--------|--------|--------|--------|--------|--------|--------|
A|--------|--------|--------|--------|--------|--------|--------|--------|--------|
E|--------|--------|--------|--------|--------|--------|--------|--------|--------|


E|--------|--------|--------|--------|--------|--------|--------|--------|--------|
B|--------|--------|--------|--------|--------|--------|--------|--------|--------|
G|--------|--------|--------|--------|--------|--------|--------|--------|--------|
D|--------|--------|--------|--------|--------|--------|--------|--------|--------|
A|--------|--------|--------|--------|--------|--------|--------|--------|--------|
E|--------|--------|--------|--------|--------|--------|--------|--------|--------|


E|--------|--------|--------|--------|--------|--------|--------|--------|--------|
B|--------|--------|--------|--------|--------|--------|--------|--------|--------|
G|--------|--------|--------|--------|--------|--------|--------|--------|--------|
D|--------|--------|--------|--------|--------|--------|--------|--------|--------|
A|--------|--------|--------|--------|--------|--------|--------|--------|--------|
E|--------|--------|--------|--------|--------|--------|--------|--------|--------|


E|--------|--------|--------|--------|--------|--------|--------|--------|--------|
B|--------|--------|--------|--------|--------|--------|--------|--------|--------|
G|--------|--------|--------|--------|--------|--------|--------|--------|--------|
D|--------|--------|--------|--------|--------|--------|--------|--------|--------|
A|--------|--------|--------|--------|--------|--------|--------|--------|--------|
E|--------|--------|--------|--------|--------|--------|--------|--------|--------|


E|--------|--------|--------|--------|--------|--------|--------|--------|--------|
B|--------|--------|--------|--------|--------|--------|--------|--------|--------|
G|--------|--------|--------|--------|--------|--------|--------|--------|--------|
D|--------|--------|--------|--------|--------|--------|--------|--------|--------|
A|--------|--------|--------|--------|--------|--------|--------|--------|--------|
E|--------|--------|--------|--------|--------|--------|--------|--------|--------|


E|--------|--------|--------|--------|--------|--------|--------|--------|--------|
B|--------|--------|--------|--------|--------|--------|--------|--------|--------|
G|--------|--------|--------|--------|--------|--------|--------|--------|--------|
D|--------|--------|--------|--------|--------|--------|--------|--------|--------|
A|--------|--------|--------|--------|--------|--------|--------|--------|--------|
E|--------|--------|--------|--------|--------|--------|--------|--------|--------|


E|--------|--------|--------|--------|--------|--------|--------|--------|--------|
B|--------|--------|--------|--------|--------|--------|--------|--------|--------|
G|--------|--------|--------|--------|--------|--------|--------|--------|--------|
D|--------|--------|--------|--------|--------|--------|--------|--------|--------|
A|--------|--------|--------|--------|--------|--------|--------|--------|--------|
E|--------|--------|--------|--------|--------|--------|--------|--------|--------|


E|--------|--------|--------|--------|--------|--------|--------|--------|--------|
B|--------|--------|--------|--------|--------|--------|--------|--------|--------|
G|--------|--------|--------|--------|--------|--------|--------|--------|--------|
D|--------|--------|--------|--------|--------|--------|--------|--------|--------|
A|--------|--------|--------|--------|--------|--------|--------|--------|--------|
E|--------|--------|--------|--------|--------|--------|--------|--------|--------|


E|--------|--------|--------|--------|--------|--------|--------|--------|--------|
B|--------|--------|--------|--------|--------|--------|--------|--------|--------|
G|--------|--------|--------|--------|--------|--------|--------|--------|--------|
D|--------|--------|--------|--------|--------|--------|--------|--------|--------|
A|--------|--------|--------|--------|--------|--------|--------|--------|--------|
E|--------|--------|--------|--------|--------|--------|--------|--------|--------|


E|--------|--------|--------|--------|--------|--------|--------|--------|--------|
B|--------|--------|--------|--------|--------|--------|--------|--------|--------|
G|--------|--------|--------|--------|--------|--------|--------|--------|--------|
D|--------|--------|--------|--------|--------|--------|--------|--------|--------|
A|--------|--------|--------|--------|--------|--------|--------|--------|--------|
E|--------|--------|--------|--------|--------|--------|--------|--------|--------|


E|--------|--------|--------|--------|--------|--------|--------|--------|--------|
B|--------|--------|--------|--------|--------|--------|--------|--------|--------|
G|--------|--------|--------|--------|--------|--------|--------|--------|--------|
D|--------|--------|--------|--------|--------|--------|--------|--------|--------|
A|--------|--------|--------|--------|--------|--------|--------|--------|--------|
E|--------|--------|--------|--------|--------|--------|--------|--------|--------|


E|--------|--------|--------|--------|--------|--------|--------|--------|--------|
B|--------|--------|--------|--------|--------|--------|--------|--------|--------|
G|--------|--------|--------|--------|--------|--------|--------|--------|--------|
D|--------|--------|--------|--------|--------|--------|--------|--------|--------|
A|--------|--------|--------|--------|--------|--------|--------|--------|--------|
E|--------|--------|--------|--------|--------|--------|--------|--------|--------|


E|--------|--------|--------|--------|--------|--------|--------|--------|--------|
B|--------|--------|--------|--------|--------|--------|--------|--------|--------|
G|--------|--------|--------|--------|--------|--------|--------|--------|--------|
D|--------|--------|--------|--------|--------|--------|--------|--------|--------|
A|--------|--------|--------|--------|--------|--------|--------|--------|--------|
E|--------|--------|--------|--------|--------|--------|--------|--------|--------|


E|--------|--------|--------|--------|--------|---------------------------|---------------------------|
B|--------|--------|--------|--------|--------|---------------------------|---------------------------|
G|--------|--------|--------|--------|--------|---------------------------|---------------------------|
D|--------|--------|--------|--------|--------|-----------24-23-22-20-----|-----24-23-22-20-----------|
A|--------|--------|--------|--------|--------|-----------24-23-22-21-----|-----24-23-22-21-----------|
E|--------|--------|--------|--------|--------|---------------------------|---------------------------|


E|--------|--------|--------|--------|--------|--------|--------|--------|--------|
B|--------|--------|--------|--------|--------|--------|--------|--------|--------|
G|--------|--------|--------|--------|--------|--------|--------|--------|--------|
D|--------|--------|--------|--------|--------|--------|--------|--------|--------|
A|--------|--------|--------|--------|--------|--------|--------|--------|--------|
E|--------|--------|--------|--------|--------|--------|--------|--------|--------|


E|--------|--------|--------|--------|--------|--------|--------|--------|--------|
B|--------|--------|--------|--------|--------|--------|--------|--------|--------|
G|--------|--------|--------|--------|--------|--------|--------|--------|--------|
D|--------|--------|--------|--------|--------|--------|--------|--------|--------|
A|--------|--------|--------|--------|--------|--------|--------|--------|--------|
E|--------|--------|--------|--------|--------|--------|--------|--------|--------|


E|--------|--------|--------|--------|--------|--------|--------|--------|--------|
B|--------|--------|--------|--------|--------|--------|--------|--------|--------|
G|--------|--------|--------|--------|--------|--------|--------|--------|--------|
D|--------|--------|--------|--------|--------|--------|--------|--------|--------|
A|--------|--------|--------|--------|--------|--------|--------|--------|--------|
E|--------|--------|--------|--------|--------|--------|--------|--------|--------|


E|--------|--------|--------|--------|--------|--------|--------|--------|--------|
B|--------|--------|--------|--------|--------|--------|--------|--------|--------|
G|--------|--------|--------|--------|--------|--------|--------|--------|--------|
D|--------|--------|--------|--------|--------|--------|--------|--------|--------|
A|--------|--------|--------|--------|--------|--------|--------|--------|--------|
E|--------|--------|--------|--------|--------|--------|--------|--------|--------|


E|--------|--------|--------|--------|--------|--------|--------|--------|--------|
B|--------|--------|--------|--------|--------|--------|--------|--------|--------|
G|--------|--------|--------|--------|--------|--------|--------|--------|--------|
D|--------|--------|--------|--------|--------|--------|--------|--------|--------|
A|--------|--------|--------|--------|--------|--------|--------|--------|--------|
E|--------|--------|--------|--------|--------|--------|--------|--------|--------|


E|--------|--------|--------|--------|--------|--------|--------|--------|--------|
B|--------|--------|--------|--------|--------|--------|--------|--------|--------|
G|--------|--------|--------|--------|--------|--------|--------|--------|--------|
D|--------|--------|--------|--------|--------|--------|--------|--------|--------|
A|--------|--------|--------|--------|--------|--------|--------|--------|--------|
E|--------|--------|--------|--------|--------|--------|--------|--------|--------|


E|--------|--------|--------|--------|--------|--------|--------|--------|--------|
B|--------|--------|--------|--------|--------|--------|--------|--------|--------|
G|--------|--------|--------|--------|--------|--------|--------|--------|--------|
D|--------|--------|--------|--------|--------|--------|--------|--------|--------|
A|--------|--------|--------|--------|--------|--------|--------|--------|--------|
E|--------|--------|--------|--------|--------|--------|--------|--------|--------|


E|--------|--------|--------|--------|--------|
B|--------|--------|--------|--------|--------|
G|--------|--------|--------|--------|--------|
D|--------|--------|--------|--------|--------|
A|--------|--------|--------|--------|--------|
E|--------|--------|--------|--------|--------|





Track 3: Rhy Gtr. II

E|--------|--------|--------|--------|--------|--------|--------|--------|--------|
B|--------|--------|--------|--------|--------|--------|--------|--------|--------|
G|--------|--------|--------|--------|--------|--------|--------|--------|--------|
D|--------|--------|--------|--------|--------|--------|--------|--------|--------|
A|--------|--------|--------|--------|--------|--------|--------|--------|--------|
E|--------|--------|--------|--------|--------|--------|--------|--------|--------|


E|-------------|-------------|-------------|-------------|--------|--------|--------|
B|-------------|-------------|-------------|-------------|--------|--------|--------|
G|-------------|-------------|-------------|-------------|--------|--------|--------|
D|-------------|-------------|-------------|-------------|--------|--------|--------|
A|-------------|-------------|-------------|-------------|--------|--------|--------|
E|-------------|-------------|-------------|-17----------|--------|--------|--------|


E|-------------|--------|--------|--------|--------|--------|--------|--------|--------|
B|-------------|--------|--------|--------|--------|--------|--------|--------|--------|
G|-------------|--------|--------|--------|--------|--------|--------|--------|--------|
D|-------------|--------|--------|--------|--------|--------|--------|--------|--------|
A|-------------|--------|--------|--------|--------|--------|--------|--------|--------|
E|-------------|--------|--------|--------|--------|--------|--------|--------|--------|


E|--------|--------|--------|--------|--------|--------|--------|--------|--------|
B|--------|--------|--------|--------|--------|--------|--------|--------|--------|
G|--------|--------|--------|--------|--------|--------|--------|--------|--------|
D|--------|--------|--------|--------|--------|--------|--------|--------|--------|
A|--------|--------|--------|--------|--------|--------|--------|--------|--------|
E|--------|--------|--------|--------|--------|--------|--------|--------|--------|


E|--------|--------|--------|--------|--------|--------|--------|--------|--------|
B|--------|--------|--------|--------|--------|--------|--------|--------|--------|
G|--------|--------|--------|--------|--------|--------|--------|--------|--------|
D|--------|--------|--------|--------|--------|--------|--------|--------|--------|
A|--------|--------|--------|--------|--------|--------|--------|--------|--------|
E|--------|--------|--------|--------|--------|--------|--------|--------|--------|


E|--------|--------|--------|--------|--------|--------|--------|--------|--------|
B|--------|--------|--------|--------|--------|--------|--------|--------|--------|
G|--------|--------|--------|--------|--------|--------|--------|--------|--------|
D|--------|--------|--------|--------|--------|--------|--------|--------|--------|
A|--------|--------|--------|--------|--------|--------|--------|--------|--------|
E|--------|--------|--------|--------|--------|--------|--------|--------|--------|


E|--------|--------|--------|--------|--------|--------|--------|--------|--------|
B|--------|--------|--------|--------|--------|--------|--------|--------|--------|
G|--------|--------|--------|--------|--------|--------|--------|--------|--------|
D|--------|--------|--------|--------|--------|--------|--------|--------|--------|
A|--------|--------|--------|--------|--------|--------|--------|--------|--------|
E|--------|--------|--------|--------|--------|--------|--------|--------|--------|


E|--------|--------|--------|--------|--------|--------|--------|--------|--------|
B|--------|--------|--------|--------|--------|--------|--------|--------|--------|
G|--------|--------|--------|--------|--------|--------|--------|--------|--------|
D|--------|--------|--------|--------|--------|--------|--------|--------|--------|
A|--------|--------|--------|--------|--------|--------|--------|--------|--------|
E|--------|--------|--------|--------|--------|--------|--------|--------|--------|


E|--------|--------|--------|--------|--------|--------|--------|--------|--------|
B|--------|--------|--------|--------|--------|--------|--------|--------|--------|
G|--------|--------|--------|--------|--------|--------|--------|--------|--------|
D|--------|--------|--------|--------|--------|--------|--------|--------|--------|
A|--------|--------|--------|--------|--------|--------|--------|--------|--------|
E|--------|--------|--------|--------|--------|--------|--------|--------|--------|


E|--------|--------|--------|--------|--------|--------|--------|--------|--------|
B|--------|--------|--------|--------|--------|--------|--------|--------|--------|
G|--------|--------|--------|--------|--------|--------|--------|--------|--------|
D|--------|--------|--------|--------|--------|--------|--------|--------|--------|
A|--------|--------|--------|--------|--------|--------|--------|--------|--------|
E|--------|--------|--------|--------|--------|--------|--------|--------|--------|


E|--------|--------|--------|--------|--------|--------|--------|--------|--------|
B|--------|--------|--------|--------|--------|--------|--------|--------|--------|
G|--------|--------|--------|--------|--------|--------|--------|--------|--------|
D|--------|--------|--------|--------|--------|--------|--------|--------|--------|
A|--------|--------|--------|--------|--------|--------|--------|--------|--------|
E|--------|--------|--------|--------|--------|--------|--------|--------|--------|


E|--------|--------|--------|--------|--------|--------|--------|--------|--------|
B|--------|--------|--------|--------|--------|--------|--------|--------|--------|
G|--------|--------|--------|--------|--------|--------|--------|--------|--------|
D|--------|--------|--------|--------|--------|--------|--------|--------|--------|
A|--------|--------|--------|--------|--------|--------|--------|--------|--------|
E|--------|--------|--------|--------|--------|--------|--------|--------|--------|


E|--------|--------|--------|--------|--------|--------|--------|--------|--------|
B|--------|--------|--------|--------|--------|--------|--------|--------|--------|
G|--------|--------|--------|--------|--------|--------|--------|--------|--------|
D|--------|--------|--------|--------|--------|--------|--------|--------|--------|
A|--------|--------|--------|--------|--------|--------|--------|--------|--------|
E|--------|--------|--------|--------|--------|--------|--------|--------|--------|


E|--------|--------|--------|--------|--------|--------|--------|--------|--------|
B|--------|--------|--------|--------|--------|--------|--------|--------|--------|
G|--------|--------|--------|--------|--------|--------|--------|--------|--------|
D|--------|--------|--------|--------|--------|--------|--------|--------|--------|
A|--------|--------|--------|--------|--------|--------|--------|--------|--------|
E|--------|--------|--------|--------|--------|--------|--------|--------|--------|


E|--------|--------|--------|--------|--------|--------|--------|--------|--------|
B|--------|--------|--------|--------|--------|--------|--------|--------|--------|
G|--------|--------|--------|--------|--------|--------|--------|--------|--------|
D|--------|--------|--------|--------|--------|--------|--------|--------|--------|
A|--------|--------|--------|--------|--------|--------|--------|--------|--------|
E|--------|--------|--------|--------|--------|--------|--------|--------|--------|


E|--------|--------|--------|--------|--------|--------|--------|--------|--------|
B|--------|--------|--------|--------|--------|--------|--------|--------|--------|
G|--------|--------|--------|--------|--------|--------|--------|--------|--------|
D|--------|--------|--------|--------|--------|--------|--------|--------|--------|
A|--------|--------|--------|--------|--------|--------|--------|--------|--------|
E|--------|--------|--------|--------|--------|--------|--------|--------|--------|


E|--------|--------|--------|--------|--------|--------|--------|--------|--------|
B|--------|--------|--------|--------|--------|--------|--------|--------|--------|
G|--------|--------|--------|--------|--------|--------|--------|--------|--------|
D|--------|--------|--------|--------|--------|--------|--------|--------|--------|
A|--------|--------|--------|--------|--------|--------|--------|--------|--------|
E|--------|--------|--------|--------|--------|--------|--------|--------|--------|


E|--------|--------|--------|--------|--------|--------|--------|--------|--------|
B|--------|--------|--------|--------|--------|--------|--------|--------|--------|
G|--------|--------|--------|--------|--------|--------|--------|--------|--------|
D|--------|--------|--------|--------|--------|--------|--------|--------|--------|
A|--------|--------|--------|--------|--------|--------|--------|--------|--------|
E|--------|--------|--------|--------|--------|--------|--------|--------|--------|


E|--------|--------|--------|--------|--------|--------|--------|--------|--------|
B|--------|--------|--------|--------|--------|--------|--------|--------|--------|
G|--------|--------|--------|--------|--------|--------|--------|--------|--------|
D|--------|--------|--------|--------|--------|--------|--------|--------|--------|
A|--------|--------|--------|--------|--------|--------|--------|--------|--------|
E|--------|--------|--------|--------|--------|--------|--------|--------|--------|


E|--------|--------|--------|--------|--------|--------|--------|--------|--------|
B|--------|--------|--------|--------|--------|--------|--------|--------|--------|
G|--------|--------|--------|--------|--------|--------|--------|--------|--------|
D|--------|--------|--------|--------|--------|--------|--------|--------|--------|
A|--------|--------|--------|--------|--------|--------|--------|--------|--------|
E|--------|--------|--------|--------|--------|--------|--------|--------|--------|


E|--------|--------|--------|--------|--------|--------|--------|--------|--------|
B|--------|--------|--------|--------|--------|--------|--------|--------|--------|
G|--------|--------|--------|--------|--------|--------|--------|--------|--------|
D|--------|--------|--------|--------|--------|--------|--------|--------|--------|
A|--------|--------|--------|--------|--------|--------|--------|--------|--------|
E|--------|--------|--------|--------|--------|--------|--------|--------|--------|


E|--------|--------|--------|--------|--------|--------|--------|--------|--------|
B|--------|--------|--------|--------|--------|--------|--------|--------|--------|
G|--------|--------|--------|--------|--------|--------|--------|--------|--------|
D|--------|--------|--------|--------|--------|--------|--------|--------|--------|
A|--------|--------|--------|--------|--------|--------|--------|--------|--------|
E|--------|--------|--------|--------|--------|--------|--------|--------|--------|


E|--------|--------|--------|--------|--------|--------|--------|--------|--------|
B|--------|--------|--------|--------|--------|--------|--------|--------|--------|
G|--------|--------|--------|--------|--------|--------|--------|--------|--------|
D|--------|--------|--------|--------|--------|--------|--------|--------|--------|
A|--------|--------|--------|--------|--------|--------|--------|--------|--------|
E|--------|--------|--------|--------|--------|--------|--------|--------|--------|


E|--------|--------|--------|--------|--------|--------|--------|--------|--------|
B|--------|--------|--------|--------|--------|--------|--------|--------|--------|
G|--------|--------|--------|--------|--------|--------|--------|--------|--------|
D|--------|--------|--------|--------|--------|--------|--------|--------|--------|
A|--------|--------|--------|--------|--------|--------|--------|--------|--------|
E|--------|--------|--------|--------|--------|--------|--------|--------|--------|


E|--------|--------|---------------------------|------------------------------|------------|
B|--------|--------|---------------------------|------------------------------|------------|
G|--------|--------|-9--------9--------9-------|-----9--------------------7---|-9----------|
D|--------|--------|-----9--------8--------7---|-7-------8----7---8---9-------|-9----------|
A|--------|--------|---------------------------|------------------------------|-7----------|
E|--------|--------|---------------------------|------------------------------|------------|





Track 4: Solo Gtr.

E|--------|--------|--------|--------|--------|--------|--------|--------|--------|
B|--------|--------|--------|--------|--------|--------|--------|--------|--------|
G|--------|--------|--------|--------|--------|--------|--------|--------|--------|
D|--------|--------|--------|--------|--------|--------|--------|--------|--------|
A|--------|--------|--------|--------|--------|--------|--------|--------|--------|
E|--------|--------|--------|--------|--------|--------|--------|--------|--------|


E|--------|--------|--------|--------|--------|--------|--------|--------|--------|
B|--------|--------|--------|--------|--------|--------|--------|--------|--------|
G|--------|--------|--------|--------|--------|--------|--------|--------|--------|
D|--------|--------|--------|--------|--------|--------|--------|--------|--------|
A|--------|--------|--------|--------|--------|--------|--------|--------|--------|
E|--------|--------|--------|--------|--------|--------|--------|--------|--------|


E|--------|--------|--------|--------|--------|--------|--------|--------|--------|
B|--------|--------|--------|--------|--------|--------|--------|--------|--------|
G|--------|--------|--------|--------|--------|--------|--------|--------|--------|
D|--------|--------|--------|--------|--------|--------|--------|--------|--------|
A|--------|--------|--------|--------|--------|--------|--------|--------|--------|
E|--------|--------|--------|--------|--------|--------|--------|--------|--------|


E|--------|--------|--------|--------|--------|--------|--------|--------|--------|
B|--------|--------|--------|--------|--------|--------|--------|--------|--------|
G|--------|--------|--------|--------|--------|--------|--------|--------|--------|
D|--------|--------|--------|--------|--------|--------|--------|--------|--------|
A|--------|--------|--------|--------|--------|--------|--------|--------|--------|
E|--------|--------|--------|--------|--------|--------|--------|--------|--------|


E|--------|--------|--------|--------|--------|--------|--------|--------|--------|
B|--------|--------|--------|--------|--------|--------|--------|--------|--------|
G|--------|--------|--------|--------|--------|--------|--------|--------|--------|
D|--------|--------|--------|--------|--------|--------|--------|--------|--------|
A|--------|--------|--------|--------|--------|--------|--------|--------|--------|
E|--------|--------|--------|--------|--------|--------|--------|--------|--------|


E|--------|--------|--------|--------|--------|--------|--------|--------|--------|
B|--------|--------|--------|--------|--------|--------|--------|--------|--------|
G|--------|--------|--------|--------|--------|--------|--------|--------|--------|
D|--------|--------|--------|--------|--------|--------|--------|--------|--------|
A|--------|--------|--------|--------|--------|--------|--------|--------|--------|
E|--------|--------|--------|--------|--------|--------|--------|--------|--------|


E|--------|--------|--------|--------|--------|--------|--------|--------|--------|
B|--------|--------|--------|--------|--------|--------|--------|--------|--------|
G|--------|--------|--------|--------|--------|--------|--------|--------|--------|
D|--------|--------|--------|--------|--------|--------|--------|--------|--------|
A|--------|--------|--------|--------|--------|--------|--------|--------|--------|
E|--------|--------|--------|--------|--------|--------|--------|--------|--------|


E|--------|--------|--------|--------|--------|--------|--------|--------|--------|
B|--------|--------|--------|--------|--------|--------|--------|--------|--------|
G|--------|--------|--------|--------|--------|--------|--------|--------|--------|
D|--------|--------|--------|--------|--------|--------|--------|--------|--------|
A|--------|--------|--------|--------|--------|--------|--------|--------|--------|
E|--------|--------|--------|--------|--------|--------|--------|--------|--------|


E|--------|--------|--------|--------|--------|--------|--------|--------|--------|
B|--------|--------|--------|--------|--------|--------|--------|--------|--------|
G|--------|--------|--------|--------|--------|--------|--------|--------|--------|
D|--------|--------|--------|--------|--------|--------|--------|--------|--------|
A|--------|--------|--------|--------|--------|--------|--------|--------|--------|
E|--------|--------|--------|--------|--------|--------|--------|--------|--------|


E|--------|--------|--------|--------|--------|--------|--------|--------|--------|
B|--------|--------|--------|--------|--------|--------|--------|--------|--------|
G|--------|--------|--------|--------|--------|--------|--------|--------|--------|
D|--------|--------|--------|--------|--------|--------|--------|--------|--------|
A|--------|--------|--------|--------|--------|--------|--------|--------|--------|
E|--------|--------|--------|--------|--------|--------|--------|--------|--------|


E|--------|--------|--------|--------|--------|--------|--------|--------|--------|
B|--------|--------|--------|--------|--------|--------|--------|--------|--------|
G|--------|--------|--------|--------|--------|--------|--------|--------|--------|
D|--------|--------|--------|--------|--------|--------|--------|--------|--------|
A|--------|--------|--------|--------|--------|--------|--------|--------|--------|
E|--------|--------|--------|--------|--------|--------|--------|--------|--------|


E|--------|--------|--------|--------|--------|--------|--------|--------|--------|
B|--------|--------|--------|--------|--------|--------|--------|--------|--------|
G|--------|--------|--------|--------|--------|--------|--------|--------|--------|
D|--------|--------|--------|--------|--------|--------|--------|--------|--------|
A|--------|--------|--------|--------|--------|--------|--------|--------|--------|
E|--------|--------|--------|--------|--------|--------|--------|--------|--------|


E|--------|--------|--------|--------|--------|--------|--------|--------|--------|
B|--------|--------|--------|--------|--------|--------|--------|--------|--------|
G|--------|--------|--------|--------|--------|--------|--------|--------|--------|
D|--------|--------|--------|--------|--------|--------|--------|--------|--------|
A|--------|--------|--------|--------|--------|--------|--------|--------|--------|
E|--------|--------|--------|--------|--------|--------|--------|--------|--------|


E|--------|--------|--------|--------|--------|--------|--------|--------|--------|
B|--------|--------|--------|--------|--------|--------|--------|--------|--------|
G|--------|--------|--------|--------|--------|--------|--------|--------|--------|
D|--------|--------|--------|--------|--------|--------|--------|--------|--------|
A|--------|--------|--------|--------|--------|--------|--------|--------|--------|
E|--------|--------|--------|--------|--------|--------|--------|--------|--------|


E|--------|--------|--------|--------|--------|--------|--------|--------|--------|
B|--------|--------|--------|--------|--------|--------|--------|--------|--------|
G|--------|--------|--------|--------|--------|--------|--------|--------|--------|
D|--------|--------|--------|--------|--------|--------|--------|--------|--------|
A|--------|--------|--------|--------|--------|--------|--------|--------|--------|
E|--------|--------|--------|--------|--------|--------|--------|--------|--------|


E|--------|--------|--------|--------|--------|--------|--------|--------|--------|
B|--------|--------|--------|--------|--------|--------|--------|--------|--------|
G|--------|--------|--------|--------|--------|--------|--------|--------|--------|
D|--------|--------|--------|--------|--------|--------|--------|--------|--------|
A|--------|--------|--------|--------|--------|--------|--------|--------|--------|
E|--------|--------|--------|--------|--------|--------|--------|--------|--------|


E|--------|--------|--------|--------|--------|--------|--------|--------|--------|
B|--------|--------|--------|--------|--------|--------|--------|--------|--------|
G|--------|--------|--------|--------|--------|--------|--------|--------|--------|
D|--------|--------|--------|--------|--------|--------|--------|--------|--------|
A|--------|--------|--------|--------|--------|--------|--------|--------|--------|
E|--------|--------|--------|--------|--------|--------|--------|--------|--------|


E|--------|--------|--------|--------|--------|--------|--------|--------|--------|
B|--------|--------|--------|--------|--------|--------|--------|--------|--------|
G|--------|--------|--------|--------|--------|--------|--------|--------|--------|
D|--------|--------|--------|--------|--------|--------|--------|--------|--------|
A|--------|--------|--------|--------|--------|--------|--------|--------|--------|
E|--------|--------|--------|--------|--------|--------|--------|--------|--------|


E|--------|--------10--8---|-8-----10----|-11----13----|-16----17----|-21--21----21--21-17---|
B|--------|--------10--8---|-8-----10----|-11----13----|-15----16----|-----------------------|
G|--------|----------------|-------------|-------------|-------------|-----------------------|
D|--------|----------------|-------------|-------------|-------------|-----------------------|
A|--------|----------------|-------------|-------------|-------------|-----------------------|
E|--------|----------------|-------------|-------------|-------------|-----------------------|


E|-23---17--22---17--23---|-17--22---17--20---17--15--|-17---17---17-----------|-------------|
B|------------------------|---------------------------|----------------16--17--|-17----17----|
G|------------------------|---------------------------|------------------------|-------------|
D|------------------------|---------------------------|------------------------|-------------|
A|------------------------|---------------------------|------------------------|-------------|
E|------------------------|---------------------------|------------------------|-------------|


E|-12-15-12--12--12--13--13--12-15-12--|-12--12--13--13--12-15-12--12--12--|-12---12----8---12--8---|
B|-------------------------------------|-----------------------------------|------------------------|
G|-------------------------------------|-----------------------------------|------------------------|
D|-------------------------------------|-----------------------------------|------------------------|
A|-------------------------------------|-----------------------------------|------------------------|
E|-------------------------------------|-----------------------------------|------------------------|


E|----------------21-17-|-17-15-17-15------19--15-13-15-13-----17-|-17-13-12-13-12-13-15---11-10-11-10--------|
B|-10----10--10---------|--------------17------------------17-----|------------------------------------13-16--|
G|----------------------|-----------------------------------------|-------------------------------------------|
D|----------------------|-----------------------------------------|-------------------------------------------|
A|----------------------|-----------------------------------------|-------------------------------------------|
E|----------------------|-----------------------------------------|-------------------------------------------|


E|-----------------------------|----------------------|--------------------------------|
B|-15-13-----------------------|------4-----4---5--12-|-12---5-------------------12-19-|
G|-------14-16-14----16--14----|-14-------------------|----------9---12--12--9---------|
D|----------------17-----------|----------------------|--------------------------------|
A|-----------------------------|----------------------|--------------------------------|
E|-----------------------------|----------------------|--------------------------------|


E|------------------------|-----------------|-------------------------|--------------------15-20-|
B|-19----19--19--12-------|-----------------|-------------------12-19-|-19--12---19---12---------|
G|--------------------5---|-5---5-----5-----|-5--5---5-----5----------|--------------------------|
D|------------------------|-----------------|-------------------------|--------------------------|
A|------------------------|-----------------|-------------------------|--------------------------|
E|------------------------|-----------------|-------------------------|--------------------------|


E|-20---11--15-20-20---11-------|-----------------|----------------------5---|-5----5-----7---7----7-----8---|
B|--------------------------3---|-3---3-----3-----|-3--3---3-----3----3--8---|-8----8-----10--10---10----11--|
G|------------------------------|-----------------|--------------------------|-------------------------------|
D|------------------------------|-----------------|--------------------------|-------------------------------|
A|------------------------------|-----------------|--------------------------|-------------------------------|
E|------------------------------|-----------------|--------------------------|-------------------------------|


E|-8----8-----10--10---10----7---|-7----7-----8---8----8-----10--|-10---10----11--11----11--|
B|-11---11----13--13---13----10--|-10---10----11--11---11----13--|-13---13----14--14----14--|
G|-------------------------------|-------------------------------|--------------------------|
D|-------------------------------|-------------------------------|--------------------------|
A|-------------------------------|-------------------------------|--------------------------|
E|-------------------------------|-------------------------------|--------------------------|


E|-11---------|--------|--------|--------|--------|--------|--------|--------|--------|
B|-14---------|--------|--------|--------|--------|--------|--------|--------|--------|
G|------------|--------|--------|--------|--------|--------|--------|--------|--------|
D|------------|--------|--------|--------|--------|--------|--------|--------|--------|
A|------------|--------|--------|--------|--------|--------|--------|--------|--------|
E|------------|--------|--------|--------|--------|--------|--------|--------|--------|


E|--------|--------|--------|--------|--------|--------|--------|--------|--------|
B|--------|--------|--------|--------|--------|--------|--------|--------|--------|
G|--------|--------|--------|--------|--------|--------|--------|--------|--------|
D|--------|--------|--------|--------|--------|--------|--------|--------|--------|
A|--------|--------|--------|--------|--------|--------|--------|--------|--------|
E|--------|--------|--------|--------|--------|--------|--------|--------|--------|


E|--------|--------|--------|--------|--------|--------|--------|--------|--------|
B|--------|--------|--------|--------|--------|--------|--------|--------|--------|
G|--------|--------|--------|--------|--------|--------|--------|--------|--------|
D|--------|--------|--------|--------|--------|--------|--------|--------|--------|
A|--------|--------|--------|--------|--------|--------|--------|--------|--------|
E|--------|--------|--------|--------|--------|--------|--------|--------|--------|





Track 5: Bass

G|-----------------------|---------------------------------|---------------------------------|
D|-----------------------|---------------------------------|---------------------------------|
A|-----------------------|---------------------------------|---------------------------------|
E|-------0---0---0---0---|-0---0---0---0---0---0---0---0---|-0---0---0---0---0---0---0---0---|


G|---------------------------------|---------------------------------|---------------------------------|
D|---------------------------------|---------------------------------|---------------------------------|
A|-----------------------------7---|-----7-------7-------------------|---------------------------------|
E|-0---0---0---0---0---0---0-------|-0-------0-------0---6---7---0---|-6---7---0---0---0---0---0---0---|


G|---------------------------------|---------------------------------|---------------------------------|
D|---------------------------------|---------------------------------|---------------------------------|
A|---------------------------------|-----------------------------1---|---------------------------------|
E|-0---0---0---0---0---6---7---0---|-8---7---0---0---0---0---0-------|-----3-------1---0---6---7---0---|


G|---------------------------------|---------------------------------|---------------------------------|
D|---------------------------------|---------------------------------|---------------------------------|
A|---------------------------------|---------------------------------|---------------------------------|
E|-6---7---0---0---0---0---0---0---|-0---0---0---0---0---6---7---0---|-8---7---0---0---0---0---0---0---|


G|------------------------------|---------------------------------|------------------------------|
D|------------------------------|---------------------------------|------------------------------|
A|------------------------------|---------------------------------|-0---3------------------------|
E|-0----0---0---0---2-------2---|-----2-------2-------2---2---2---|---------4----0---2-------2---|


G|---------------------------------|------------------------------|---------------------------------|
D|---------------------------------|------------------------------|---------------------------------|
A|---------------------------------|-0---3------------------------|---------------------------------|
E|-----2-------2-------2---2---2---|---------4----0---2-------2---|-----2-------2-------2---2---2---|


G|------------------------------|---------------------------------|------------------------------|
D|------------------------------|---------------------------------|------------------------------|
A|-0---3------------------------|---------------------------------|-0---3--------2---2---2---2---|
E|---------4----0---2-------2---|-----2-------2-------2---2---2---|---------4--------------------|


G|-----------------2--2--4---4-------|---------------------------------|-----------------2--2--4---4-------|
D|-------------------------------2---|-4---0---2-----------------------|-------------------------------2---|
A|-2---2---2---2---------------------|-------------0---2---2---2---2---|-2---2---2---2---------------------|
E|-----------------------------------|---------------------------------|-----------------------------------|


G|---------------------------------|---------------------------------|---------------------------------|
D|-4---0---2-----------------------|---------------------------------|---------------------------------|
A|-------------0-------------------|---------------------------------|---------------------------------|
E|-----------------2---2---2---2---|-2---2---2---2---5---4---5---4---|-5---4---2---0---2---2---2---2---|


G|---------------------------------|---------------------------------|-----------------2--2--4---4-------|
D|---------------------------------|---------------------------------|-------------------------------2---|
A|---------------------------------|-----------------2---2---2---2---|-2---2---2---2---------------------|
E|-2---2---2---2---5---4---5---4---|-5---4---2---0-------------------|-----------------------------------|


G|---------------------------------|-----------------2--2--4---4-------|---------------------------|
D|-4---2---0-----------------------|-------------------------------2---|-4---2---0-----------------|
A|-------------0---2---2---2---2---|-2---2---2---2---------------------|-------------0---4----4----|
E|---------------------------------|-----------------------------------|---------------------------|


G|-----------------------------------------|-----------------------------------------|
D|-----------------------------------------|---------------------11--11-11-11-11-11--|
A|-4---4--4--4---4--4--4---4--4--4---4--4--|-4---4--4--4---4--4----------------------|
E|-----------------------------------------|-----------------------------------------|


G|---------------------------------------------|----------------------------------|
D|-11-11-11-11-11--11-11-11-11-11--11-11-11-11-|-11--11-11-11--11-11--------------|
A|---------------------------------------------|----------------------------------|
E|---------------------------------------------|---------------------0------------|


G|-------------|-------------|-------------|------------------------------|-------------|
D|-------------|-------------|-------------|------------------------------|-------------|
A|-------------|-------------|-------------|------------------------------|-------------|
E|-------------|-------------|-------------|-0---0---0---0---0------------|-------------|


G|-------------|-----------------|-----------------------|---------------------------------|
D|-------------|-----------------|-----------------------|---------------------------------|
A|-------------|-----------------|-----------------------|-1-------------------3-----------|
E|-------------|------------0----|-12----0---0---3---0---|-----0---0---5---0-------0---0---|


G|-----------------------------------|---------------------------------|-----------------------------------|
D|-----------------------------------|---------------------------------|-----------------------------------|
A|-1-------6--6--5-------------------|-1-------------------3-----------|-1-------6--6--5-------------------|
E|-----0-------------0---0---3---0---|-----0---0---5---0-------0---0---|-----0-------------0---0---3---0---|


G|---------------------------------|---------------------------------|-------------------------------|
D|---------------------------------|---------------------------------|-------------------------------|
A|-1-------------------3-----------|-1-------6--6--5---1---------1---|-2---------2---1---------------|
E|-----0---0---5---0-------0---0---|-----0---------------------------|-------------------------------|


G|---------------------------|---------------------------------|---------------------------------|
D|---------------------------|---------------------------------|---------------------------------|
A|---------------------------|---------------------------------|---------------------------------|
E|-----3-----0---0---0---0---|-0---0---0---0---0---0---0---0---|-0---0---0---0---2---4---4---4---|


G|---------------------------------|------------------------------|---------------------------------|
D|---------------------------------|------------------------------|---------------------------------|
A|---------------------------------|------------------------------|---------------------------------|
E|-4---4---4---4---4---4---4---4---|-4---4---4----0---0---0---0---|-0---0---0---0---0---0---0---0---|


G|---------------------------------|---------------------------------|---------------------------------|
D|---------------------------------|---------------------------------|---------------------------------|
A|-----------------1----1--1---1---|-2----2--2---2---1----1--1---1---|-2----2--2---2-------------------|
E|-0---0---0---0-------------------|---------------------------------|-----------------0---0---0---0---|


G|---------------------------------|---------------------------------|---------------------------------|
D|---------------------------------|---------------------------------|---------------------------------|
A|---------------------------------|---------------------------------|---------------------------------|
E|-0---0---0---0---0---0---0---0---|-0---0---0---0---2---4---4---4---|-4---4---4---4---4---4---4---4---|


G|------------------------------|---------------------------------|-------------------------------|
D|------------------------------|---------------------------------|-------------------------------|
A|------------------------------|---------------------------------|-----------------1---------1---|
E|-4---4---4----0---0---0---0---|-0---0---0---0---0---0---0---0---|-0---0---0---0-----------------|


G|----------------------------|---------------------------|---------------------------------|
D|----------------------------|---------------------------|---------------------------------|
A|-2---------2---1------------|---------------------------|-1-------------------3-----------|
E|----------------------------|------6----0---0---3---0---|-----0---0---5---0-------0---0---|


G|-----------------------------------|---------------------------------|-----------------------------------|
D|-----------------------------------|---------------------------------|-----------------------------------|
A|-1-------6--6--5-------------------|-1-------------------3-----------|-----------------------------------|
E|-----0-------------0---0---3---0---|-----0---0---5---0-------0---0---|-6--6--5---4---4---0---0---3---0---|


G|---------------------------------|-----------------------------------|---------------------------------|
D|---------------------------------|-----------------------------------|---------------------------------|
A|-1-------------------3-----------|-1-------6--6--5-------------------|-1-------------------3-----------|
E|-----0---0---5---0-------0---0---|-----0-------------0---0---3---0---|-----0---0---5---0-------0---6---|


G|----------------------------------|--------|--------|---------------------------------|
D|----------------------------------|-4------|-4------|---------------------------------|
A|----------------------------------|-2------|-2------|---------------------------------|
E|-6--5---5--5--4---4--4------------|--------|--------|-0---0---0---0---0---0---0---0---|


G|---------------------------------|---------------------------------|------------------------------|
D|---------------------------------|---------------------------------|------------------------------|
A|---------------------------------|---------------------------------|------------------------------|
E|-0---0---0---0---0---0---0---0---|-2---4---4---4---4---4---4---4---|-4---4---4---4---4---4---4----|


G|---------------------------------|---------------------------------|---------------------------------|
D|---------------------------------|---------------------------------|---------------------------------|
A|---------------------------------|---------------------------------|-1----1--1---1---2----2--2---2---|
E|-0---0---0---0---0---0---0---0---|-0---0---0---0---0---0---0---0---|---------------------------------|


G|---------------------------------|---------------------------------|---------------------------------|
D|---------------------------------|---------------------------------|---------------------------------|
A|-1----1--1---1---2----2--2---2---|---------------------------------|---------------------------------|
E|---------------------------------|-0---0---0---0---0---0---0---0---|-0---0---0---0---0---0---0---0---|


G|---------------------------------|------------------------------|---------------------------------|
D|---------------------------------|------------------------------|---------------------------------|
A|---------------------------------|------------------------------|---------------------------------|
E|-2---4---4---4---4---4---4---4---|-4---4---4---4---4---4---4----|-0---0---0---0---0---0---0---0---|


G|---------------------------------|-----------------------------|--------------------|
D|---------------------------------|-----------------------------|--------------------|
A|---------------------------------|-1---------1---2---------2---|-1------------------|
E|-0---0---0---0---0---0---0---0---|-----------------------------|---------------6----|


G|---------------------------------|-----------------------------------|---------------------------------|
D|---------------------------------|-----------------------------------|---------------------------------|
A|-----------------1---------------|-----3-----------1-------6--6--5---|-----------------1---------------|
E|-0---0---3---0-------0---0---5---|-0-------0---0-------0-------------|-0---0---3---0-------0---0---5---|


G|-----------------------------------|---------------------------------|-----------------------------------|
D|-----------------------------------|---------------------------------|-----------------------------------|
A|-----3-----------------------------|-----------------1---------------|-----3-----------1-------6--6--5---|
E|-0-------0---0---6--6--5---4---4---|-0---0---3---0-------0---0---5---|-0-------0---0-------0-------------|


G|---------------------------------|-------------------------------------|---------------------------------|
D|---------------------------------|-------------------------------------|---------------------------------|
A|-----------------1---------------|-----3-------------------------------|-----------------1---------------|
E|-0---0---3---0-------0---0---5---|-0-------0---6---6--5---5--5--4---4--|-0---0---3---0-------0---0---5---|


G|-----------------------------------|---------------------------------|-------------------------------------|
D|-----------------------------------|---------------------------------|-------------------------------------|
A|-----3-----------1-------6--6--5---|-----------------1---------------|-----3-------------------------------|
E|-0-------0---0-------0-------------|-0---0---3---0-------0---0---5---|-0-------0---6---6--5---5--5--4---4--|


G|---------------------------------|-----------------------------------|---------------------------------|
D|---------------------------------|-----------------------------------|---------------------------------|
A|-----------------1---------------|-----3-----------1-------6--6--5---|-----------------1---------------|
E|-0---0---3---0-------0---0---5---|-0-------0---0-------0-------------|-0---0---3---0-------0---0---5---|


G|-------------------------------------|---------------------------|------------------------------|
D|-------------------------------------|---------------------------|------------------------------|
A|-----3-------------------------------|-7--------7--------7-------|-----7--------------------5---|
E|-0-------0---6---6--5---5--5--4---4--|-----7--------6--------5---|-5-------6----5---6---7-------|


G|-----------------|--------|---------------------------|------------------------------|
D|-----------------|--------|---------------------------|------------------------------|
A|-7---------------|--------|-7--------7--------7-------|-----7--------------------5---|
E|-----------------|--------|-----7--------6--------5---|-5-------6----5---6---7-------|


G|---------------------------|------------------------------|---------------------------------------|
D|---------------------------|------------------------------|---------------------------------------|
A|-7--------7--------7-------|-----7--------------------5---|-7--7--6-------7--7--6-------7--7--6---|
E|-----7--------6--------5---|-5-------6----5---6---7-------|-----------0-------------0-------------|


G|---------------------|---------------------------------------|---------------------------------|
D|---------------------|---------------------------------------|---------------------------------|
A|-6----6----6----6----|-7--7--6-------7--7--6-------6--6--5---|-5---5---5---5---5---5---5---5---|
E|---------------------|-----------0-------------0-------------|---------------------------------|


G|---------------------------------------|---------------------------------|---------------------------------------|
D|---------------------------------------|---------------------------------|---------------------------------------|
A|-7--7--6-------7--7--6-------7--7--6---|-6---6---6---6---6---6---6---6---|-7--7--6-------7--7--6-------6--6--5---|
E|-----------0-------------0-------------|---------------------------------|-----------0-------------0-------------|


G|---------------------|---------------------------|------------------------------|
D|---------------------|---------------------------|------------------------------|
A|-5----5----5----5----|-7--------7--------7-------|-----7--------------------5---|
E|---------------------|-----7--------6--------5---|-5-------6----5---6---7-------|


G|---------------------------------------|---------------------|---------------------------------------|
D|---------------------------------------|---------------------|---------------------------------------|
A|-7--7--6-------7--7--6-------7--7--6---|-6----6----6----6----|-7--7--6-------7--7--6-------6--6--5---|
E|-----------0-------------0-------------|---------------------|-----------0-------------0-------------|


G|---------------------------------|---------------------------------------|---------------------------------|
D|---------------------------------|---------------------------------------|---------------------------------|
A|-5---5---5---5---5---5---5---5---|-7--7--6-------7--7--6-------7--7--6---|-6---6---6---6---6---6---6---6---|
E|---------------------------------|-----------0-------------0-------------|---------------------------------|


G|---------------------------------------|---------------------|--------------------|
D|---------------------------------------|---------------------|--------------------|
A|-7--7--6-------7--7--6-------6--6--5---|-5----5----5----5----|--------------------|
E|-----------0-------------0-------------|---------------------|-6--------------0---|


G|------------------------------|---------------------------------|------------------------------|
D|------------------------------|---------------------------------|------------------------------|
A|------------------------------|-------------------------1-------|------------------------------|
E|-0----0---0---0---0---0---0---|-6---5-------6---5-----------1---|-1----1---1---1---1---1---1---|


G|-----------------------------------|------------------------------|------------------------------|
D|-----------------------------------|------------------------------|------------------------------|
A|-----------------------------------|------------------------------|------------------------------|
E|-1---0-------1---0-------1--1--3---|-3----3---3---3---3---3---2---|-2---2---2---1----1---1---1---|


G|---------------------------------|------------------------------|---------------------------------|
D|---------------------------------|------------------------------|---------------------------------|
A|-------------------------1-------|------------------------------|-------------------------1-------|
E|-6---5-------6---5-----------0---|-0----0---0---0---0---0---0---|-6---5-------6---5-----------1---|


G|------------------------------|-----------------------------------|------------------------------|
D|------------------------------|-----------------------------------|------------------------------|
A|------------------------------|-----------------------------------|------------------------------|
E|-1----1---1---1---1---1---1---|-1---0-------1---0-------1--1--3---|-3----3---3---3---3---3---2---|


G|------------------------------|--------------------|--------|--------|--------|--------|
D|------------------------------|--------------------|--------|--------|--------|--------|
A|------------------------------|--------------------|--------|--------|--------|--------|
E|-2---2---2---1----1---1---1---|-4------------------|--------|--------|--------|--------|


G|-----------------------------------|-------------------------------------|-----------------------------------|
D|-----------------------------------|-------------------------------------|-----------------------------------|
A|-----------------------------------|-------------------------------------|-----------------------------------|
E|-4---4---4---4--4--5---4---4---4---|-4---4--4--5---0---2---2---2--2--4---|-4---4---4---4--4--5---4---4---4---|


G|-----------------------------------|-----------------------------------|--------------------------------|
D|-----------------------------------|-----------------------------------|--------------------------------|
A|-----------------------------------|-----------------------------------|--------------------------------|
E|-4---4--4--5---0---0---0---2---3---|-4---4---4---4--4--5---4---4---4---|-4---4--4--5---0---2---2---2----|


G|---------------------------------|---------------------------------|------------------------------|
D|---------------------------------|---------------------------------|------------------------------|
A|---------------------------------|-----6---6---6---5-------4---3---|-3---3---3---3----3---3---3---|
E|-2---2---2---1---1---1---0---0---|-0-------------------------------|------------------------------|


G|--------------------------------|--------------------------------|------------------------------|
D|--------------------------------|--------------------------------|------------------------------|
A|-3---3---3---3----3---3---------|--------------------------------|--------------------------0---|
E|--------------------------3--3--|-5---5---5---5----5---5---3--3--|-5---5---5----5---5---5-------|


G|---------------------------------|-----------------------------------|---------------------------------|
D|---------------------------------|-----------------------------------|-----------------------------5---|
A|-3---3---3---3---3---3---3---3---|-3---3---3---3---3---5---3---------|---------------------------------|
E|---------------------------------|-----------------------------3--3--|-5---5---5---5---5---5---5-------|


G|------------------------------|---------------------------------|-----------------------------------|
D|-5---7------------------------|---------------------------------|-----------------------------------|
A|------------------------------|-3---3---3---3---3---3---3---3---|-3---3---3---3---3---3---3---------|
E|---------5----5---5---5---5---|---------------------------------|-----------------------------3--3--|


G|--------------------------------|------------------------------|------------------------------|
D|--------------------------------|------------------------------|------------------------------|
A|--------------------------------|------------------3-------5---|-5---5---5--------------------|
E|-5---5---5---5----5---5---3--3--|-5---5---5----5-------5-------|-------------0----0---0---1---|


G|--------------------------------|--------------------------------|------------------------------|
D|--------------------------------|--------------------------------|------------------------------|
A|--------------------------------|--------------------------------|------------------3-------5---|
E|-1---1---1---3----3---3---3--3--|-5---5---5---5----5---5---3--3--|-5---5---5----5-------5-------|


G|------------------------------|--------------------------------|--------------------------------|
D|------------------------------|--------------------------------|--------------5---7-------------|
A|-5---5---5--------------------|--------------------------------|--------------------------------|
E|-------------0----0---0---1---|-1---1---1---3----3---3---3--3--|-5---5---5------------5---3--3--|


G|------------------------------|------------------------------|--------------------------------|
D|--------------5---7-----------|-------------2----2---2---3---|-3---3---3---5----5---5---5--5--|
A|--------------------------5---|-5---5---5--------------------|--------------------------------|
E|-5---5---5------------5-------|------------------------------|--------------------------------|


G|--------------------------------|---------------------------------|------------------------------|
D|-7------------------------------|---------------------------------|------------------------------|
A|--------------------------------|---------------------3-------5---|-5---5---5--------------------|
E|-----5---5----5---5---5---3--3--|-5---5---5---5---5-------5-------|-------------0----0---0---1---|


G|------------------------------|------------------------------|---------------------------|
D|------------------------------|------------------------------|---------------------------|
A|--------------------------2---|-2---2---2---3----3---3---5---|-5---5---5---6----6--------|
E|-1---1---1---3----3---3-------|------------------------------|---------------------------|


G|---------------------|---------------------|---------------------|-----------------|
D|---------------------|---------------------|---------------------|-----------------|
A|---------------------|---------------------|---------------------|-----------------|
E|-0---------0---------|-0---------0---------|-0---------0---------|-0---------11----|


G|---------------------------------|-----------------------------------|---------------------------------|
D|---------------------------------|-----------------------------------|---------------------------------|
A|-----------------1---------------|-----3-----------1-------6--6--5---|-----------------1---------------|
E|-0---0---3---0-------0---0---5---|-0-------0---0-------0-------------|-0---0---3---0-------0---0---5---|


G|-------------------------------------|---------------------------------|-----------------------------------|
D|-------------------------------------|---------------------------------|-----------------------------------|
A|-----3-------------------------------|-----------------1---------------|-----3-----------1-------6--6--5---|
E|-0-------0---6---6--5---5--5--4---4--|-0---0---3---0-------0---0---5---|-0-------0---0-------0-------------|


G|---------------------------------|-------------------------------------|---------------------------------|
D|---------------------------------|-------------------------------------|---------------------------------|
A|-----------------1---------------|-----3-------------------------------|-----------------1---------------|
E|-0---0---3---0-------0---0---5---|-0-------0---6---6--5---5--5--4---4--|-0---0---3---0-------0---0---5---|


G|-----------------------------------|---------------------------------|-------------------------------------|
D|-----------------------------------|---------------------------------|-------------------------------------|
A|-----3-----------1-------6--6--5---|-----------------1---------------|-----3-------------------------------|
E|-0-------0---0-------0-------------|-0---0---3---0-------0---0---5---|-0-------0---6---6--5---5--5--4---4--|


G|---------------------------------|-----------------------------------|---------------------------------|
D|---------------------------------|-----------------------------------|---------------------------------|
A|-----------------1---------------|-----3-----------1-------6--6--5---|-----------------1---------------|
E|-0---0---3---0-------0---0---5---|-0-------0---0-------0-------------|-0---0---3---0-------0---0---5---|


G|-------------------------------------|---------------------------|------------------------------|
D|-------------------------------------|---------------------------|------------------------------|
A|-----3-------------------------------|-7--------7--------7-------|-----7--------------------5---|
E|-0-------0---6---6--5---5--5--4---4--|-----7--------6--------5---|-5-------6----5---6---7-------|


G|---------------------------|------------------------------|---------------------------|
D|---------------------------|------------------------------|---------------------------|
A|-7--------7--------7-------|-----7--------------------5---|-7--------7--------7-------|
E|-----7--------6--------5---|-5-------6----5---6---7-------|-----7--------6--------5---|


G|------------------------------|------------|
D|------------------------------|------------|
A|-----7--------------------5---|-7----------|
E|-5-------6----5---6---7-------|-0----------|