Menu:

 

Search:

 

pantera - shedding skin:

 



Title: Shedding Skin
Artist: 
Album: Far Beyond Driven
Author: Vincent Paul Abbott, Darrell Lance Abbott, Rex Robert Brown & Phillp Anselmo


Track 1: Distortion (L)

E|-----------------------------------------------------|-------------------------------------------------------|
B|-----------------------------------------------------|-------------------------------------------------------|
G|-----------------------------------------------------|-------------------------------------------------------|
D|--------------2-2-----------------------2-2----------|--------------2-2--------------------------------------|
A|--------2--3------3--2------------2--3------3--2-----|--------2--3------3--2-----2-2----2-2----1-1-----------|
E|-0-0-3------------------3--0-0-3------------------3--|-0-0-3------------------3------3------3------2--5-5-1--|


E|-----------------------------------------------------|-------------------------------------------------------|
B|-----------------------------------------------------|-------------------------------------------------------|
G|-----------------------------------------------------|-------------------------------------------------------|
D|--------------2-2-----------------------2-2----------|--------------2-2--------------------------------------|
A|--------2--3------3--2------------2--3------3--2-----|--------2--3------3--2-----2-2----2-2----1-1-----------|
E|-0-0-3------------------3--0-0-3------------------3--|-0-0-3------------------3------3------3------2--5-5-1--|


E|-----------------------------------------------------|-------------------------------------------------------|
B|-----------------------------------------------------|-------------------------------------------------------|
G|-----------------------------------------------------|-------------------------------------------------------|
D|--------------2-2-----------------------2-2----------|--------------2-2--------------------------------------|
A|--------2--3------3--2------------2--3------3--2-----|--------2--3------3--2-----2-2----2-2----1-1-----------|
E|-0-0-3------------------3--0-0-3------------------3--|-0-0-3------------------3------3------3------2--5-5-1--|


E|-----------------------------------------------------|-------------------------------------------------------|
B|-----------------------------------------------------|-------------------------------------------------------|
G|-----------------------------------------------------|-------------------------------------------------------|
D|--------------2-2-----------------------2-2----------|--------------2-2--------------------------------------|
A|--------2--3------3--2------------2--3------3--2-----|--------2--3------3--2-----2-2----2-2----1-1-----------|
E|-0-0-3------------------3--0-0-3------------------3--|-0-0-3------------------3------3------3------2--5-5-1--|


E|---------------------|--------------------|------------------|---------------------|
B|---------------------|--------------------|------------------|---------------------|
G|---------------------|--------------------|------------------|---------------------|
D|-5----5----5----5----|-5------------------|-5------5--1---5--|-4-----4----4-4-4----|
A|-7----7----7----7----|-7-----7----7--7----|-7------7--1---10-|-6-------------------|
E|---------------------|--------------------|------------------|---------------------|


E|--------|--------|--------|--------------------|-------------------------------------------|
B|--------|--------|--------|--------------------|-------------------------------------------|
G|--------|--------|--------|--------------------|-------------------------------------------|
D|-4------|--------|--------|-------4----4----4--|-------------------------------------------|
A|--------|--------|--------|-------6----6----6--|-------------------------------------------|
E|--------|--------|--------|--------------------|-0--0--0--0--0--0--0---0--0--3--5--0-------|


E|-------------------------------------------|-------------------------------------------|
B|-------------------------------------------|-------------------------------------------|
G|-------------------------------------------|-------------------------------------------|
D|-------------------------------------------|-------------------------------------------|
A|-------------------------------------------|---------------------------------------2---|
E|-0--0--0--0--0--0--0---0--0--3--5--0-------|-0--0--0--0--0--0--0---0--0--3--5--0-------|


E|---------------------------------|-------------------------------------------|-------------------------------------------|
B|---------------------------------|-------------------------------------------|-------------------------------------------|
G|---------------------------------|-------------------------------------------|-------------------------------------------|
D|---------------------------------|-------------------------------------------|-------------------------------------------|
A|-2---2---2---2---2---------------|-------------------------------------------|-------------------------------------------|
E|---------------------3---0-------|-0--0--0--0--0--0--0---0--0--3--5--0-------|-0--0--0--0--0--0--0---0--0--3--5--0-------|


E|-------------------------------------------|---------------------------------|-------------------------------------------|
B|-------------------------------------------|---------------------------------|-------------------------------------------|
G|-------------------------------------------|---------------------------------|-------------------------------------------|
D|-------------------------------------------|---------------------------------|-------------------------------------------|
A|---------------------------------------2---|-2---2---2---2---2---------------|-------------------------------------------|
E|-0--0--0--0--0--0--0---0--0--3--5--0-------|---------------------3---0-------|-0--0--0--0--0--0--0---0--0--3--5--0-------|


E|-------------------------------------------|-------------------------------------------|
B|-------------------------------------------|-------------------------------------------|
G|-------------------------------------------|-------------------------------------------|
D|-------------------------------------------|-------------------------------------------|
A|-------------------------------------------|---------------------------------------2---|
E|-0--0--0--0--0--0--0---0--0--3--5--0-------|-0--0--0--0--0--0--0---0--0--3--5--0-------|


E|---------------------------------|-------------------------------------------|-------------------------------------------|
B|---------------------------------|-------------------------------------------|-------------------------------------------|
G|---------------------------------|-------------------------------------------|-------------------------------------------|
D|---------------------------------|-------------------------------------------|-------------------------------------------|
A|-2---2---2---2---2---------------|-------------------------------------------|-------------------------------------------|
E|---------------------3---0-------|-0--0--0--0--0--0--0---0--0--3--5--0-------|-0--0--0--0--0--0--0---0--0--3--5--0-------|


E|-------------------------------------------|---------------------------|--------|
B|-------------------------------------------|---------------------------|--------|
G|-------------------------------------------|---------------------------|--------|
D|-------------------------------------------|---------------------------|--------|
A|---------------------------------------2---|-2---2---2---2---2---------|--------|
E|-0--0--0--0--0--0--0---0--0--3--5--0-------|---------------------1-----|--------|


E|-----------------------------------------------------|-------------------------------------------------------|
B|-----------------------------------------------------|-------------------------------------------------------|
G|-----------------------------------------------------|-------------------------------------------------------|
D|--------------2-2-----------------------2-2----------|--------------2-2--------------------------------------|
A|--------2--3------3--2------------2--3------3--2-----|--------2--3------3--2-----2-2----2-2----1-1-----------|
E|---0-3------------------3--0-0-3------------------3--|-0-0-3------------------3------3------3------2--5-5-1--|


E|-----------------------------------------------------|-------------------------------------------------------|
B|-----------------------------------------------------|-------------------------------------------------------|
G|-----------------------------------------------------|-------------------------------------------------------|
D|--------------2-2-----------------------2-2----------|--------------2-2--------------------------------------|
A|--------2--3------3--2------------2--3------3--2-----|--------2--3------3--2-----2-2----2-2----1-1-----------|
E|-0-0-3------------------3--0-0-3------------------3--|-0-0-3------------------3------3------3------2--5-5-1--|


E|-----------------------------------------------------|-------------------------------------------------------|
B|-----------------------------------------------------|-------------------------------------------------------|
G|-----------------------------------------------------|-------------------------------------------------------|
D|--------------2-2-----------------------2-2----------|--------------2-2--------------------------------------|
A|--------2--3------3--2------------2--3------3--2-----|--------2--3------3--2-----2-2----2-2----1-1-----------|
E|-0-0-3------------------3--0-0-3------------------3--|-0-0-3------------------3------3------3------2--5-5-1--|


E|-----------------------------------------------------|-------------------------------------------------------|
B|-----------------------------------------------------|-------------------------------------------------------|
G|-----------------------------------------------------|-------------------------------------------------------|
D|--------------2-2-----------------------2-2----------|--------------2-2--------------------------------------|
A|--------2--3------3--2------------2--3------3--2-----|--------2--3------3--2-----2-2----2-2----1-1-----------|
E|-0-0-3------------------3--0-0-3------------------3--|-0-0-3------------------3------3------3------2--5-5-1--|


E|---------------------|--------------------|------------------|---------------------|
B|---------------------|--------------------|------------------|---------------------|
G|---------------------|--------------------|------------------|---------------------|
D|-5----5----5----5----|-5------------------|-5------5--1---5--|-4-----4----4-4-4----|
A|-7----7----7----7----|-7-----7----7--7----|-7------7--1---10-|-6-------------------|
E|---------------------|--------------------|------------------|---------------------|


E|--------|--------|--------|--------------------|-------------------------------------------|
B|--------|--------|--------|--------------------|-------------------------------------------|
G|--------|--------|--------|--------------------|-------------------------------------------|
D|-4------|--------|--------|-------4----4----4--|-------------------------------------------|
A|--------|--------|--------|-------6----6----6--|-------------------------------------------|
E|--------|--------|--------|--------------------|-0--0--0--0--0--0--0---0--0--3--5--0-------|


E|-------------------------------------------|-------------------------------------------|
B|-------------------------------------------|-------------------------------------------|
G|-------------------------------------------|-------------------------------------------|
D|-------------------------------------------|-------------------------------------------|
A|-------------------------------------------|---------------------------------------2---|
E|-0--0--0--0--0--0--0---0--0--3--5--0-------|-0--0--0--0--0--0--0---0--0--3--5--0-------|


E|---------------------------------|-------------------------------------------|-------------------------------------------|
B|---------------------------------|-------------------------------------------|-------------------------------------------|
G|---------------------------------|-------------------------------------------|-------------------------------------------|
D|---------------------------------|-------------------------------------------|-------------------------------------------|
A|-2---2---2---2---2---------------|-------------------------------------------|-------------------------------------------|
E|---------------------3---0-------|-0--0--0--0--0--0--0---0--0--3--5--0-------|-0--0--0--0--0--0--0---0--0--3--5--0-------|


E|-------------------------------------------|---------------------------------|-------------------------------------------|
B|-------------------------------------------|---------------------------------|-------------------------------------------|
G|-------------------------------------------|---------------------------------|-------------------------------------------|
D|-------------------------------------------|---------------------------------|-------------------------------------------|
A|---------------------------------------2---|-2---2---2---2---2---------------|-------------------------------------------|
E|-0--0--0--0--0--0--0---0--0--3--5--0-------|---------------------3---0-------|-0--0--0--0--0--0--0---0--0--3--5--0-------|


E|-------------------------------------------|-------------------------------------------|
B|-------------------------------------------|-------------------------------------------|
G|-------------------------------------------|-------------------------------------------|
D|-------------------------------------------|-------------------------------------------|
A|-------------------------------------------|---------------------------------------2---|
E|-0--0--0--0--0--0--0---0--0--3--5--0-------|-0--0--0--0--0--0--0---0--0--3--5--0-------|


E|---------------------------------|-------------------------------------------|-------------------------------------------|
B|---------------------------------|-------------------------------------------|-------------------------------------------|
G|---------------------------------|-------------------------------------------|-------------------------------------------|
D|---------------------------------|-------------------------------------------|-------------------------------------------|
A|-2---2---2---2---2---------------|-------------------------------------------|-------------------------------------------|
E|---------------------3---0-------|-0--0--0--0--0--0--0---0--0--3--5--0-------|-0--0--0--0--0--0--0---0--0--3--5--0-------|


E|-------------------------------------------|---------------------------|--------|
B|-------------------------------------------|---------------------------|--------|
G|-------------------------------------------|---------------------------|--------|
D|-------------------------------------------|---------------------------|--------|
A|---------------------------------------2---|-2---2---2---2---2---------|--------|
E|-0--0--0--0--0--0--0---0--0--3--5--0-------|---------------------1-----|--------|


E|-----------------------------------------------------|-------------------------------------------------------|
B|-----------------------------------------------------|-------------------------------------------------------|
G|-----------------------------------------------------|-------------------------------------------------------|
D|--------------2-2-----------------------2-2----------|--------------2-2--------------------------------------|
A|--------2--3------3--2------------2--3------3--2-----|--------2--3------3--2-----2-2----2-2----1-1-----------|
E|---0-3------------------3--0-0-3------------------3--|-0-0-3------------------3------3------3------2--5-5-1--|


E|-----------------------------------------------------|-------------------------------------------------------|
B|-----------------------------------------------------|-------------------------------------------------------|
G|-----------------------------------------------------|-------------------------------------------------------|
D|--------------2-2-----------------------2-2----------|--------------2-2--------------------------------------|
A|--------2--3------3--2------------2--3------3--2-----|--------2--3------3--2-----2-2----2-2----1-1-----------|
E|-0-0-3------------------3--0-0-3------------------3--|-0-0-3------------------3------3------3------2--5-5-1--|


E|-----------------------------------------------------|-------------------------------------------------------|
B|-----------------------------------------------------|-------------------------------------------------------|
G|-----------------------------------------------------|-------------------------------------------------------|
D|--------------2-2-----------------------2-2----------|--------------2-2--------------------------------------|
A|--------2--3------3--2------------2--3------3--2-----|--------2--3------3--2-----2-2----2-2----1-1-----------|
E|-0-0-3------------------3--0-0-3------------------3--|-0-0-3------------------3------3------3------2--5-5-1--|


E|-----------------------------------------------------|-------------------------------------------------------|
B|-----------------------------------------------------|-------------------------------------------------------|
G|-----------------------------------------------------|-------------------------------------------------------|
D|--------------2-2-----------------------2-2----------|--------------2-2--------------------------------------|
A|--------2--3------3--2------------2--3------3--2-----|--------2--3------3--2-----2-2----2-2----1-1-----------|
E|-0-0-3------------------3--0-0-3------------------3--|-0-0-3------------------3------3------3------2--5-5-1--|


E|----------------|---------------------------------------------------|---------------------------------------------------|
B|----------------|---------------------------------------------------|---------------------------------------------------|
G|----------------|---------------------------------------------------|---------------------------------------------------|
D|----------------|---------------------------------------------------|---------------------------------------------------|
A|----------------|-1--2-1----1-----1--------1--2-1----1-----1--------|-1--2-1----1-----1--------1--2-1----1-----1--------|
E|-----------19---|--------3-----3-----0--3---------3-----3-----0--3--|--------3-----3-----0--3---------3-----3-----0--3--|


E|---------------------------------------------------|---------------------------------------------------|
B|---------------------------------------------------|---------------------------------------------------|
G|---------------------------------------------------|---------------------------------------------------|
D|---------------------------------------------------|---------------------------------------------------|
A|-1--2-1----1-----1--------1--2-1----1-----1--------|-1--2-1----1-----1--------1--2-1----1-----1--------|
E|--------3-----3-----0--3---------3-----3-----0--3--|--------3-----3-----0--3---------3-----3-----0--3--|


E|---------------------------------------------------|---------------------------------------------------|
B|---------------------------------------------------|---------------------------------------------------|
G|---------------------------------------------------|---------------------------------------------------|
D|---------------------------------------------------|---------------------------------------------------|
A|-1--2-1----1-----1--------1--2-1----1-----1--------|-1--2-1----1-----1--------1--2-1----1-----1--------|
E|--------3-----3-----0--3---------3-----3-----0--3--|--------3-----3-----0--3---------3-----3-----0--3--|


E|---------------------------------------------------|---------------------------------------------------|
B|---------------------------------------------------|---------------------------------------------------|
G|---------------------------------------------------|---------------------------------------------------|
D|---------------------------------------------------|---------------------------------------------------|
A|-1--2-1----1-----1--------1--2-1----1-----1--------|-1--2-1----1-----1--------1--2-1----1-----1--------|
E|--------3-----3-----0--3---------3-----3-----0--3--|--------3-----3-----0--3---------3-----3-----0--3--|


E|----------------------------------------------------|---------------------------------------------------|
B|----------------------------------------------------|---------------------------------------------------|
G|----------------------------------------------------|---------------------------------------------------|
D|----------------------------------------------------|---------------------------------------------------|
A|-1--2-1----1--------2--3-2----2--------3--4-3----3--|-------4--5-4----4--------5--6-5----5--------------|
E|--------3-----0--3---------4-----2--5---------5-----|-3--6---------6-----4--7---------7-----7--6--5--3--|


E|------------------------------------------------|----------------------------------------|
B|------------------------------------------------|----------------------------------------|
G|------------------------------------------9--9--|-3--9--9---3----3--3--------------12-12-|
D|------------------------------------------------|-----------3----3--3--------------------|
A|-2--3-2----2--7---5---4---3---------------7--7--|-1--7--7---1----1--1--------------10-10-|
E|--------5-----5---3---2---1---0--0--0--0--------|-----------1----1--1--0--0--0--0--------|


E|----------------------------------------|----------------------------------------|
B|----------------------------------------|----------------------------------------|
G|-3--12-12--3----3--3--------------9--9--|-3--9--9---3----3--3--------------12-12-|
D|-----------3----3--3--------------------|-----------3----3--3--------------------|
A|-1--10-10--1----1--1--------------7--7--|-1--7--7---1----1--1--------------10-10-|
E|-----------1----1--1--0--0--0--0--------|-----------1----1--1--0--0--0--0--------|


E|----------------------------------------|----------------------------------------|
B|----------------------------------------|----------------------------------------|
G|-3--12-12--3----3--3--------------11-11-|-5--11-11--5----5--5--------------14-14-|
D|-----------3----3--3--------------------|-----------5----5--5--------------------|
A|-1--10-10--1----1--1--------------9--9--|-3--9--9---3----3--3--------------12-12-|
E|-----------1----1--1--2--2--2--2--------|-----------3----3--3--2--2--2--2--------|


E|----------------------------------------|----------------------------------------|
B|----------------------------------------|----------------------------------------|
G|-5--14-14--5----5--5--------------9--9--|-3--9--9---3----3--3--------------12-12-|
D|-----------5----5--5--------------------|-----------3----3--3--------------------|
A|-3--12-12--3----3--3--------------7--7--|-1--7--7---1----1--1--------------10-10-|
E|-----------3----3--3--0--0--0--0--------|-----------1----1--1--0--0--0--0--------|


E|--------------------------------------|--------|--------|--------|--------|--------|
B|--------------------------------------|--------|--------|--------|--------|--------|
G|-3--12-12--3----3--3--0--0-----0--0---|--------|--------|--------|--------|--------|
D|-----------3----3--3--0--0-----0--0---|--------|--------|--------|--------|--------|
A|-1--10-10--1----1--1--0--0-----0--0---|--------|--------|--------|--------|--------|
E|-----------1----1--1--0--0-----0--0---|--------|--------|--------|--------|--------|


E|--------|--------|--------|-----------------------------|----------------------------------------|
B|--------|--------|--------|-----------------------------|----------------------------------------|
G|--------|--------|--------|-----------------------9--9--|-3--9--9---3----3--3--------------12-12-|
D|--------|--------|--------|-----------------------------|-----------3----3--3--------------------|
A|--------|--------|--------|-----------------------7--7--|-1--7--7---1----1--1--------------10-10-|
E|--------|--------|--------|-----------0--0--0--0--------|-----------1----1--1--0--0--0--0--------|


E|----------------------------------------|----------------------------------------|
B|----------------------------------------|----------------------------------------|
G|-3--12-12--3----3--3--------------9--9--|-3--9--9---3----3--3--------------12-12-|
D|-----------3----3--3--------------------|-----------3----3--3--------------------|
A|-1--10-10--1----1--1--------------7--7--|-1--7--7---1----1--1--------------10-10-|
E|-----------1----1--1--0--0--0--0--------|-----------1----1--1--0--0--0--0--------|


E|----------------------------------------|----------------------------------------|
B|----------------------------------------|----------------------------------------|
G|-3--12-12--3----3--3--------------11-11-|-5--11-11--5----5--5--------------14-14-|
D|-----------3----3--3--------------------|-----------5----5--5--------------------|
A|-1--10-10--1----1--1--------------9--9--|-3--9--9---3----3--3--------------12-12-|
E|-----------1----1--1--2--2--2--2--------|-----------3----3--3--2--2--2--2--------|


E|----------------------------------------|----------------------------------------|
B|----------------------------------------|----------------------------------------|
G|-5--14-14--5----5--5--------------9--9--|-3--9--9---3----3--3--------------12-12-|
D|-----------5----5--5--------------------|-----------3----3--3--------------------|
A|-3--12-12--3----3--3--------------7--7--|-1--7--7---1----1--1--------------10-10-|
E|-----------3----3--3--0--0--0--0--------|-----------1----1--1--0--0--0--0--------|


E|--------------------------------------|-----------------------------------|---------------------------------------------|
B|--------------------------------------|-----------------------------------|---------------------------------------------|
G|-3--12-12--3----3--3--0--0-----0--0---|-------------12--------------12----|-----12-12-11----11-11-10----10-10-9-----9---|
D|-----------3----3--3--0--0-----0--0---|----------14----13-------14-----12-|--------------12----------11----------10-----|
A|-1--10-10--1----1--1--0--0-----0--0---|-7---------------------------------|---------------------------------------------|
E|-----------1----1--1--0--0-----0--0---|-----0---------------0-------------|---------------------------------------------|


E|--------------------|--------------------------------------------------------------------|
B|--------------------|-----------------------------------------15-17-19-15-17-19-15-17-19-|
G|--------------------|-----13-14-17-13-14-17-13-14-17-14-16-18----------------------------|
D|--------------------|--------------------------------------------------------------------|
A|----------------7---|--------------------------------------------------------------------|
E|-----------0--------|--------------------------------------------------------------------|


E|---------------------|--------|--------|--------|-----------------------------------------|
B|-15-17-19------------|--------|--------|--------|-----------------------------------------|
G|---------------------|--------|--------|--------|-----0--0-----0--0-------------------3---|
D|---------------------|--------|--------|--------|-----0--0-----0--0-------------------3---|
A|---------------------|--------|--------|--------|-----0--0-----0--0-------------------1---|
E|---------------------|--------|--------|--------|-----0--0-----0--0-------0--0--0--0--1---|


E|--------------------------------------|----------------------------------------|
B|--------------------------------------|----------------------------------------|
G|---------------------------------3----|-----------------------------3----------|
D|-----3--3-----3--3---------------3----|-3--3-----3--3---------------3----3--3--|
A|-----3--3-----3--3---------------1----|-3--3-----3--3---------------1----3--3--|
E|-----3--3-----3--3---0--0--0--0--1----|-3--3-----3--3---0--0--0--0--1----3--3--|


E|----------------------------------------|--------------------------------------|
B|----------------------------------------|--------------------------------------|
G|-----------------------3----------------|---------------------3----------------|
D|----3--3---------------3----1--1-----1--|-1-------------------3----1--1--1--1--|
A|----3--3---------------1----1--1-----1--|-1-------------------1----1--1--1--1--|
E|----3--3---0--0--0--0--1----1--1-----1--|-1-------0--0--0--0--1----10-1--1--1--|


E|------------------------------------------|------------------------------------------|
B|------------------------------------------|------------------------------------------|
G|-------------------------3----------------|-------------------------3----------------|
D|-1--1--1--1--------------3----1--1--1--1--|-1--1--1--1--------------3----1--1--1--1--|
A|-1--1--1--1--------------1----1--1--1--1--|-1--1--1--1--------------1----1--1--1--1--|
E|-1--1--1--1--0--0--0--0--1----1--1--1--1--|-1--1--1--1--0--0--0--0--1----1--1--1--1--|


E|------------------------------------------|------------------------------------------|
B|------------------------------------------|------------------------------------------|
G|-------------------------3----------------|-------------------------3----------------|
D|-1--1--1--1--------------3----1--1--1--1--|-1--1--1--1--------------3----1--1--1--1--|
A|-1--1--1--1--------------1----1--1--1--1--|-1--1--1--1--------------1----1--1--1--1--|
E|-1--1--1--1--0--0--0--0--1----1--1--1--1--|-1--1--1--1--0--0--0--0--1----10-1--1--1--|


E|------------------------------------------|------------------------------------------|
B|------------------------------------------|------------------------------------------|
G|-------------------------3----------------|-------------------------3----------------|
D|-1--1--1--1--------------3----1--1--1--1--|-1--1--1--1--------------3----1--1--1--1--|
A|-1--1--1--1--------------1----1--1--1--1--|-1--1--1--1--------------1----1--1--1--1--|
E|-1--1--1--1--0--0--0--0--1----1--1--1--1--|-1--1--1--1--0--0--0--0--1----1--1--1--1--|


E|------------------------------------------|------------------------------------------|
B|------------------------------------------|------------------------------------------|
G|-------------------------3----------------|-------------------------3----------------|
D|-1--1--1--1--------------3----1--1--1--1--|-1--1--1--1--------------3----1--1-----1--|
A|-1--1--1--1--------------1----1--1--1--1--|-1--1--1--1--------------1----1--1-----1--|
E|-1--1--1--1--0--0--0--0--1----1--1--1--1--|-1--1--1--1--0--0--0--0--1----1--1-----1--|


E|----------------|
B|----------------|
G|----------------|
D|-1--------------|
A|-1--------------|
E|-1--------------|





Track 2: Clean Guitar

E|--------|--------|--------|--------|--------|--------|--------|--------|-------------0-----------------------0-----------|
B|--------|--------|--------|--------|--------|--------|--------|--------|-------3--------3--------------4--------4--------|
G|--------|--------|--------|--------|--------|--------|--------|--------|----------0--------0--------------0--------0-----|
D|--------|--------|--------|--------|--------|--------|--------|--------|----------------------4-----------------------5--|
A|--------|--------|--------|--------|--------|--------|--------|--------|----2-----------------------3--------------------|
E|--------|--------|--------|--------|--------|--------|--------|--------|-0-----------------------0-----------------------|


E|-------------0----------------------------|-------------0-----------------------0-----------|
B|-------2--------2-------------------------|-------3--------3--------------4--------4--------|
G|----------0--------0--------------5--5----|----------0--------0--------------0--------0-----|
D|----------------------3--------5----------|----------------------4-----------------------5--|
A|----1-----------------------0-------------|----2-----------------------3--------------------|
E|-0-----------------------0----------------|-0-----------------------0-----------------------|


E|-------------0----------------------------|-------------0-----------------------0-----------|
B|-------2--------2-------------------------|-------3--------3--------------4--------4--------|
G|----------0--------0--------------5--5----|----------0--------0--------------0--------0-----|
D|----------------------3--------5----------|----------------------4-----------------------5--|
A|----1-----------------------0-------------|----2-----------------------3--------------------|
E|-0-----------------------0----------------|-0-----------------------0-----------------------|


E|-------------0----------------------------|-------------0-----------------------0-----------|
B|-------2--------2-------------------------|-------3--------3--------------4--------4--------|
G|----------0--------0--------------5--5----|----------0--------0--------------0--------0-----|
D|----------------------3--------5----------|----------------------4-----------------------5--|
A|----1-----------------------0-------------|----2-----------------------3--------------------|
E|-0-----------------------0----------------|-0-----------------------0-----------------------|


E|-------------0-----------------|--------|--------|--------|--------|--------|--------|
B|-------2--------2--------------|--------|--------|--------|--------|--------|--------|
G|----------0--------0-----------|--------|--------|--------|--------|--------|--------|
D|----------------------3--------|--------|--------|--------|--------|--------|--------|
A|----1--------------------------|--------|--------|--------|--------|--------|--------|
E|-0-----------------------------|--------|--------|--------|--------|--------|--------|


E|--------|--------|--------|--------|--------|--------|--------|--------|--------|
B|--------|--------|--------|--------|--------|--------|--------|--------|--------|
G|--------|--------|--------|--------|--------|--------|--------|--------|--------|
D|--------|--------|--------|--------|--------|--------|--------|--------|--------|
A|--------|--------|--------|--------|--------|--------|--------|--------|--------|
E|--------|--------|--------|--------|--------|--------|--------|--------|--------|


E|--------|------------------------------|-----------------|--------|--------|--------|
B|--------|-6----6----5-----4----4-------|-----------------|--------|--------|--------|
G|--------|-3----3-----------------------|-----------------|--------|--------|--------|
D|--------|-0----0----0-----0----0-------|-----------------|--------|--------|--------|
A|--------|-----------0------------------|-----------------|--------|--------|--------|
E|--------|--------------------------10--|-0---------------|--------|--------|--------|


E|--------|--------|--------|--------|-------------0-----------------------0-----------|
B|--------|--------|--------|--------|-------3--------3--------------4--------4--------|
G|--------|--------|--------|--------|----------0--------0--------------0--------0-----|
D|--------|--------|--------|--------|----------------------4-----------------------5--|
A|--------|--------|--------|--------|----2-----------------------3--------------------|
E|--------|--------|--------|--------|-0-----------------------0-----------------------|


E|-------------0----------------------------|-------------0-----------------------0-----------|
B|-------2--------2-------------------------|-------3--------3--------------4--------4--------|
G|----------0--------0--------------5--5----|----------0--------0--------------0--------0-----|
D|----------------------3--------5----------|----------------------4-----------------------5--|
A|----1-----------------------0-------------|----2-----------------------3--------------------|
E|-0-----------------------0----------------|-0-----------------------0-----------------------|


E|-------------0----------------------------|-------------0-----------------------0-----------|
B|-------2--------2-------------------------|-------3--------3--------------4--------4--------|
G|----------0--------0--------------5--5----|----------0--------0--------------0--------0-----|
D|----------------------3--------5----------|----------------------4-----------------------5--|
A|----1-----------------------0-------------|----2-----------------------3--------------------|
E|-0-----------------------0----------------|-0-----------------------0-----------------------|


E|-------------0----------------------------|-------------0-----------------------0-----------|
B|-------2--------2-------------------------|-------3--------3--------------4--------4--------|
G|----------0--------0--------------5--5----|----------0--------0--------------0--------0-----|
D|----------------------3--------5----------|----------------------4-----------------------5--|
A|----1-----------------------0-------------|----2-----------------------3--------------------|
E|-0-----------------------0----------------|-0-----------------------0-----------------------|


E|-------------0-----------------|--------|--------|--------|--------|--------|--------|
B|-------2--------2--------------|--------|--------|--------|--------|--------|--------|
G|----------0--------0-----------|--------|--------|--------|--------|--------|--------|
D|----------------------3--------|--------|--------|--------|--------|--------|--------|
A|----1--------------------------|--------|--------|--------|--------|--------|--------|
E|-0-----------------------------|--------|--------|--------|--------|--------|--------|


E|--------|--------|--------|--------|--------|--------|--------|--------|--------|
B|--------|--------|--------|--------|--------|--------|--------|--------|--------|
G|--------|--------|--------|--------|--------|--------|--------|--------|--------|
D|--------|--------|--------|--------|--------|--------|--------|--------|--------|
A|--------|--------|--------|--------|--------|--------|--------|--------|--------|
E|--------|--------|--------|--------|--------|--------|--------|--------|--------|


E|--------|------------------------------|-----------------|--------|--------|--------|
B|--------|-6----6----5-----4----4-------|-----------------|--------|--------|--------|
G|--------|-3----3-----------------------|-----------------|--------|--------|--------|
D|--------|-0----0----0-----0----0-------|-----------------|--------|--------|--------|
A|--------|-----------0------------------|-----------------|--------|--------|--------|
E|--------|--------------------------10--|-0---------------|--------|--------|--------|


E|--------|--------|--------|--------|------------------------------|--------|--------|
B|--------|--------|--------|--------|-6----6----5-----4----4-------|--------|--------|
G|--------|--------|--------|--------|-3----3-----------------------|--------|--------|
D|--------|--------|--------|--------|-0----0----0-----0----0-------|--------|--------|
A|--------|--------|--------|--------|-----------0------------------|--------|--------|
E|--------|--------|--------|--------|------------------------------|--------|--------|


E|--------|--------|--------|--------|--------|--------|--------|--------|--------|
B|--------|--------|--------|--------|--------|--------|--------|--------|--------|
G|--------|--------|--------|--------|--------|--------|--------|--------|--------|
D|--------|--------|--------|--------|--------|--------|--------|--------|--------|
A|--------|--------|--------|--------|--------|--------|--------|--------|--------|
E|--------|--------|--------|--------|--------|--------|--------|--------|--------|


E|--------|--------|--------|--------|--------|--------|--------|--------|--------|
B|--------|--------|--------|--------|--------|--------|--------|--------|--------|
G|--------|--------|--------|--------|--------|--------|--------|--------|--------|
D|--------|--------|--------|--------|--------|--------|--------|--------|--------|
A|--------|--------|--------|--------|--------|--------|--------|--------|--------|
E|--------|--------|--------|--------|--------|--------|--------|--------|--------|


E|--------|--------|--------|--------|--------|--------|--------|--------|--------|
B|--------|--------|--------|--------|--------|--------|--------|--------|--------|
G|--------|--------|--------|--------|--------|--------|--------|--------|--------|
D|--------|--------|--------|--------|--------|--------|--------|--------|--------|
A|--------|--------|--------|--------|--------|--------|--------|--------|--------|
E|--------|--------|--------|--------|--------|--------|--------|--------|--------|


E|--------|--------|--------|--------|--------|--------|--------|--------|--------|
B|--------|--------|--------|--------|--------|--------|--------|--------|--------|
G|--------|--------|--------|--------|--------|--------|--------|--------|--------|
D|--------|--------|--------|--------|--------|--------|--------|--------|--------|
A|--------|--------|--------|--------|--------|--------|--------|--------|--------|
E|--------|--------|--------|--------|--------|--------|--------|--------|--------|


E|--------|--------|--------|--------|--------|--------|--------|--------|--------|
B|--------|--------|--------|--------|--------|--------|--------|--------|--------|
G|--------|--------|--------|--------|--------|--------|--------|--------|--------|
D|--------|--------|--------|--------|--------|--------|--------|--------|--------|
A|--------|--------|--------|--------|--------|--------|--------|--------|--------|
E|--------|--------|--------|--------|--------|--------|--------|--------|--------|


E|--------|--------|--------|--------|--------|--------|--------|--------|--------|
B|--------|--------|--------|--------|--------|--------|--------|--------|--------|
G|--------|--------|--------|--------|--------|--------|--------|--------|--------|
D|--------|--------|--------|--------|--------|--------|--------|--------|--------|
A|--------|--------|--------|--------|--------|--------|--------|--------|--------|
E|--------|--------|--------|--------|--------|--------|--------|--------|--------|


E|--------|--------|
B|--------|--------|
G|--------|--------|
D|--------|--------|
A|--------|--------|
E|--------|--------|





Track 3: Distortion (L)

E|--------|--------|--------|--------|--------|--------|--------|--------|--------|
B|--------|--------|--------|--------|--------|--------|--------|--------|--------|
G|--------|--------|--------|--------|--------|--------|--------|--------|--------|
D|--------|--------|--------|--------|--------|--------|--------|--------|--------|
A|--------|--------|--------|--------|--------|--------|--------|--------|--------|
E|--------|--------|--------|--------|--------|--------|--------|--------|--------|


E|--------|--------|--------|--------|--------|--------|------------------------|--------|
B|--------|--------|--------|--------|--------|--------|------------------------|--------|
G|--------|--------|--------|--------|--------|--------|----------------5--5----|--------|
D|--------|--------|--------|--------|--------|--------|-------------5----------|--------|
A|--------|--------|--------|--------|--------|--------|----------0-------------|--------|
E|--------|--------|--------|--------|--------|--------|-------0----------------|--------|


E|--------|--------|--------|--------|--------|--------|--------|--------|--------|
B|--------|--------|--------|--------|--------|--------|--------|--------|--------|
G|--------|--------|--------|--------|--------|--------|--------|--------|--------|
D|--------|--------|--------|--------|--------|--------|--------|--------|--------|
A|--------|--------|--------|--------|--------|--------|--------|--------|--------|
E|--------|--------|--------|--------|--------|--------|--------|--------|--------|


E|--------|--------|--------|--------|--------|--------|--------|--------|--------|
B|--------|--------|--------|--------|--------|--------|--------|--------|--------|
G|--------|--------|--------|--------|--------|--------|--------|--------|--------|
D|--------|--------|--------|--------|--------|--------|--------|--------|--------|
A|--------|--------|--------|--------|--------|--------|--------|--------|--------|
E|--------|--------|--------|--------|--------|--------|--------|--------|--------|


E|--------|--------|--------|--------|--------|--------|--------|--------|--------|
B|--------|--------|--------|--------|--------|--------|--------|--------|--------|
G|--------|--------|--------|--------|--------|--------|--------|--------|--------|
D|--------|--------|--------|--------|--------|--------|--------|--------|--------|
A|--------|--------|--------|--------|--------|--------|--------|--------|--------|
E|--------|--------|--------|--------|--------|--------|--------|--------|--------|


E|--------|--------|--------|--------|--------|--------|--------|--------|--------|
B|--------|--------|--------|--------|--------|--------|--------|--------|--------|
G|--------|--------|--------|--------|--------|--------|--------|--------|--------|
D|--------|--------|--------|--------|--------|--------|--------|--------|--------|
A|--------|--------|--------|--------|--------|--------|--------|--------|--------|
E|--------|--------|--------|--------|--------|--------|--------|--------|--------|


E|--------|--------|--------|--------|--------|--------|--------|--------|--------|
B|--------|--------|--------|--------|--------|--------|--------|--------|--------|
G|--------|--------|--------|--------|--------|--------|--------|--------|--------|
D|--------|--------|--------|--------|--------|--------|--------|--------|--------|
A|--------|--------|--------|--------|--------|--------|--------|--------|--------|
E|--------|--------|--------|--------|--------|--------|--------|--------|--------|


E|--------|--------|--------|--------|--------|--------|--------|--------|--------|
B|--------|--------|--------|--------|--------|--------|--------|--------|--------|
G|--------|--------|--------|--------|--------|--------|--------|--------|--------|
D|--------|--------|--------|--------|--------|--------|--------|--------|--------|
A|--------|--------|--------|--------|--------|--------|--------|--------|--------|
E|--------|--------|--------|--------|--------|--------|--------|--------|--------|


E|--------|--------|--------|--------|--------|--------|--------|--------|--------|
B|--------|--------|--------|--------|--------|--------|--------|--------|--------|
G|--------|--------|--------|--------|--------|--------|--------|--------|--------|
D|--------|--------|--------|--------|--------|--------|--------|--------|--------|
A|--------|--------|--------|--------|--------|--------|--------|--------|--------|
E|--------|--------|--------|--------|--------|--------|--------|--------|--------|


E|--------|--------|--------|--------|--------|--------|--------|--------|--------|
B|--------|--------|--------|--------|--------|--------|--------|--------|--------|
G|--------|--------|--------|--------|--------|--------|--------|--------|--------|
D|--------|--------|--------|--------|--------|--------|--------|--------|--------|
A|--------|--------|--------|--------|--------|--------|--------|--------|--------|
E|--------|--------|--------|--------|--------|--------|--------|--------|--------|


E|--------|--------|--------|--------|--------|--------|--------|--------|--------|
B|--------|--------|--------|--------|--------|--------|--------|--------|--------|
G|--------|--------|--------|--------|--------|--------|--------|--------|--------|
D|--------|--------|--------|--------|--------|--------|--------|--------|--------|
A|--------|--------|--------|--------|--------|--------|--------|--------|--------|
E|--------|--------|--------|--------|--------|--------|--------|--------|--------|


E|--------|--------|--------|--------|--------|--------|--------|--------|--------|
B|--------|--------|--------|--------|--------|--------|--------|--------|--------|
G|--------|--------|--------|--------|--------|--------|--------|--------|--------|
D|--------|--------|--------|--------|--------|--------|--------|--------|--------|
A|--------|--------|--------|--------|--------|--------|--------|--------|--------|
E|--------|--------|--------|--------|--------|--------|--------|--------|--------|


E|--------|--------|--------|--------|--------|--------|--------|--------|--------|
B|--------|--------|--------|--------|--------|--------|--------|--------|--------|
G|--------|--------|--------|--------|--------|--------|--------|--------|--------|
D|--------|--------|--------|--------|--------|--------|--------|--------|--------|
A|--------|--------|--------|--------|--------|--------|--------|--------|--------|
E|--------|--------|--------|--------|--------|--------|--------|--------|--------|


E|--------|--------|--------|--------|--------|--------|--------|--------|--------|
B|--------|--------|--------|--------|--------|--------|--------|--------|--------|
G|--------|--------|--------|--------|--------|--------|--------|--------|--------|
D|--------|--------|--------|--------|--------|--------|--------|--------|--------|
A|--------|--------|--------|--------|--------|--------|--------|--------|--------|
E|--------|--------|--------|--------|--------|--------|--------|--------|--------|


E|--------|--------|--------|--------|--------|--------|--------|--------|
B|--------|--------|--------|--------|--------|--------|--------|--------|
G|--------|--------|--------|--------|--------|--------|--------|--------|
D|--------|--------|--------|--------|--------|--------|--------|--------|
A|--------|--------|--------|--------|--------|--------|--------|--------|
E|--------|--------|--------|--------|--------|--------|--------|--------|





Track 4: Distortion (L)

E|--------|--------|--------|--------|--------|--------|--------|--------|--------|
B|--------|--------|--------|--------|--------|--------|--------|--------|--------|
G|--------|--------|--------|--------|--------|--------|--------|--------|--------|
D|--------|--------|--------|--------|--------|--------|--------|--------|--------|
A|--------|--------|--------|--------|--------|--------|--------|--------|--------|
E|--------|--------|--------|--------|--------|--------|--------|--------|--------|


E|--------|--------|--------|--------|--------|--------|--------|--------|--------|
B|--------|--------|--------|--------|--------|--------|--------|--------|--------|
G|--------|--------|--------|--------|--------|--------|--------|--------|--------|
D|--------|--------|--------|--------|--------|--------|--------|--------|--------|
A|--------|--------|--------|--------|--------|--------|--------|--------|--------|
E|--------|--------|--------|--------|--------|--------|--------|--------|--------|


E|--------|--------|--------|--------|--------|--------|--------|--------|--------|
B|--------|--------|--------|--------|--------|--------|--------|--------|--------|
G|--------|--------|--------|--------|--------|--------|--------|--------|--------|
D|--------|--------|--------|--------|--------|--------|--------|--------|--------|
A|--------|--------|--------|--------|--------|--------|--------|--------|--------|
E|--------|--------|--------|--------|--------|--------|--------|--------|--------|


E|--------|--------|--------|--------|--------|--------|--------|--------|--------|
B|--------|--------|--------|--------|--------|--------|--------|--------|--------|
G|--------|--------|--------|--------|--------|--------|--------|--------|--------|
D|--------|--------|--------|--------|--------|--------|--------|--------|--------|
A|--------|--------|--------|--------|--------|--------|--------|--------|--------|
E|--------|--------|--------|--------|--------|--------|--------|--------|--------|


E|--------|--------|--------|--------|--------|--------|--------|--------|--------|
B|--------|--------|--------|--------|--------|--------|--------|--------|--------|
G|--------|--------|--------|--------|--------|--------|--------|--------|--------|
D|--------|--------|--------|--------|--------|--------|--------|--------|--------|
A|--------|--------|--------|--------|--------|--------|--------|--------|--------|
E|--------|--------|--------|--------|--------|--------|--------|--------|--------|


E|--------|--------|--------|------------------------|--------|--------|--------|--------|
B|--------|--------|--------|------------------------|--------|--------|--------|--------|
G|--------|--------|--------|----------------5--5----|--------|--------|--------|--------|
D|--------|--------|--------|-------------5----------|--------|--------|--------|--------|
A|--------|--------|--------|----------0-------------|--------|--------|--------|--------|
E|--------|--------|--------|-------0----------------|--------|--------|--------|--------|


E|--------|--------|--------|--------|--------|--------|--------|--------|--------|
B|--------|--------|--------|--------|--------|--------|--------|--------|--------|
G|--------|--------|--------|--------|--------|--------|--------|--------|--------|
D|--------|--------|--------|--------|--------|--------|--------|--------|--------|
A|--------|--------|--------|--------|--------|--------|--------|--------|--------|
E|--------|--------|--------|--------|--------|--------|--------|--------|--------|


E|--------|--------|--------|--------|--------|--------|--------|--------|--------|
B|--------|--------|--------|--------|--------|--------|--------|--------|--------|
G|--------|--------|--------|--------|--------|--------|--------|--------|--------|
D|--------|--------|--------|--------|--------|--------|--------|--------|--------|
A|--------|--------|--------|--------|--------|--------|--------|--------|--------|
E|--------|--------|--------|--------|--------|--------|--------|--------|--------|


E|--------|--------|--------|--------|--------|--------|--------|--------|--------|
B|--------|--------|--------|--------|--------|--------|--------|--------|--------|
G|--------|--------|--------|--------|--------|--------|--------|--------|--------|
D|--------|--------|--------|--------|--------|--------|--------|--------|--------|
A|--------|--------|--------|--------|--------|--------|--------|--------|--------|
E|--------|--------|--------|--------|--------|--------|--------|--------|--------|


E|--------|--------|--------|--------|--------|--------|--------|--------|--------|
B|--------|--------|--------|--------|--------|--------|--------|--------|--------|
G|--------|--------|--------|--------|--------|--------|--------|--------|--------|
D|--------|--------|--------|--------|--------|--------|--------|--------|--------|
A|--------|--------|--------|--------|--------|--------|--------|--------|--------|
E|--------|--------|--------|--------|--------|--------|--------|--------|--------|


E|--------|--------|--------|--------|--------|--------|--------|--------|--------|
B|--------|--------|--------|--------|--------|--------|--------|--------|--------|
G|--------|--------|--------|--------|--------|--------|--------|--------|--------|
D|--------|--------|--------|--------|--------|--------|--------|--------|--------|
A|--------|--------|--------|--------|--------|--------|--------|--------|--------|
E|--------|--------|--------|--------|--------|--------|--------|--------|--------|


E|--------|--------|--------|--------|--------|--------|--------|--------|--------|
B|--------|--------|--------|--------|--------|--------|--------|--------|--------|
G|--------|--------|--------|--------|--------|--------|--------|--------|--------|
D|--------|--------|--------|--------|--------|--------|--------|--------|--------|
A|--------|--------|--------|--------|--------|--------|--------|--------|--------|
E|--------|--------|--------|--------|--------|--------|--------|--------|--------|


E|--------|--------|--------|--------|--------|--------|--------|--------|--------|
B|--------|--------|--------|--------|--------|--------|--------|--------|--------|
G|--------|--------|--------|--------|--------|--------|--------|--------|--------|
D|--------|--------|--------|--------|--------|--------|--------|--------|--------|
A|--------|--------|--------|--------|--------|--------|--------|--------|--------|
E|--------|--------|--------|--------|--------|--------|--------|--------|--------|


E|--------|--------|--------|--------|--------|--------|--------|--------|--------|
B|--------|--------|--------|--------|--------|--------|--------|--------|--------|
G|--------|--------|--------|--------|--------|--------|--------|--------|--------|
D|--------|--------|--------|--------|--------|--------|--------|--------|--------|
A|--------|--------|--------|--------|--------|--------|--------|--------|--------|
E|--------|--------|--------|--------|--------|--------|--------|--------|--------|


E|--------|--------|--------|--------|--------|--------|--------|--------|
B|--------|--------|--------|--------|--------|--------|--------|--------|
G|--------|--------|--------|--------|--------|--------|--------|--------|
D|--------|--------|--------|--------|--------|--------|--------|--------|
A|--------|--------|--------|--------|--------|--------|--------|--------|
E|--------|--------|--------|--------|--------|--------|--------|--------|





Track 5: Lead (Middle)

E|--------|--------|--------|--------|--------|--------|--------|--------|--------|
B|--------|--------|--------|--------|--------|--------|--------|--------|--------|
G|--------|--------|--------|--------|--------|--------|--------|--------|--------|
D|--------|--------|--------|--------|--------|--------|--------|--------|--------|
A|--------|--------|--------|--------|--------|--------|--------|--------|--------|
E|--------|--------|--------|--------|--------|--------|--------|--------|--------|


E|--------|--------|--------|--------|--------|--------|--------|--------|--------|
B|--------|--------|--------|--------|--------|--------|--------|--------|--------|
G|--------|--------|--------|--------|--------|--------|--------|--------|--------|
D|--------|--------|--------|--------|--------|--------|--------|--------|--------|
A|--------|--------|--------|--------|--------|--------|--------|--------|--------|
E|--------|--------|--------|--------|--------|--------|--------|--------|--------|


E|--------|--------|--------|--------|--------|--------|--------|--------|--------|
B|--------|--------|--------|--------|--------|--------|--------|--------|--------|
G|--------|--------|--------|--------|--------|--------|--------|--------|--------|
D|--------|--------|--------|--------|--------|--------|--------|--------|--------|
A|--------|--------|--------|--------|--------|--------|--------|--------|--------|
E|--------|--------|--------|--------|--------|--------|--------|--------|--------|


E|--------|--------|--------|--------|--------|--------|--------|--------|--------|
B|--------|--------|--------|--------|--------|--------|--------|--------|--------|
G|--------|--------|--------|--------|--------|--------|--------|--------|--------|
D|--------|--------|--------|--------|--------|--------|--------|--------|--------|
A|--------|--------|--------|--------|--------|--------|--------|--------|--------|
E|--------|--------|--------|--------|--------|--------|--------|--------|--------|


E|--------|--------|--------|--------|--------|--------|--------|--------|--------|
B|--------|--------|--------|--------|--------|--------|--------|--------|--------|
G|--------|--------|--------|--------|--------|--------|--------|--------|--------|
D|--------|--------|--------|--------|--------|--------|--------|--------|--------|
A|--------|--------|--------|--------|--------|--------|--------|--------|--------|
E|--------|--------|--------|--------|--------|--------|--------|--------|--------|


E|--------|--------|--------|--------|--------|--------|--------|--------|--------|
B|--------|--------|--------|--------|--------|--------|--------|--------|--------|
G|--------|--------|--------|--------|--------|--------|--------|--------|--------|
D|--------|--------|--------|--------|--------|--------|--------|--------|--------|
A|--------|--------|--------|--------|--------|--------|--------|--------|--------|
E|--------|--------|--------|--------|--------|--------|--------|--------|--------|


E|--------|--------|--------|--------|--------|--------|--------|--------|--------|
B|--------|--------|--------|--------|--------|--------|--------|--------|--------|
G|--------|--------|--------|--------|--------|--------|--------|--------|--------|
D|--------|--------|--------|--------|--------|--------|--------|--------|--------|
A|--------|--------|--------|--------|--------|--------|--------|--------|--------|
E|--------|--------|--------|--------|--------|--------|--------|--------|--------|


E|--------|--------|--------|--------|--------|--------|--------|--------|--------|
B|--------|--------|--------|--------|--------|--------|--------|--------|--------|
G|--------|--------|--------|--------|--------|--------|--------|--------|--------|
D|--------|--------|--------|--------|--------|--------|--------|--------|--------|
A|--------|--------|--------|--------|--------|--------|--------|--------|--------|
E|--------|--------|--------|--------|--------|--------|--------|--------|--------|


E|--------|--------|--------|--------|--------|--------|--------|--------|--------|
B|--------|--------|--------|--------|--------|--------|--------|--------|--------|
G|--------|--------|--------|--------|--------|--------|--------|--------|--------|
D|--------|--------|--------|--------|--------|--------|--------|--------|--------|
A|--------|--------|--------|--------|--------|--------|--------|--------|--------|
E|--------|--------|--------|--------|--------|--------|--------|--------|--------|


E|--------|--------|--------|--------|--------|--------|--------|--------|--------|
B|--------|--------|--------|--------|--------|--------|--------|--------|--------|
G|--------|--------|--------|--------|--------|--------|--------|--------|--------|
D|--------|--------|--------|--------|--------|--------|--------|--------|--------|
A|--------|--------|--------|--------|--------|--------|--------|--------|--------|
E|--------|--------|--------|--------|--------|--------|--------|--------|--------|


E|--------|--------|--------|--------|-----------------------------------------------|
B|--------|--------|--------|--------|-----------------------------------------------|
G|--------|--------|--------|--------|-----------------------------------12----14----|
D|--------|--------|--------|--------|--------------12----14----12-13-14----14----14-|
A|--------|--------|--------|--------|-7---13-13-14----14----14----------------------|
E|--------|--------|--------|--------|-----------------------------------------------|


E|------------------------------------------------|-----17-12----12-18----12-19----------------------------------------|
B|------------------------------------------------|-----------15-------15----------17-------15-------14-------13-12----|
G|-12-14-14-12----14----12------------------------|-----------------------------15----15-16----16-14----14-16-------15-|
D|-------------14----14----14-12------------------|--------------------------------------------------------------------|
A|-------------------------------14-12-10-7-------|--------------------------------------------------------------------|
E|-------------------------------------------10---|--------------------------------------------------------------------|


E|-------------------------------------------------------------------|----17-17-14-------14----------------------------|
B|----------12-11-10----------11-10-9-----------------------------14-|-17----------17-14----17-16----17-16-14----16----|
G|-14-12-11----------13-12-10----------12-11-8--11-5--12-5--13-------|----------------------------16----------14----14-|
D|-------------------------------------------------------------------|-------------------------------------------------|
A|-------------------------------------------------------------------|-------------------------------------------------|
E|-------------------------------------------------------------------|-------------------------------------------------|


E|--------------------------------------|------------------------|---------------------18-19-19-13-16-16-19-19-|
B|-16--16---16-16--18-14----------------|-----15---15---15---15--|-----15--16-16-17-17-17-18-18-12-15-15-------|
G|-----------------------16-------------|-----16---16---16---16--|-----16--14-14-15-15-------------------------|
D|--------------------------16----------|------------------------|---------------------------------------------|
A|-----------------------------15---15--|-15---------------------|---------------------------------------------|
E|--------------------------------------|------------------------|---------------------------------------------|


E|-----19----1919-----------------|--------|--------|--------|--------|--------|--------|
B|--------------------------------|--------|--------|--------|--------|--------|--------|
G|-----0--0------0--0-------------|--------|--------|--------|--------|--------|--------|
D|-----0--0------0--0-------------|--------|--------|--------|--------|--------|--------|
A|-----0--0------0--0-------------|--------|--------|--------|--------|--------|--------|
E|-----0--0------0--0-------------|--------|--------|--------|--------|--------|--------|


E|--------|--------|--------|--------|--------|--------|--------------------------------------------------------------------|
B|--------|--------|--------|--------|--------|--------|-----------------------------------------13-14-17-13-14-17-13-14-17-|
G|--------|--------|--------|--------|--------|--------|-----13-14-17-13-14-17-13-14-17-13-14-17----------------------------|
D|--------|--------|--------|--------|--------|--------|--------------------------------------------------------------------|
A|--------|--------|--------|--------|--------|--------|--------------------------------------------------------------------|
E|--------|--------|--------|--------|--------|--------|--------------------------------------------------------------------|


E|----------13-------13-------13-14-17-13-14-17-13-15-17-13-14-17-13-15-17-|-13-14-17-19---19-----|
B|-13-14-17----14-17----14-17----------------------------------------------|----------------------|
G|-------------------------------------------------------------------------|----------------------|
D|-------------------------------------------------------------------------|----------------------|
A|-------------------------------------------------------------------------|----------------------|
E|-------------------------------------------------------------------------|----------------------|


E|---------------------------------|--------|--------|--------|--------|--------|--------|
B|-----19---19-19--19--19-19-------|--------|--------|--------|--------|--------|--------|
G|-----19---19-19--19--19-19-------|--------|--------|--------|--------|--------|--------|
D|---------------------------------|--------|--------|--------|--------|--------|--------|
A|---------------------------------|--------|--------|--------|--------|--------|--------|
E|---------------------------------|--------|--------|--------|--------|--------|--------|


E|--------|--------|--------|--------|--------|--------|--------|--------|
B|--------|--------|--------|--------|--------|--------|--------|--------|
G|--------|--------|--------|--------|--------|--------|--------|--------|
D|--------|--------|--------|--------|--------|--------|--------|--------|
A|--------|--------|--------|--------|--------|--------|--------|--------|
E|--------|--------|--------|--------|--------|--------|--------|--------|





Track 6: Distortion (R)

E|--------|--------|--------|--------|--------|--------|--------|--------|--------|
B|--------|--------|--------|--------|--------|--------|--------|--------|--------|
G|--------|--------|--------|--------|--------|--------|--------|--------|--------|
D|--------|--------|--------|--------|--------|--------|--------|--------|--------|
A|--------|--------|--------|--------|--------|--------|--------|--------|--------|
E|--------|--------|--------|--------|--------|--------|--------|--------|--------|


E|--------|--------|--------|--------|--------|--------|--------|--------|--------|
B|--------|--------|--------|--------|--------|--------|--------|--------|--------|
G|--------|--------|--------|--------|--------|--------|--------|--------|--------|
D|--------|--------|--------|--------|--------|--------|--------|--------|--------|
A|--------|--------|--------|--------|--------|--------|--------|--------|--------|
E|--------|--------|--------|--------|--------|--------|--------|--------|--------|


E|--------|--------|--------|--------|--------|--------|--------|--------|--------|
B|--------|--------|--------|--------|--------|--------|--------|--------|--------|
G|--------|--------|--------|--------|--------|--------|--------|--------|--------|
D|--------|--------|--------|--------|--------|--------|--------|--------|--------|
A|--------|--------|--------|--------|--------|--------|--------|--------|--------|
E|--------|--------|--------|--------|--------|--------|--------|--------|--------|


E|--------|--------|--------|--------|--------|--------|--------|--------|--------|
B|--------|--------|--------|--------|--------|--------|--------|--------|--------|
G|--------|--------|--------|--------|--------|--------|--------|--------|--------|
D|--------|--------|--------|--------|--------|--------|--------|--------|--------|
A|--------|--------|--------|--------|--------|--------|--------|--------|--------|
E|--------|--------|--------|--------|--------|--------|--------|--------|--------|


E|--------|--------|--------|--------|--------|--------|--------|--------|--------|
B|--------|--------|--------|--------|--------|--------|--------|--------|--------|
G|--------|--------|--------|--------|--------|--------|--------|--------|--------|
D|--------|--------|--------|--------|--------|--------|--------|--------|--------|
A|--------|--------|--------|--------|--------|--------|--------|--------|--------|
E|--------|--------|--------|--------|--------|--------|--------|--------|--------|


E|--------|--------|--------|--------|--------|--------|--------|--------|--------|
B|--------|--------|--------|--------|--------|--------|--------|--------|--------|
G|--------|--------|--------|--------|--------|--------|--------|--------|--------|
D|--------|--------|--------|--------|--------|--------|--------|--------|--------|
A|--------|--------|--------|--------|--------|--------|--------|--------|--------|
E|--------|--------|--------|--------|--------|--------|--------|--------|--------|


E|--------|--------|--------|--------|--------|--------|--------|--------|--------|
B|--------|--------|--------|--------|--------|--------|--------|--------|--------|
G|--------|--------|--------|--------|--------|--------|--------|--------|--------|
D|--------|--------|--------|--------|--------|--------|--------|--------|--------|
A|--------|--------|--------|--------|--------|--------|--------|--------|--------|
E|--------|--------|--------|--------|--------|--------|--------|--------|--------|


E|--------|--------|--------|--------|--------|--------|--------|--------|--------|
B|--------|--------|--------|--------|--------|--------|--------|--------|--------|
G|--------|--------|--------|--------|--------|--------|--------|--------|--------|
D|--------|--------|--------|--------|--------|--------|--------|--------|--------|
A|--------|--------|--------|--------|--------|--------|--------|--------|--------|
E|--------|--------|--------|--------|--------|--------|--------|--------|--------|


E|--------|--------|--------|--------|--------|--------|--------|--------|--------|
B|--------|--------|--------|--------|--------|--------|--------|--------|--------|
G|--------|--------|--------|--------|--------|--------|--------|--------|--------|
D|--------|--------|--------|--------|--------|--------|--------|--------|--------|
A|--------|--------|--------|--------|--------|--------|--------|--------|--------|
E|--------|--------|--------|--------|--------|--------|--------|--------|--------|


E|--------|--------|--------|--------|--------|--------|--------|--------|--------|
B|--------|--------|--------|--------|--------|--------|--------|--------|--------|
G|--------|--------|--------|--------|--------|--------|--------|--------|--------|
D|--------|--------|--------|--------|--------|--------|--------|--------|--------|
A|--------|--------|--------|--------|--------|--------|--------|--------|--------|
E|--------|--------|--------|--------|--------|--------|--------|--------|--------|


E|--------|--------|--------|--------|--------|--------|--------|--------|--------|
B|--------|--------|--------|--------|--------|--------|--------|--------|--------|
G|--------|--------|--------|--------|--------|--------|--------|--------|--------|
D|--------|--------|--------|--------|--------|--------|--------|--------|--------|
A|--------|--------|--------|--------|--------|--------|--------|--------|--------|
E|--------|--------|--------|--------|--------|--------|--------|--------|--------|


E|--------|--------|--------|--------|--------|--------|--------|--------|--------|
B|--------|--------|--------|--------|--------|--------|--------|--------|--------|
G|--------|--------|--------|--------|--------|--------|--------|--------|--------|
D|--------|--------|--------|--------|--------|--------|--------|--------|--------|
A|--------|--------|--------|--------|--------|--------|--------|--------|--------|
E|--------|--------|--------|--------|--------|--------|--------|--------|--------|


E|--------|--------|--------|-----------------------------------|---------------------------------------------|
B|--------|--------|--------|-----------------------------------|---------------------------------------------|
G|--------|--------|--------|-----------------------------------|---------------------------------------------|
D|--------|--------|--------|-------------5---------------5-----|-----5--5--4-----4--4--3-----3--3--2-----2---|
A|--------|--------|--------|---------7------6--------7------5--|--------------5-----------4-----------3------|
E|--------|--------|--------|-----0---------------0-------------|---------------------------------------------|


E|---------------------------|-------------|--------|--------|--------|--------|--------|
B|---------------------------|-------------|--------|--------|--------|--------|--------|
G|-----2----2--2---2---------|--------0----|--------|--------|--------|--------|--------|
D|---------------------------|-------------|--------|--------|--------|--------|--------|
A|---------------------------|-------------|--------|--------|--------|--------|--------|
E|---------------------------|-------------|--------|--------|--------|--------|--------|


E|--------|--------|--------|--------|--------|--------|--------|--------|--------|
B|--------|--------|--------|--------|--------|--------|--------|--------|--------|
G|--------|--------|--------|--------|--------|--------|--------|--------|--------|
D|--------|--------|--------|--------|--------|--------|--------|--------|--------|
A|--------|--------|--------|--------|--------|--------|--------|--------|--------|
E|--------|--------|--------|--------|--------|--------|--------|--------|--------|


E|--------|--------|--------|--------|
B|--------|--------|--------|--------|
G|--------|--------|--------|--------|
D|--------|--------|--------|--------|
A|--------|--------|--------|--------|
E|--------|--------|--------|--------|





Track 7: Distortion (L)

E|--------|--------|--------|--------|--------|--------|--------|--------|--------|
B|--------|--------|--------|--------|--------|--------|--------|--------|--------|
G|--------|--------|--------|--------|--------|--------|--------|--------|--------|
D|--------|--------|--------|--------|--------|--------|--------|--------|--------|
A|--------|--------|--------|--------|--------|--------|--------|--------|--------|
E|--------|--------|--------|--------|--------|--------|--------|--------|--------|


E|--------|--------|--------|--------|--------|--------|--------|--------|--------|
B|--------|--------|--------|--------|--------|--------|--------|--------|--------|
G|--------|--------|--------|--------|--------|--------|--------|--------|--------|
D|--------|--------|--------|--------|--------|--------|--------|--------|--------|
A|--------|--------|--------|--------|--------|--------|--------|--------|--------|
E|--------|--------|--------|--------|--------|--------|--------|--------|--------|


E|--------|--------|--------|--------|--------|--------|--------|--------|--------|
B|--------|--------|--------|--------|--------|--------|--------|--------|--------|
G|--------|--------|--------|--------|--------|--------|--------|--------|--------|
D|--------|--------|--------|--------|--------|--------|--------|--------|--------|
A|--------|--------|--------|--------|--------|--------|--------|--------|--------|
E|--------|--------|--------|--------|--------|--------|--------|--------|--------|


E|--------|--------|--------|--------|--------|--------|--------|--------|--------|
B|--------|--------|--------|--------|--------|--------|--------|--------|--------|
G|--------|--------|--------|--------|--------|--------|--------|--------|--------|
D|--------|--------|--------|--------|--------|--------|--------|--------|--------|
A|--------|--------|--------|--------|--------|--------|--------|--------|--------|
E|--------|--------|--------|--------|--------|--------|--------|--------|--------|


E|--------|--------|--------|--------|--------|--------|--------|--------|--------|
B|--------|--------|--------|--------|--------|--------|--------|--------|--------|
G|--------|--------|--------|--------|--------|--------|--------|--------|--------|
D|--------|--------|--------|--------|--------|--------|--------|--------|--------|
A|--------|--------|--------|--------|--------|--------|--------|--------|--------|
E|--------|--------|--------|--------|--------|--------|--------|--------|--------|


E|--------|--------|--------|--------|--------|--------|--------|--------|--------|
B|--------|--------|--------|--------|--------|--------|--------|--------|--------|
G|--------|--------|--------|--------|--------|--------|--------|--------|--------|
D|--------|--------|--------|--------|--------|--------|--------|--------|--------|
A|--------|--------|--------|--------|--------|--------|--------|--------|--------|
E|--------|--------|--------|--------|--------|--------|--------|--------|--------|


E|--------|--------|--------|--------|--------|--------|--------|--------|--------|
B|--------|--------|--------|--------|--------|--------|--------|--------|--------|
G|--------|--------|--------|--------|--------|--------|--------|--------|--------|
D|--------|--------|--------|--------|--------|--------|--------|--------|--------|
A|--------|--------|--------|--------|--------|--------|--------|--------|--------|
E|--------|--------|--------|--------|--------|--------|--------|--------|--------|


E|--------|--------|--------|--------|--------|--------|--------|--------|--------|
B|--------|--------|--------|--------|--------|--------|--------|--------|--------|
G|--------|--------|--------|--------|--------|--------|--------|--------|--------|
D|--------|--------|--------|--------|--------|--------|--------|--------|--------|
A|--------|--------|--------|--------|--------|--------|--------|--------|--------|
E|--------|--------|--------|--------|--------|--------|--------|--------|--------|


E|--------|--------|--------|--------|--------|--------|--------|--------|--------|
B|--------|--------|--------|--------|--------|--------|--------|--------|--------|
G|--------|--------|--------|--------|--------|--------|--------|--------|--------|
D|--------|--------|--------|--------|--------|--------|--------|--------|--------|
A|--------|--------|--------|--------|--------|--------|--------|--------|--------|
E|--------|--------|--------|--------|--------|--------|--------|--------|--------|


E|--------|--------|--------|--------|--------|--------|--------|--------|--------|
B|--------|--------|--------|--------|--------|--------|--------|--------|--------|
G|--------|--------|--------|--------|--------|--------|--------|--------|--------|
D|--------|--------|--------|--------|--------|--------|--------|--------|--------|
A|--------|--------|--------|--------|--------|--------|--------|--------|--------|
E|--------|--------|--------|--------|--------|--------|--------|--------|--------|


E|--------|--------|--------|--------|--------|--------|--------|--------|--------|
B|--------|--------|--------|--------|--------|--------|--------|--------|--------|
G|--------|--------|--------|--------|--------|--------|--------|--------|--------|
D|--------|--------|--------|--------|--------|--------|--------|--------|--------|
A|--------|--------|--------|--------|--------|--------|--------|--------|--------|
E|--------|--------|--------|--------|--------|--------|--------|--------|--------|


E|--------|--------|--------|--------|--------|--------|--------|--------|--------|
B|--------|--------|--------|--------|--------|--------|--------|--------|--------|
G|--------|--------|--------|--------|--------|--------|--------|--------|--------|
D|--------|--------|--------|--------|--------|--------|--------|--------|--------|
A|--------|--------|--------|--------|--------|--------|--------|--------|--------|
E|--------|--------|--------|--------|--------|--------|--------|--------|--------|


E|--------|--------|--------|--------|--------|-----------------------|------------------------------|
B|--------|--------|--------|--------|--------|-----------------------|------------------------------|
G|--------|--------|--------|--------|--------|-----------2---2----3--|-----3--3--3----3---3---------|
D|--------|--------|--------|--------|--------|-----------------------|------------------------------|
A|--------|--------|--------|--------|--------|-----------------------|------------------------------|
E|--------|--------|--------|--------|--------|-----------------------|------------------------------|


E|--------|--------|--------|--------|--------|--------|--------|--------|--------|
B|--------|--------|--------|--------|--------|--------|--------|--------|--------|
G|--------|--------|--------|--------|--------|--------|--------|--------|--------|
D|--------|--------|--------|--------|--------|--------|--------|--------|--------|
A|--------|--------|--------|--------|--------|--------|--------|--------|--------|
E|--------|--------|--------|--------|--------|--------|--------|--------|--------|


E|--------|--------|--------|--------|--------|--------|--------|--------|--------|
B|--------|--------|--------|--------|--------|--------|--------|--------|--------|
G|--------|--------|--------|--------|--------|--------|--------|--------|--------|
D|--------|--------|--------|--------|--------|--------|--------|--------|--------|
A|--------|--------|--------|--------|--------|--------|--------|--------|--------|
E|--------|--------|--------|--------|--------|--------|--------|--------|--------|





Track 8: Reverb

E|--------|--------|--------|--------|--------|--------|--------|--------|--------|
B|--------|--------|--------|--------|--------|--------|--------|--------|--------|
G|--------|--------|--------|--------|--------|--------|--------|--------|--------|
D|--------|--------|--------|--------|--------|--------|--------|--------|--------|
A|--------|--------|--------|--------|--------|--------|--------|--------|--------|
E|--------|--------|--------|--------|--------|--------|--------|--------|--------|


E|--------|--------|--------|--------|--------|--------|--------|--------|--------|
B|--------|--------|--------|--------|--------|--------|--------|--------|--------|
G|--------|--------|--------|--------|--------|--------|--------|--------|--------|
D|--------|--------|--------|--------|--------|--------|--------|--------|--------|
A|--------|--------|--------|--------|--------|--------|--------|--------|--------|
E|--------|--------|--------|--------|--------|--------|--------|--------|--------|


E|--------|--------|--------|--------|--------|--------|--------|--------|--------|
B|--------|--------|--------|--------|--------|--------|--------|--------|--------|
G|--------|--------|--------|--------|--------|--------|--------|--------|--------|
D|--------|--------|--------|--------|--------|--------|--------|--------|--------|
A|--------|--------|--------|--------|--------|--------|--------|--------|--------|
E|--------|--------|--------|--------|--------|--------|--------|--------|--------|


E|--------|--------|--------|--------|--------|--------|--------|--------|--------|
B|--------|--------|--------|--------|--------|--------|--------|--------|--------|
G|--------|--------|--------|--------|--------|--------|--------|--------|--------|
D|--------|--------|--------|--------|--------|--------|--------|--------|--------|
A|--------|--------|--------|--------|--------|--------|--------|--------|--------|
E|--------|--------|--------|--------|--------|--------|--------|--------|--------|


E|--------|--------|--------|--------|--------|--------|--------|--------|--------|
B|--------|--------|--------|--------|--------|--------|--------|--------|--------|
G|--------|--------|--------|--------|--------|--------|--------|--------|--------|
D|--------|--------|--------|--------|--------|--------|--------|--------|--------|
A|--------|--------|--------|--------|--------|--------|--------|--------|--------|
E|--------|--------|--------|--------|--------|--------|--------|--------|--------|


E|--------|--------|--------|--------|--------|--------|--------|--------|--------|
B|--------|--------|--------|--------|--------|--------|--------|--------|--------|
G|--------|--------|--------|--------|--------|--------|--------|--------|--------|
D|--------|--------|--------|--------|--------|--------|--------|--------|--------|
A|--------|--------|--------|--------|--------|--------|--------|--------|--------|
E|--------|--------|--------|--------|--------|--------|--------|--------|--------|


E|--------|--------|--------|--------|--------|--------|--------|--------|--------|
B|--------|--------|--------|--------|--------|--------|--------|--------|--------|
G|--------|--------|--------|--------|--------|--------|--------|--------|--------|
D|--------|--------|--------|--------|--------|--------|--------|--------|--------|
A|--------|--------|--------|--------|--------|--------|--------|--------|--------|
E|--------|--------|--------|--------|--------|--------|--------|--------|--------|


E|--------|--------|--------|--------|--------|--------|--------|--------|--------|
B|--------|--------|--------|--------|--------|--------|--------|--------|--------|
G|--------|--------|--------|--------|--------|--------|--------|--------|--------|
D|--------|--------|--------|--------|--------|--------|--------|--------|--------|
A|--------|--------|--------|--------|--------|--------|--------|--------|--------|
E|--------|--------|--------|--------|--------|--------|--------|--------|--------|


E|--------|--------|--------|--------|--------|--------|--------|--------|--------|
B|--------|--------|--------|--------|--------|--------|--------|--------|--------|
G|--------|--------|--------|--------|--------|--------|--------|--------|--------|
D|--------|--------|--------|--------|--------|--------|--------|--------|--------|
A|--------|--------|--------|--------|--------|--------|--------|--------|--------|
E|--------|--------|--------|--------|--------|--------|--------|--------|--------|


E|--------|--------|--------|--------|--------|--------|--------|--------|--------|
B|--------|--------|--------|--------|--------|--------|--------|--------|--------|
G|--------|--------|--------|--------|--------|--------|--------|--------|--------|
D|--------|--------|--------|--------|--------|--------|--------|--------|--------|
A|--------|--------|--------|--------|--------|--------|--------|--------|--------|
E|--------|--------|--------|--------|--------|--------|--------|--------|--------|


E|--------|--------|--------|--------|--------|--------|--------|--------|--------|
B|--------|--------|--------|--------|--------|--------|--------|--------|--------|
G|--------|--------|--------|--------|--------|--------|--------|--------|--------|
D|--------|--------|--------|--------|--------|--------|--------|--------|--------|
A|--------|--------|--------|--------|--------|--------|--------|--------|--------|
E|--------|--------|--------|--------|--------|--------|--------|--------|--------|


E|--------|--------|--------|--------|--------|--------|--------|--------|--------|
B|--------|--------|--------|--------|--------|--------|--------|--------|--------|
G|--------|--------|--------|--------|--------|--------|--------|--------|--------|
D|--------|--------|--------|--------|--------|--------|--------|--------|--------|
A|--------|--------|--------|--------|--------|--------|--------|--------|--------|
E|--------|--------|--------|--------|--------|--------|--------|--------|--------|


E|--------|--------|--------|--------|--------|--------|--------|--------|--------|
B|--------|--------|--------|--------|--------|--------|--------|--------|--------|
G|--------|--------|--------|--------|--------|--------|--------|--------|--------|
D|--------|--------|--------|--------|--------|--------|--------|--------|--------|
A|--------|--------|--------|--------|--------|--------|--------|--------|--------|
E|--------|--------|--------|--------|--------|--------|--------|--------|--------|


E|--------|----------------|--------|--------|--------|--------|--------|--------|
B|--------|------------19--|--------|--------|--------|--------|--------|--------|
G|--------|------------19--|--------|--------|--------|--------|--------|--------|
D|--------|----------------|--------|--------|--------|--------|--------|--------|
A|--------|----------------|--------|--------|--------|--------|--------|--------|
E|--------|----------------|--------|--------|--------|--------|--------|--------|


E|--------|--------|--------|--------|--------|--------|--------|--------|
B|--------|--------|--------|--------|--------|--------|--------|--------|
G|--------|--------|--------|--------|--------|--------|--------|--------|
D|--------|--------|--------|--------|--------|--------|--------|--------|
A|--------|--------|--------|--------|--------|--------|--------|--------|
E|--------|--------|--------|--------|--------|--------|--------|--------|





Track 9: Untitled

G|-----------------------------------------------------|-------------------------------------------------------|
D|--------------2-2-----------------------2-2----------|--------------2-2--------------------------------------|
A|--------2--3------3--2------------2--3------3--2-----|--------2--3------3--2-----2-2----2-2----1-1----0-0----|
E|-0-0-3------------------3--0-0-3------------------3--|-0-0-3------------------3------3------3------2------1--|


G|-----------------------------------------------------|-------------------------------------------------------|
D|--------------2-2-----------------------2-2----------|--------------2-2--------------------------------------|
A|--------2--3------3--2------------2--3------3--2-----|--------2--3------3--2-----2-2----2-2----1-1----0-0----|
E|-0-0-3------------------3--0-0-3------------------3--|-0-0-3------------------3------3------3------2------1--|


G|-----------------------------------------------------|-------------------------------------------------------|
D|--------------2-2-----------------------2-2----------|--------------2-2--------------------------------------|
A|--------2--3------3--2------------2--3------3--2-----|--------2--3------3--2-----2-2----2-2----1-1----0-0----|
E|-0-0-3------------------3--0-0-3------------------3--|-0-0-3------------------3------3------3------2------1--|


G|-----------------------------------------------------|-------------------------------------------------------|
D|--------------2-2-----------------------2-2----------|--------------2-2--------------------------------------|
A|--------2--3------3--2------------2--3------3--2-----|--------2--3------3--2-----2-2----2-2----1-1----0-0----|
E|-0-0-3------------------3--0-0-3------------------3--|-0-0-3------------------3------3------3------2------1--|


G|--------|--------|--------|--------|----------------------11-12-|-------12---------------|
D|--------|--------|--------|--------|----------------10----------|-8---------7----5----5--|
A|--------|--------|--------|--------|----------9--10-------------|------------------------|
E|-0------|--------|--------|--------|----------------------------|------------------------|


G|-------------------------|------------------------|-------------------------------------------|
D|-------------------4--5--|-------5----------------|-------------------------------------------|
A|-------------3-----------|-1---------0------------|-------------------------------------------|
E|-0-----2--3--------------|----------------3----3--|-0--0--0--0--0--0--0---0--0--3--5--0-------|


G|-------------------------------------------|-------------------------------------------|
D|-------------------------------------------|-------------------------------------------|
A|-------------------------------------------|---------------------------------------2---|
E|-0--0--0--0--0--0--0---0--0--3--5--0-------|-0--0--0--0--0--0--0---0--0--3--5--0-------|


G|---------------------------------|-------------------------------------------|-------------------------------------------|
D|---------------------------------|-------------------------------------------|-------------------------------------------|
A|-2---2---2---2---2---------------|-------------------------------------------|-------------------------------------------|
E|---------------------3---0-------|-0--0--0--0--0--0--0---0--0--3--5--0-------|-0--0--0--0--0--0--0---0--0--3--5--0-------|


G|-------------------------------------------|---------------------------------|-------------------------------------------|
D|-------------------------------------------|---------------------------------|-------------------------------------------|
A|---------------------------------------2---|-2---2---2---2---2---------------|-------------------------------------------|
E|-0--0--0--0--0--0--0---0--0--3--5--0-------|---------------------3---0-------|-0--0--0--0--0--0--0---0--0--3--5--0-------|


G|-------------------------------------------|-------------------------------------------|
D|-------------------------------------------|-------------------------------------------|
A|-------------------------------------------|---------------------------------------2---|
E|-0--0--0--0--0--0--0---0--0--3--5--0-------|-0--0--0--0--0--0--0---0--0--3--5--0-------|


G|---------------------------------|-------------------------------------------|-------------------------------------------|
D|---------------------------------|-------------------------------------------|-------------------------------------------|
A|-2---2---2---2---2---------------|-------------------------------------------|-------------------------------------------|
E|---------------------3---0-------|-0--0--0--0--0--0--0---0--0--3--5--0-------|-0--0--0--0--0--0--0---0--0--3--5--0-------|


G|-------------------------------------------|------------------------------|--------|
D|-------------------------------------------|------------------------------|--------|
A|---------------------------------------2---|-2---2---2---2---2------------|--------|
E|-0--0--0--0--0--0--0---0--0--3--5--0-------|---------------------1---1----|--------|


G|-----------------------------------------------------|-------------------------------------------------------|
D|--------------2-2-----------------------2-2----------|--------------2-2--------------------------------------|
A|--------2--3------3--2------------2--3------3--2-----|--------2--3------3--2-----2-2----2-2----1-1----0-0----|
E|-0-0-3------------------3--0-0-3------------------3--|-0-0-3------------------3------3------3------2------1--|


G|-----------------------------------------------------|-------------------------------------------------------|
D|--------------2-2-----------------------2-2----------|--------------2-2--------------------------------------|
A|--------2--3------3--2------------2--3------3--2-----|--------2--3------3--2-----2-2----2-2----1-1----0-0----|
E|-0-0-3------------------3--0-0-3------------------3--|-0-0-3------------------3------3------3------2------1--|


G|-----------------------------------------------------|-------------------------------------------------------|
D|--------------2-2-----------------------2-2----------|--------------2-2--------------------------------------|
A|--------2--3------3--2------------2--3------3--2-----|--------2--3------3--2-----2-2----2-2----1-1----0-0----|
E|-0-0-3------------------3--0-0-3------------------3--|-0-0-3------------------3------3------3------2------1--|


G|-----------------------------------------------------|-------------------------------------------------------|
D|--------------2-2-----------------------2-2----------|--------------2-2--------------------------------------|
A|--------2--3------3--2------------2--3------3--2-----|--------2--3------3--2-----2-2----2-2----1-1----0-0----|
E|-0-0-3------------------3--0-0-3------------------3--|-0-0-3------------------3------3------3------2------1--|


G|--------|--------|--------|--------|----------------------11-12-|-------12---------------|
D|--------|--------|--------|--------|----------------10----------|-8---------7----5----5--|
A|--------|--------|--------|--------|----------9--10-------------|------------------------|
E|-0------|--------|--------|--------|----------------------------|------------------------|


G|-------------------------|------------------------|-------------------------------------------|
D|-------------------4--5--|-------5----------------|-------------------------------------------|
A|-------------3-----------|-1---------0------------|-------------------------------------------|
E|-0-----2--3--------------|----------------3----3--|-0--0--0--0--0--0--0---0--0--3--5--0-------|


G|-------------------------------------------|-------------------------------------------|
D|-------------------------------------------|-------------------------------------------|
A|-------------------------------------------|---------------------------------------2---|
E|-0--0--0--0--0--0--0---0--0--3--5--0-------|-0--0--0--0--0--0--0---0--0--3--5--0-------|


G|---------------------------------|-------------------------------------------|-------------------------------------------|
D|---------------------------------|-------------------------------------------|-------------------------------------------|
A|-2---2---2---2---2---------------|-------------------------------------------|-------------------------------------------|
E|---------------------3---0-------|-0--0--0--0--0--0--0---0--0--3--5--0-------|-0--0--0--0--0--0--0---0--0--3--5--0-------|


G|-------------------------------------------|---------------------------------|-------------------------------------------|
D|-------------------------------------------|---------------------------------|-------------------------------------------|
A|---------------------------------------2---|-2---2---2---2---2---------------|-------------------------------------------|
E|-0--0--0--0--0--0--0---0--0--3--5--0-------|---------------------3---0-------|-0--0--0--0--0--0--0---0--0--3--5--0-------|


G|-------------------------------------------|-------------------------------------------|
D|-------------------------------------------|-------------------------------------------|
A|-------------------------------------------|---------------------------------------2---|
E|-0--0--0--0--0--0--0---0--0--3--5--0-------|-0--0--0--0--0--0--0---0--0--3--5--0-------|


G|---------------------------------|-------------------------------------------|-------------------------------------------|
D|---------------------------------|-------------------------------------------|-------------------------------------------|
A|-2---2---2---2---2---------------|-------------------------------------------|-------------------------------------------|
E|---------------------3---0-------|-0--0--0--0--0--0--0---0--0--3--5--0-------|-0--0--0--0--0--0--0---0--0--3--5--0-------|


G|-------------------------------------------|------------------------------|--------|
D|-------------------------------------------|------------------------------|--------|
A|---------------------------------------2---|-2---2---2---2---2------------|--------|
E|-0--0--0--0--0--0--0---0--0--3--5--0-------|---------------------1---1----|--------|


G|-----------------------------------------------------|-------------------------------------------------------|
D|--------------2-2-----------------------2-2----------|--------------2-2--------------------------------------|
A|--------2--3------3--2------------2--3------3--2-----|--------2--3------3--2-----2-2----2-2----1-1----0-0----|
E|-0-0-3------------------3--0-0-3------------------3--|-0-0-3------------------3------3------3------2------1--|


G|-----------------------------------------------------|-------------------------------------------------------|
D|--------------2-2-----------------------2-2----------|--------------2-2--------------------------------------|
A|--------2--3------3--2------------2--3------3--2-----|--------2--3------3--2-----2-2----2-2----1-1----0-0----|
E|-0-0-3------------------3--0-0-3------------------3--|-0-0-3------------------3------3------3------2------1--|


G|-----------------------------------------------------|-------------------------------------------------------|
D|--------------2-2-----------------------2-2----------|--------------2-2--------------------------------------|
A|--------2--3------3--2------------2--3------3--2-----|--------2--3------3--2-----2-2----2-2----1-1----0-0----|
E|-0-0-3------------------3--0-0-3------------------3--|-0-0-3------------------3------3------3------2------1--|


G|-----------------------------------------------------|-------------------------------------------------------|
D|--------------2-2-----------------------2-2----------|--------------2-2--------------------------------------|
A|--------2--3------3--2------------2--3------3--2-----|--------2--3------3--2-----2-2----2-2----1-1----0-0----|
E|-0-0-3------------------3--0-0-3------------------3--|-0-0-3------------------3------3------3------2------1--|


G|--------------------|---------------------------------------------------|---------------------------------------------------|
D|--------------------|---------------------------------------------------|---------------------------------------------------|
A|--------------------|-1--2-1----1-----1--------1--2-1----1-----1--------|-1--2-1----1-----1--------1--2-1----1-----1--------|
E|---------------19---|--------3-----3-----0--3---------3-----3-----0--3--|--------3-----3-----0--3---------3-----3-----0--3--|


G|---------------------------------------------------|---------------------------------------------------|
D|---------------------------------------------------|---------------------------------------------------|
A|-1--2-1----1-----1--------1--2-1----1-----1--------|-1--2-1----1-----1--------1--2-1----1-----1--------|
E|--------3-----3-----0--3---------3-----3-----0--3--|--------3-----3-----0--3---------3-----3-----0--3--|


G|---------------------------------------------------|---------------------------------------------------|
D|---------------------------------------------------|---------------------------------------------------|
A|-1--2-1----1-----1--------1--2-1----1-----1--------|-1--2-1----1-----1--------1--2-1----1-----1--------|
E|--------3-----3-----0--3---------3-----3-----0--3--|--------3-----3-----0--3---------3-----3-----0--3--|


G|---------------------------------------------------|---------------------------------------------------|
D|---------------------------------------------------|---------------------------------------------------|
A|-1--2-1----1-----1--------1--2-1----1-----1--------|-1--2-1----1-----1--------1--2-1----1-----1--------|
E|--------3-----3-----0--3---------3-----3-----0--3--|--------3-----3-----0--3---------3-----3-----0--3--|


G|----------------------------------------------------|---------------------------------------------------|
D|----------------------------------------------------|---------------------------------------------------|
A|-1--2-1----1--------2--3-2----2--------3--4-3-------|-------4--5-4----4--------5--6-5----5--------------|
E|--------3-----0--3---------4-----2--5---------5--3--|-3--6---------6-----4--7---------7-----7--6--5--3--|


G|------------------------------------------------|-------------------------------------------------|
D|------------------------------------------------|-------------------------------------------------|
A|-2--3-2----2------------------------------7--7--|----7--7-----------------------------------7--7--|
E|--------5-----5---3---2---1---0--0--0--0-----0--|-0-----0--0--1--1--1--1--1--1--0--0--0--0-----0--|


G|-------------------------------------------------|-------------------------------------------------|
D|-------------------------------------------------|-------------------------------------------------|
A|----7--7-----------------------------------7--7--|----7--7-----------------------------------7--7--|
E|-0-----0--0--1--1--1--1--1--1--0--0--0--0-----0--|-0-----0--0--1--1--1--1--1--1--0--0--0--0-----0--|


G|-------------------------------------------------|-------------------------------------------------|
D|-------------------------------------------4-----|----4--------------------------------------4-----|
A|----7--7-----------------------------------------|-------------------------------------------------|
E|-0-----0--0--1--1--1--1--1--1--2--2--2--2-----2--|-2-----2--2--3--3--3--3--3--3--2--2--2--2-----2--|


G|-------------------------------------------------|-------------------------------------------------|
D|----4--------------------------------------------|-------------------------------------------------|
A|-------------------------------------------7--7--|----7--7-----------------------------------7--7--|
E|-2-----2--2--3--3--3--3--3--3--0--0--0--0-----0--|-0-----0--0--1--1--1--1--1--1--0--0--0--0-----0--|


G|-----------------------------------------------|-----------------------------------------------|
D|-----------------------------------------------|-----------------------------------------------|
A|----7--7---------------------------------------|-----------------7--7-----7--7-----------------|
E|-0-----0--0--1--1--1--1--1--1--0--0-----0--0---|-----0--0--0--0-----0--0-----0--0--1--1--1--1--|


G|-------------------------------------------------|-------------------------------------------------|
D|-------------------------------------------------|-------------------------------------------------|
A|-------------------7--7-----7--7-----------------|-------------------7--7-----7--7-----------------|
E|-1--1--0--0--0--0-----0--0-----0--0--1--1--1--1--|-1--1--0--0--0--0-----0--0-----0--0--1--1--1--1--|


G|-------------------------------------------------|-------------------------------------------------|
D|-------------------------------------------------|-------------------4--------4--4--4--------------|
A|-------------------7--7-----7--7-----------------|-------------------------------------------------|
E|-1--1--0--0--0--0-----0--0-----0--0--1--1--1--1--|-1--1--2--2--2--2-----2--2-----2--2--3--3--3--3--|


G|-------------------------------------------------|-------------------------------------------------|
D|-------------------4--4-----4--------------------|-2--4--------------------------------------------|
A|-------------------------------------------2--4--|-------------------7--7-----7--7-----------------|
E|-3--3--2--2--2--2--------2-----2--2--3--3--------|-------0--0--0--0-----0--0-----0--0--1--1--1--1--|


G|-------------------------------------------------|---------------------------------------------|
D|-------------------------------------------------|---------------------------------------------|
A|-------------------7--7-----7--7-----------------|---------------------------------------7--7--|
E|-1--1--0--0--0--0-----0--0-----0--0--1--1--1--1--|-1--1--0--0-----0--0-------0--0--0--0-----0--|


G|-------------------------------------------------|-------------------------------------------------|
D|-------------------------------------------------|-------------------------------------------------|
A|----7--7-----------------------------------7--7--|----7--7-----------------------------------7--7--|
E|-0-----0--0--1--1--1--1--1--1--0--0--0--0-----0--|-0-----0--0--1--1--1--1--1--1--0--0--0--0-----0--|


G|-------------------------------------------------|-------------------------------------------------|
D|-------------------------------------------------|-------------------------------------------4-----|
A|----7--7-----------------------------------7--7--|----7--7-----------------------------------------|
E|-0-----0--0--1--1--1--1--1--1--0--0--0--0-----0--|-0-----0--0--1--1--1--1--1--1--2--2--2--2-----2--|


G|-------------------------------------------------|-------------------------------------------------|
D|----4--------------------------------------4-----|----4--------------------------------------------|
A|-------------------------------------------------|-------------------------------------------7--7--|
E|-2-----2--2--3--3--3--3--3--3--2--2--2--2-----2--|-2-----2--2--3--3--3--3--3--3--0--0--0--0-----0--|


G|-------------------------------------------------|-----------------------------------------------|
D|-------------------------------------------------|-----------------------------------------------|
A|----7--7-----------------------------------7--7--|----7--7---------------------------------------|
E|-0-----0--0--1--1--1--1--1--1--0--0--0--0-----0--|-0-----0--0--1--1--1--1--1--1--0--0-----0--0---|


G|-----------------------------------------------|-------------------------------------------------|
D|-----------------------------------------------|-------------------------------------------------|
A|-----------------7--7-----7--7-----------------|-------------------7--7-----7--7-----------------|
E|-----0--0--0--0-----0--0-----0--0--1--1--1--1--|-1--1--0--0--0--0-----0--0-----0--0--1--1--1--1--|


G|-------------------------------------------------|-------------------------------------------------|
D|-------------------------------------------------|-------------------------------------------------|
A|-------------------7--7-----7--7-----------------|-------------------7--7-----7--7-----------------|
E|-1--1--0--0--0--0-----0--0-----0--0--1--1--1--1--|-1--1--0--0--0--0-----0--0-----0--0--1--1--1--1--|


G|-------------------------------------------------|-------------------------------------------------|
D|-------------------------------------------------|-------------------------------------------------|
A|-------------------------------------------------|-------------------------------------------2--4--|
E|-1--1--0--2--2--2--3--2--2--2--4--3--3--3--3--3--|-3--3--0--2--2--2--3--2--2--2--4--3--3--3--------|


G|-------------------------------------------------|-------------------------------------------------|
D|-2--4--------------------------------------------|-------------------------------------------------|
A|-------------------7--7-----7--7-----------------|-------------------7--7-----7--7-----------------|
E|-------0--0--0--0-----0--0-----0--0--1--1--1--1--|-1--1--0--0--0--0-----0--0-----0--0--1--1--1--1--|


G|-------------------------------------------|--------------------------------------|
D|-------------------------------------------|--------------------------------------|
A|-------------------------------------------|--------------------------------------|
E|-1--1--0--0-----0--0-------0--0--0--0--1---|-----0--0-----0--0---0--0--0--0--1----|


G|----------------------------------------|----------------------------------------|
D|----------------------------------------|----------------------------------------|
A|----------------------------------------|----------------------------------------|
E|-0--0-----0--0---0--0--0--0--1----0--0--|----0--0---0--0--0--0--1----0--0-----0--|


G|--------------------------------------|------------------------------------------|
D|--------------------------------------|------------------------------------------|
A|--------------------------------------|------------------------------------------|
E|-0-------0--0--0--0--1----0--0--0--0--|-0--0--0--0--0--0--0--0--1----0--0--0--0--|


G|------------------------------------------|------------------------------------------|
D|------------------------------------------|------------------------------------------|
A|------------------------------------------|------------------------------------------|
E|-0--0--0--0--0--0--0--0--1----0--0--0--0--|-0--0--0--0--0--0--0--0--1----0--0--0--0--|


G|------------------------------------------|------------------------------------------|
D|------------------------------------------|------------------------------------------|
A|------------------------------------------|------------------------------------------|
E|-0--0--0--0--0--0--0--0--1----0--0--0--0--|-0--0--0--0--0--0--0--0--1----0--0--0--0--|


G|------------------------------------------|------------------------------------------|
D|------------------------------------------|------------------------------------------|
A|------------------------------------------|------------------------------------------|
E|-0--0--0--0--0--0--0--0--1----0--0--0--0--|-0--0--0--0--0--0--0--0--1----0--0--0--0--|


G|------------------------------------------|--------------------|
D|------------------------------------------|--------------------|
A|------------------------------------------|--------------------|
E|-0--0--0--0--0--0--0--0--1----0--0--0--0--|-0--0--0--0---------|