Menu:

 

Search:

 

pantera - shattered:

 



Title: Shattered
Artist: 
Album: Cowboys From Hell
Author: Pantera


Track 1: Dime (Rhy.)

E|-------------------------------------------------|-------------------------------------------------|
B|-------------------------------------------------|-------------------------------------------------|
G|-------------------------------------------------|-------------------------------------------------|
D|-6---6---6---6---6---6---6---6---6---6---6---6---|-6---6---6---6---6---6---6---6---6---6---6---6---|
A|-4---4---4---4---4---4---4---4---4---4---4---4---|-4---4---4---4---4---4---4---4---4---4---4---4---|
D|-------------------------------------------------|-------------------------------------------------|


E|-------------------------------------------------|-------------------------------------------------|
B|-------------------------------------------------|-------------------------------------------------|
G|-------------------------------------------------|-------------------------------------------------|
D|-6---6---6---6---6---6---6---6---6---6---6---6---|-6---6---6---6---6---6---6---6---6---6---6---6---|
A|-4---4---4---4---4---4---4---4---4---4---4---4---|-4---4---4---4---4---4---4---4---4---4---4---4---|
D|-------------------------------------------------|-------------------------------------------------|


E|-------------------------------------------------|-------------------------------------------------|
B|-------------------------------------------------|-------------------------------------------------|
G|-------------------------------------------------|-------------------------------------------------|
D|-6---6---6---6---6---6---6---6---6---6---6---6---|-6---6---6---6---6---6---6---6---6---6---6---6---|
A|-4---4---4---4---4---4---4---4---4---4---4---4---|-4---4---4---4---4---4---4---4---4---4---4---4---|
D|-------------------------------------------------|-------------------------------------------------|


E|-------------------------------------------------|-------------------------------------------------|
B|-------------------------------------------------|-------------------------------------------------|
G|-------------------------------------------------|-------------------------------------------------|
D|-6---6---6---6---6---6---6---6---6---6---6---6---|-6---6---6---6---6---6---6---6---6---6---6---6---|
A|-4---4---4---4---4---4---4---4---4---4---4---4---|-4---4---4---4---4---4---4---4---4---4---4---4---|
D|-------------------------------------------------|-------------------------------------------------|


E|-----------------|-----------------|-------------|------------------------|------------------------|
B|-----------------|-----------------|-------------|------------------------|------------------------|
G|-9----7----9-----|-----------------|-------------|------------------------|------------------------|
D|-9----7----9-----|-------2----0----|-2-----------|-2---2----2----2----2---|-----2----2---3----3----|
A|-7----5----7-----|-------2----0----|-2-----------|-2---2----2----2----2---|-----2----2---3----3----|
D|-----------------|-12----2----0----|-2-----------|-2---2----2----2----2---|-----2----2---3----3----|


E|---------------------------------|-----------------------|---------------------------|
B|---------------------------------|-----------------------|---------------------------|
G|-------------2-------4-------5---|-----4-------2---------|---------------------------|
D|-2---3---4-------4-------4-------|-4-------4-------4-----|-------------2----4----5---|
A|---------------------------------|-----------------------|-2---3---4---0----2----3---|
D|---------------------------------|-----------------------|-2---3---4-----------------|


E|--------------------|---------------------------------|-----------------------|---------------------------|
B|--------------------|---------------------------------|-----------------------|---------------------------|
G|--------------------|-------------2-------4-------5---|-----4-------2---------|---------------------------|
D|-----4----2---------|-2---3---4-------4-------4-------|-4-------4-------4-----|-------------2----4----5---|
A|-----2----0---4-----|---------------------------------|-----------------------|-2---3---4---0----2----3---|
D|--------------4-----|---------------------------------|-----------------------|-2---3---4-----------------|


E|--------------------|---------------------------------|-----------------------|---------------------------|
B|--------------------|---------------------------------|-----------------------|---------------------------|
G|--------------------|-------------2-------4-------5---|-----4-------2---------|---------------------------|
D|-----4----2---------|-2---3---4-------4-------4-------|-4-------4-------4-----|-------------2----4----5---|
A|-----2----0---4-----|---------------------------------|-----------------------|-2---3---4---0----2----3---|
D|--------------4-----|---------------------------------|-----------------------|-2---3---4-----------------|


E|--------------------|---------------------------------|-----------------------|---------------------------|
B|--------------------|---------------------------------|-----------------------|---------------------------|
G|--------------------|-------------2-------4-------5---|-----4-------2---------|---------------------------|
D|-----4----2---------|-2---3---4-------4-------4-------|-4-------4-------4-----|-------------2----4----5---|
A|-----2----0---4-----|---------------------------------|-----------------------|-2---3---4---0----2----3---|
D|--------------4-----|---------------------------------|-----------------------|-2---3---4-----------------|


E|--------------------|---------------------------------|--------------------------------|
B|--------------------|---------------------------------|--------------------------------|
G|--------------------|-6-----------6-------7-------6---|---------6-------7--7--6---4----|
D|-----4----2---------|-6-----------6-------7-------6---|---------6-------7--7--6---4----|
A|-----2----0---4-----|-----4---4-------4-------4-------|-4---4-------4------------------|
D|--------------4-----|---------------------------------|--------------------------------|


E|---------------------------------|---------------------------------|-----------------------------------|
B|---------------------------------|---------------------------------|-----------------------------------|
G|-6-----------6-------7-------6---|---------------------------------|-4--4--6-------6-------7-------6---|
D|-6-----------6-------7-------6---|---------------------------------|-4--4--6-------6-------7-------6---|
A|-----4---4-------4-------4-------|-4---4---4---4---4---4---4---4---|-----------4-------4-------4-------|
D|---------------------------------|---------------------------------|-----------------------------------|


E|----------------------------------|---------------------------------|---------------------------------|
B|----------------------------------|---------------------------------|---------------------------------|
G|---------6-------4--4--6--6--4----|-6-----------6-------7-------6---|---------------------------------|
D|---------6-------4--4--6--6--4----|-6-----------6-------7-------6---|---------------------------------|
A|-4---4-------4--------------------|-4---4---4-------4-------4-------|-4---4---4---4---4---4---4---4---|
D|----------------------------------|---------------------------------|---------------------------------|


E|--------|------0------|---------------------------------|---------------------------------|
B|--------|-------------|---------------------------------|---------------------------------|
G|--------|-7-----------|-6-----------6-------7-----------|-6-----------6-------4-----------|
D|-2------|-7-----------|-6-----------6-------7-----------|-6-----------6-------4-----------|
A|-2------|-5-----------|-----4---4-------4-------4---4---|-----4---4-------4-------4---4---|
D|-2------|-------------|---------------------------------|---------------------------------|


E|---------------------------------|---------------------------|--------|------0------|
B|---------------------------------|---------------------------|--------|-------------|
G|-6-----------6-------7-----------|-6-----------6-------4-----|--------|-7-----------|
D|-6-----------6-------7-----------|-6-----------6-------4-----|-2------|-7-----------|
A|-----4---4-------4-------4---4---|-----4---4-------4---------|-2------|-5-----------|
D|---------------------------------|---------------------------|-2------|-------------|


E|-------------------------------------------------|-------------|---------------------------------|
B|-------------------------------------------------|-------------|---------------------------------|
G|-------------------------------------------------|-4-----------|-------------4-------6-------7---|
D|-------------------------------------------------|-4-----------|-4---5---6-------6-------6-------|
A|-2---2---2---2---2---2---2---2---2---2---2---2---|-2-----------|---------------------------------|
D|-------------------------------------------------|-------------|---------------------------------|


E|-----------------------|---------------------------|--------------------|---------------------------------|
B|-----------------------|---------------------------|--------------------|---------------------------------|
G|-----6-------4---------|---------------------------|--------------------|-------------4-------6-------7---|
D|-6-------6-------6-----|-------------4----6----7---|-----6----4---------|-4---5---6-------6-------6-------|
A|-----------------------|-4---5---6---2----4----5---|-----4----2---6-----|---------------------------------|
D|-----------------------|-4---5---6-----------------|--------------6-----|---------------------------------|


E|-----------------------|---------------------------|--------------------|---------------------------------|
B|-----------------------|---------------------------|--------------------|---------------------------------|
G|-----6-------4---------|---------------------------|--------------------|-------------2-------4-------5---|
D|-6-------6-------6-----|-------------4----6----7---|-----6----4---------|-2---3---4-------4-------4-------|
A|-----------------------|-4---5---6---2----4----5---|-----4----2---6-----|---------------------------------|
D|-----------------------|-4---5---6-----------------|--------------6-----|---------------------------------|


E|-----------------------|---------------------------|--------------------|---------------------------------|
B|-----------------------|---------------------------|--------------------|---------------------------------|
G|-----4-------2---------|---------------------------|--------------------|-------------2-------4-------5---|
D|-4-------4-------4-----|-------------2----4----5---|-----4----2---------|-2---3---4-------4-------4-------|
A|-----------------------|-2---3---4---0----2----3---|-----2----0---4-----|---------------------------------|
D|-----------------------|-2---3---4-----------------|--------------4-----|---------------------------------|


E|-----------------------|--------------------|--------|---------------------------------|
B|-----------------------|--------------------|--------|---------------------------------|
G|-----4-------2---------|--------------------|--------|-6-----------6-------7-------6---|
D|-4-------4-------4-----|-----4--------------|--------|-6-----------6-------7-------6---|
A|-----------------------|-----4--------------|--------|-----4---4-------4-------4-------|
D|-----------------------|-2---4--------------|--------|---------------------------------|


E|----------------------------------|---------------------------------|---------------------------------|
B|----------------------------------|---------------------------------|---------------------------------|
G|---------6-------4--4--6--6--4----|-6-----------6-------7-------6---|---------------------------------|
D|---------6-------4--4--6--6--4----|-6-----------6-------7-------6---|---------------------------------|
A|-4---4-------4--------------------|-----4---4-------4-------4-------|-4---4---4---4---4---4---4---4---|
D|----------------------------------|---------------------------------|---------------------------------|


E|-----------------------------------|----------------------------------|---------------------------------|
B|-----------------------------------|----------------------------------|---------------------------------|
G|-4--4--6-------6-------7-------6---|---------6-------4--4--6--6--4----|-6-----------6-------7-------6---|
D|-4--4--6-------6-------7-------6---|---------6-------4--4--6--6--4----|-6-----------6-------7-------6---|
A|-----------4-------4-------4-------|-4---4-------4--------------------|-----4---4-------4-------4-------|
D|-----------------------------------|----------------------------------|---------------------------------|


E|---------------------------------|--------|------0------|---------------------------------|
B|---------------------------------|--------|-------------|---------------------------------|
G|---------------------------------|--------|-7-----------|-6-----------6-------7-----------|
D|---------------------------------|-2------|-7-----------|-6-----------6-------7-----------|
A|-4---4---4---4---4---4---4---4---|-2------|-5-----------|-----4---4-------4-------4---4---|
D|---------------------------------|-2------|-------------|---------------------------------|


E|---------------------------------|---------------------------------|---------------------------------|
B|---------------------------------|---------------------------------|---------------------------------|
G|-6-----------6-------7-----------|-6-----------6-------7-----------|-6-----------6-------7-----------|
D|-6-----------6-------7-----------|-6-----------6-------7-----------|-6-----------6-------7-----------|
A|-----4---4-------4-------4---4---|-----4---4-------4-------4---4---|-----4---4-------4-------4---4---|
D|---------------------------------|---------------------------------|---------------------------------|


E|--------|------0------|-------------------------------------------------|-------------|
B|--------|-------------|-------------------------------------------------|-------------|
G|--------|-7-----------|-------------------------------------------------|-4-----------|
D|-2------|-7-----------|-------------------------------------------------|-4-----------|
A|-2------|-5-----------|-2---2---2---2---2---2---2---2---2---2---2---2---|-2-----------|
D|-2------|-------------|-------------------------------------------------|-------------|


E|---------------------------------|-----------------------|---------------------------|
B|---------------------------------|-----------------------|---------------------------|
G|-------------4-------6-------7---|-----6-------4---------|---------------------------|
D|-4---5---6-------6-------6-------|-6-------6-------6-----|-------------4----6----7---|
A|---------------------------------|-----------------------|-4---5---6---2----4----5---|
D|---------------------------------|-----------------------|-4---5---6-----------------|


E|--------------------|---------------------------------|-----------------------|---------------------------|
B|--------------------|---------------------------------|-----------------------|---------------------------|
G|--------------------|-------------4-------6-------7---|-----6-------4---------|---------------------------|
D|-----6----4---------|-4---5---6-------6-------6-------|-6-------6-------6-----|-------------4----6----7---|
A|-----4----2---6-----|---------------------------------|-----------------------|-4---5---6---2----4----5---|
D|--------------6-----|---------------------------------|-----------------------|-4---5---6-----------------|


E|--------------------|---------------------------------|-----------------------|-----------------|
B|--------------------|---------------------------------|-----------------------|-----------------|
G|--------------------|---------2-------4-------5-------|-4-------2-------------|-----------------|
D|-----6----4---------|-3---4-------4-------4-------4---|-----4-------4---------|-4-----4-----4---|
A|-----4----2---6-----|---------------------------------|-----------------------|-4-----4-----4---|
D|--------------6-----|---------------------------------|-------------------2---|-4-----4-----4---|


E|-----------------------|----------------|---------------------------|----------------|
B|-----------------------|----------------|---------------------------|----------------|
G|---------------5---5---|------------5---|-------5---4---2-----------|----------------|
D|---------------4---4---|------------4---|-------4---3---2---4---4---|-----4------4---|
A|---------------3---3---|------------3---|-------------------4---4---|-----4------4---|
D|-----------------------|----------------|-------------------4---4---|-----4------4---|


E|---------------------|----------------|---------------------------|----------------|
B|---------------------|----------------|---------------------------|----------------|
G|-------------5---5---|------------5---|-------5---4---2-----------|----------------|
D|-------------4---4---|------------4---|-------4---3---2---4---4---|-----4------4---|
A|-------------3---3---|------------3---|-------------------4---4---|-----4------4---|
D|---------------------|----------------|-------------------4---4---|-----4------4---|


E|---------------------|----------------|---------------------------|----------------|
B|---------------------|----------------|---------------------------|----------------|
G|-------------5---5---|------------5---|-------5---4---2-----------|----------------|
D|-------------4---4---|------------4---|-------4---3---2---4---4---|-----4------4---|
A|-------------3---3---|------------3---|-------------------4---4---|-----4------0---|
D|---------------------|----------------|-------------------4---4---|-----4------0---|


E|-----------------------|----------------|----------------------------|---------------------------------|
B|-----------------------|----------------|----------------------------|---------------------------------|
G|---------------5---5---|------------5---|----------------------------|---------------------------------|
D|---------------4---4---|------------4---|-------2---3---2------------|---------------------------------|
A|---------------3---3---|------------3---|-------2---3---2---0--------|-----2---2-------3---3-------4---|
D|-----------------------|----------------|----------------------------|-------------5-----------6-------|


E|------------------------------|------------------------------|------------------------------|
B|------------------------------|------------------------------|------------------------------|
G|--------------------------6---|---------------------6----4---|-6-------------------6----4---|
D|--------------------------6---|---------------------6----4---|-6-------------------6----4---|
A|-4-------5---5-------6--------|-----4---4---4---4------------|-----4---4---4---4------------|
D|-----7-----------8------------|------------------------------|------------------------------|


E|---------------------------|---------------------------|------------------------------|
B|---------------------------|---------------------------|------------------------------|
G|-6---6----4---6---6----4---|-6---6-----------------4---|-6-------------------6----4---|
D|-6---6----4---6---6----4---|-6---6------------4----4---|-6-------------------6----4---|
A|---------------------------|------------------2--------|-----4---4---4---4------------|
D|---------------------------|---------4----4------------|------------------------------|


E|------------------------------|---------------------------|---------------------|
B|------------------------------|---------------------------|---------------------|
G|-6-------------------6----4---|-6---6----4---6---6--------|-----------------8---|
D|-6-------------------6----4---|-6---6----4---6---6----4---|------5-----6----8---|
A|-----4---4---4---4------------|-----------------------2---|------3-----4--------|
D|------------------------------|---------------------------|---------------------|


E|------------------------------|------------------------------|---------------------------|
B|------------------------------|------------------------------|---------------------------|
G|---------------------8----6---|-8-------------------8----6---|-8---8----6---8---8----6---|
D|---------------------8----6---|-8-------------------8----6---|-8---8----6---8---8----6---|
A|-----6---6---6---6------------|-----6---6---6---6------------|---------------------------|
D|------------------------------|------------------------------|---------------------------|


E|---------------------------------|------------------------------|------------------------------|
B|---------------------------------|------------------------------|------------------------------|
G|-8---8---8-------------------6---|-8-------------------8----6---|-8-------------------8----6---|
D|-8---8---8-------------------6---|-8-------------------8----6---|-8-------------------8----6---|
A|---------------------4---6-------|-----6---6---6---6------------|-----6---6---6---6------------|
D|-------------4---6---------------|------------------------------|------------------------------|


E|---------------------------|---------------------|------------------------------|
B|---------------------------|---------------------|------------------------------|
G|-8---8----6---8---8----11--|------10----9----6---|---------------------6----4---|
D|-8---8----6---8---8----11--|------10----9----6---|---------------------6----4---|
A|-----------------------9---|------8-----7--------|-----4---4---4---4------------|
D|---------------------------|---------------------|------------------------------|


E|------------------------------|---------------------------|---------------------------|
B|------------------------------|---------------------------|---------------------------|
G|-6-------------------6----4---|-6---6----4---6---6----4---|-6---6-----------------4---|
D|-6-------------------6----4---|-6---6----4---6---6----4---|-6---6------------4----4---|
A|-----4---4---4---4------------|---------------------------|------------------2--------|
D|------------------------------|---------------------------|---------4----4------------|


E|------------------------------|------------------------------|---------------------------|
B|------------------------------|------------------------------|---------------------------|
G|-6-------------------6----4---|-6-------------------6----4---|-6---6----4---6---6----11--|
D|-6-------------------6----4---|-6-------------------6----4---|-6---6----4---6---6----11--|
A|-----4---4---4---4------------|-----4---4---4---4------------|-----------------------9---|
D|------------------------------|------------------------------|---------------------------|


E|------------------------|---------------------------------------------------|---------------------------------------------------|
B|------------------------|---------------------------------------------------|---------------------------------------------------|
G|------10----9-----------|---------------------------------------------------|---------------------------------------------------|
D|------10----9----8---8--|----8---8---8---8---8---8---8---8---8---8---8---8--|----8---8---8---8---8---8---8---8---8---8---8---8--|
A|------8-----7----6---6--|----6---6---6---6---6---6---6---6---6---6---6---6--|----6---6---6---6---6---6---6---6---6---6---6---6--|
D|------------------------|---------------------------------------------------|---------------------------------------------------|


E|---------------------------------------------------|---------------------------------------------------|
B|---------------------------------------------------|---------------------------------------------------|
G|---------------------------------------------------|---------------------------------------------------|
D|----8---8---8---8---8---8---8---8---8---8---8---8--|----8---8---8---8---8---8---8---8---8---8---8---8--|
A|----6---6---6---6---6---6---6---6---6---6---6---6--|----6---6---6---6---6---6---6---6---6---6---6---6--|
D|---------------------------------------------------|---------------------------------------------------|


E|---------------------------------------------------|---------------------------------------------------|
B|---------------------------------------------------|---------------------------------------------------|
G|---------------------------------------------------|---------------------------------------------------|
D|----8---8---8---8---8---8---8---8---8---8---8---8--|----8---8---8---8---8---8---8---8---8---8---8---8--|
A|----6---6---6---6---6---6---6---6---6---6---6---6--|----6---6---6---6---6---6---6---6---6---6---6---6--|
D|---------------------------------------------------|---------------------------------------------------|


E|---------------------------------------------------|------------------------------------------------|
B|---------------------------------------------------|------------------------------------------------|
G|---------------------------------------------------|--------------------------------------------11--|
D|----8---8---8---8---8---8---8---8---8---8---8---8--|----8---8---8---8---8---8---8---8---8---8---11--|
A|----6---6---6---6---6---6---6---6---6---6---6---6--|----6---6---6---6---6---6---6---6---6---6---9---|
D|---------------------------------------------------|------------------------------------------------|


E|--------------------|---------------------|---------24---20-----------|------------------------|
B|--------------------|---------------------|---------24---20-----------|------------------------|
G|-----9----11--------|---------------------|---------24---20-----------|------------------------|
D|-----9----11--------|-------4----2----4---|-----------------------4---|-4----4----4----4-------|
A|-----7----9---------|-------4----2----4---|-----------------------4---|-4----4----4----4-------|
D|----------------11--|-------4----2----4---|-----------------------4---|-4----4----4----4-------|


E|------------------------|---------------------------------|-----------------------|
B|------------------------|---------------------------------|-----------------------|
G|------------------------|---------4-------6-------7-------|-6-------4-------------|
D|-4----4---5----5----4---|-5---6-------6-------6-------6---|-----6-------6---------|
A|-4----4---5----5--------|---------------------------------|-------------------4---|
D|-4----4---5----5--------|---------------------------------|-------------------4---|


E|---------------------------|--------------------|---------------------------------|
B|---------------------------|--------------------|---------------------------------|
G|---------------------------|--------------------|---------4-------6-------7-------|
D|---------4----6----7-------|-6----4---------4---|-5---6-------6-------6-------6---|
A|-5---6---2----4----5-------|-4----2---6---------|---------------------------------|
D|-5---6---------------------|----------6---------|---------------------------------|


E|-----------------------|---------------------------|--------------------|---------------------------------|
B|-----------------------|---------------------------|--------------------|---------------------------------|
G|-6-------4-------------|---------------------------|--------------------|---------2-------4-------5-------|
D|-----6-------6---------|---------4----6----7-------|-6----4---------2---|-3---4-------4-------4-------4---|
A|-------------------4---|-5---6---2----4----5-------|-4----2---6---------|---------------------------------|
D|-------------------4---|-5---6---------------------|----------6---------|---------------------------------|


E|-----------------------|---------------------------|--------------------|---------------------------------|
B|-----------------------|---------------------------|--------------------|---------------------------------|
G|-4-------2-------------|---------------------------|--------------------|---------2-------4-------5-------|
D|-----4-------4---------|---------2----4----5-------|-4----2---------2---|-3---4-------4-------4-------4---|
A|-------------------2---|-3---4---0----2----3-------|-2----0---4---------|---------------------------------|
D|-------------------2---|-3---4---------------------|----------4---------|---------------------------------|


E|-----------------------|---------------------------|--------------------|---------------------------------|
B|-----------------------|---------------------------|--------------------|---------------------------------|
G|-4-------2-------------|---------------------------|--------------------|---------2-------4-------5-------|
D|-----4-------4---------|---------2----4----5-------|-4----2---------2---|-3---4-------4-------4-------4---|
A|-------------------2---|-3---4---0----2----3-------|-2----0---4---------|---------------------------------|
D|-------------------2---|-3---4---------------------|----------4---------|---------------------------------|


E|-----------------------|---------------------------|--------------------|---------------------------------|
B|-----------------------|---------------------------|--------------------|---------------------------------|
G|-4-------2-------------|---------------------------|--------------------|---------2-------4-------5-------|
D|-----4-------4---------|---------2----4----5-------|-4----2---------2---|-3---4-------4-------4-------4---|
A|-------------------2---|-3---4---0----2----3-------|-2----0---4---------|---------------------------------|
D|-------------------2---|-3---4---------------------|----------4---------|---------------------------------|


E|-----------------------|---------------------------|--------------------|------------------------------|
B|-----------------------|---------------------------|--------------------|------------------------------|
G|-4-------2-------------|---------------------------|--------------------|------------------------------|
D|-----4-------4---------|---------2----4----5-------|-4----2-------------|---------0-------2------------|
A|-------------------2---|-3---4---0----2----3-------|-2----0---4-----0---|-1---2-------2----------------|
D|-------------------2---|-3---4---------------------|----------4---------|--------------------------6---|


E|------------------------------|------------------------------|---------------------------------|
B|------------------------------|------------------------------|---------------------------------|
G|------------------------------|------------------------------|---------------------------------|
D|------------------------------|------------------------------|---------------------------------|
A|---------4-------6------------|---------2-------4------------|---------1-------3-------4-------|
D|-7---8-------8------------4---|-5---6-------6------------3---|-4---5-------5-------5-------5---|


E|---------------------------|----------------|----------------|----------------|----------------|
B|---------------------------|----------------|----------------|----------------|----------------|
G|---------------------------|----------------|----------------|----------------|----------------|
D|-----------------------4---|------------4---|------------4---|------------4---|------------4---|
A|-3-------1-------------4---|------------4---|------------4---|------------3---|------------3---|
D|-----5-------5---------4---|------------4---|------------4---|------------4---|------------4---|


E|----------------|----------------|----------------|----------------|----------------|
B|----------------|----------------|------------7---|------------7---|----------------|
G|----------------|----------------|----------------|----------------|----------------|
D|------------4---|------------4---|------------4---|------------4---|------------4---|
A|------------4---|------------4---|------------4---|------------4---|------------4---|
D|------------4---|------------4---|------------4---|------------4---|------------4---|


E|----------------|----------------|----------------|----------------|---------------------|
B|----------------|----------------|----------------|----------------|---------------------|
G|----------------|----------------|----------------|----------------|---------------------|
D|------------4---|------------4---|------------4---|------------4---|------4-----4----4---|
A|------------4---|------------4---|------------4---|------------4---|------4-----4----4---|
D|------------4---|------------4---|------------4---|------------4---|------4-----4----4---|


E|----------------|
B|----------------|
G|----------------|
D|----------------|
A|----------------|
D|----------------|





Track 2: Dime (Solo)

E|--------|--------|--------|--------|--------|--------|--------|--------|--------|
B|--------|--------|--------|--------|--------|--------|--------|--------|--------|
G|--------|--------|--------|--------|--------|--------|--------|--------|--------|
D|--------|--------|--------|--------|--------|--------|--------|--------|--------|
A|--------|--------|--------|--------|--------|--------|--------|--------|--------|
D|--------|--------|--------|--------|--------|--------|--------|--------|--------|


E|--------|--------|--------|--------|--------|--------|--------|--------|--------|
B|--------|--------|--------|--------|--------|--------|--------|--------|--------|
G|--------|--------|--------|--------|--------|--------|--------|--------|--------|
D|--------|--------|--------|--------|--------|--------|--------|--------|--------|
A|--------|--------|--------|--------|--------|--------|--------|--------|--------|
D|--------|--------|--------|--------|--------|--------|--------|--------|--------|


E|--------|--------|--------|--------|--------|--------|--------|--------|--------|
B|--------|--------|--------|--------|--------|--------|--------|--------|--------|
G|--------|--------|--------|--------|--------|--------|--------|--------|--------|
D|--------|--------|--------|--------|--------|--------|--------|--------|--------|
A|--------|--------|--------|--------|--------|--------|--------|--------|--------|
D|--------|--------|--------|--------|--------|--------|--------|--------|--------|


E|--------|--------|--------|--------|--------|--------|--------|--------|--------|
B|--------|--------|--------|--------|--------|--------|--------|--------|--------|
G|--------|--------|--------|--------|--------|--------|--------|--------|--------|
D|--------|--------|--------|--------|--------|--------|--------|--------|--------|
A|--------|--------|--------|--------|--------|--------|--------|--------|--------|
D|--------|--------|--------|--------|--------|--------|--------|--------|--------|


E|--------|--------|--------|--------|--------|--------|--------|--------|--------|
B|--------|--------|--------|--------|--------|--------|--------|--------|--------|
G|--------|--------|--------|--------|--------|--------|--------|--------|--------|
D|--------|--------|--------|--------|--------|--------|--------|--------|--------|
A|--------|--------|--------|--------|--------|--------|--------|--------|--------|
D|--------|--------|--------|--------|--------|--------|--------|--------|--------|


E|--------|--------|--------|--------|--------|--------|--------|--------|--------|
B|--------|--------|--------|--------|--------|--------|--------|--------|--------|
G|--------|--------|--------|--------|--------|--------|--------|--------|--------|
D|--------|--------|--------|--------|--------|--------|--------|--------|--------|
A|--------|--------|--------|--------|--------|--------|--------|--------|--------|
D|--------|--------|--------|--------|--------|--------|--------|--------|--------|


E|--------|--------|--------|--------|--------|--------|--------|--------|--------|
B|--------|--------|--------|--------|--------|--------|--------|--------|--------|
G|--------|--------|--------|--------|--------|--------|--------|--------|--------|
D|--------|--------|--------|--------|--------|--------|--------|--------|--------|
A|--------|--------|--------|--------|--------|--------|--------|--------|--------|
D|--------|--------|--------|--------|--------|--------|--------|--------|--------|


E|--------|--------|--------|--------|--------|--------|--------|--------|--------|
B|--------|--------|--------|--------|--------|--------|--------|--------|--------|
G|--------|--------|--------|--------|--------|--------|--------|--------|--------|
D|--------|--------|--------|--------|--------|--------|--------|--------|--------|
A|--------|--------|--------|--------|--------|--------|--------|--------|--------|
D|--------|--------|--------|--------|--------|--------|--------|--------|--------|


E|--------|--------|--------|--------|--------|--------|--------|--------|--------|
B|--------|--------|--------|--------|--------|--------|--------|--------|--------|
G|--------|--------|--------|--------|--------|--------|--------|--------|--------|
D|--------|--------|--------|--------|--------|--------|--------|--------|--------|
A|--------|--------|--------|--------|--------|--------|--------|--------|--------|
D|--------|--------|--------|--------|--------|--------|--------|--------|--------|


E|--------|--------|--------|--------|--------|--------|--------|--------|--------|
B|--------|--------|--------|--------|--------|--------|--------|--------|--------|
G|--------|--------|--------|--------|--------|--------|--------|--------|--------|
D|--------|--------|--------|--------|--------|--------|--------|--------|--------|
A|--------|--------|--------|--------|--------|--------|--------|--------|--------|
D|--------|--------|--------|--------|--------|--------|--------|--------|--------|


E|--------|--------|--------|--------|--------|--------|--------|--------|--------|
B|--------|--------|--------|--------|--------|--------|--------|--------|--------|
G|--------|--------|--------|--------|--------|--------|--------|--------|--------|
D|--------|--------|--------|--------|--------|--------|--------|--------|--------|
A|--------|--------|--------|--------|--------|--------|--------|--------|--------|
D|--------|--------|--------|--------|--------|--------|--------|--------|--------|


E|--------|--------|--------|--------|--------|--------|--------|--------|--------|
B|--------|--------|--------|--------|--------|--------|--------|--------|--------|
G|--------|--------|--------|--------|--------|--------|--------|--------|--------|
D|--------|--------|--------|--------|--------|--------|--------|--------|--------|
A|--------|--------|--------|--------|--------|--------|--------|--------|--------|
D|--------|--------|--------|--------|--------|--------|--------|--------|--------|


E|----------------|-----9-------------------9---------------|-----9-------------------9---------------|
B|----------------|---------12--9---------------12--9-------|---------12--9---------------12--9---12--|
G|------------11--|-11--------------11--11--------------11--|-11--------------11--11------------------|
D|----------------|-----------------------------------------|-----------------------------------------|
A|----------------|-----------------------------------------|-----------------------------------------|
D|----------------|-----------------------------------------|-----------------------------------------|


E|-----9-------------------9---------------|-----9---------------------12--9--|----11--9-------9---12--9---11--9-------9---12--11-|
B|-12------12--9---12--12------12--9---12--|-12------12--9---12--12-----------|------------12----------------------12-------------|
G|-----------------------------------------|----------------------------------|---------------------------------------------------|
D|-----------------------------------------|----------------------------------|---------------------------------------------------|
A|-----------------------------------------|----------------------------------|---------------------------------------------------|
D|-----------------------------------------|----------------------------------|---------------------------------------------------|


E|----9-------9---11--14--12--11--9-------9----------|------------------------------------------------|
B|--------12--------------------------12------14--12-|----11--9-------9-------------------------------|
G|---------------------------------------------------|------------12------12--11--9---11-9-----9------|
D|---------------------------------------------------|--------------------------------------11--------|
A|---------------------------------------------------|--------------------------------------------11--|
D|---------------------------------------------------|------------------------------------------------|


E|----------------|---------------------------------|---------------------------------|
B|----------------|-----7-------9---9---7---8---8---|-7---9---9---7---8---8---7---13--|
G|------------3---|-8-------8-----------------------|---------------------------------|
D|----------------|---------------------------------|---------------------------------|
A|-9------9-------|---------------------------------|---------------------------------|
D|----------------|---------------------------------|---------------------------------|


E|---------------------------|-------------------|---------------------------------------------------|
B|-13---13---13--13----------|-------------------|--------------------------------------------11--13-|
G|-------------------14------|-------------------|----------------------------11--13--11--13---------|
D|---------------------------|-------------------|------------11--13--11--13-------------------------|
A|-----------------------13--|-13-----6---11--13-|----11--13-----------------------------------------|
D|---------------------------|-------------------|---------------------------------------------------|


E|------------11------14--11--13--11----------13--14-|----13--11------11--13-13-19-18-16-14-13-14-13-14-|
B|----11--13------14------------------14--13---------|------------14------------------------------------|
G|---------------------------------------------------|--------------------------------------------------|
D|---------------------------------------------------|--------------------------------------------------|
A|---------------------------------------------------|--------------------------------------------------|
D|---------------------------------------------------|--------------------------------------------------|


E|-13---13---13-----------|-----------------------|-----------------------|---------------------------------|
B|--------------------9---|-----9-----------------|-----------------------|-------------------12--------12--|
G|--------------------9---|-----9-----------------|-------------------9---|----13---9--------------13-------|
D|------------------------|-----------11--9---11--|-----------9---11------|--------------13-----------------|
A|------------------------|-----------------------|-----------------------|---------------------------------|
D|---------------10-------|-----------------------|-----------------------|---------------------------------|


E|----------------12--|-12------11-------14--14--11--|-12--11------16--16--12--14------|
B|-12----12-----------|-----14-------12--------------|---------13------------------14--|
G|------------13------|------------------------------|---------------------------------|
D|--------------------|------------------------------|---------------------------------|
A|--------------------|------------------------------|---------------------------------|
D|--------------------|------------------------------|---------------------------------|


E|---------------------|--------|--------|--------|--------|--------|--------|--------|
B|-------14--14--------|--------|--------|--------|--------|--------|--------|--------|
G|-----------------3---|--------|--------|--------|--------|--------|--------|--------|
D|-----------------3---|--------|--------|--------|--------|--------|--------|--------|
A|---------------------|--------|--------|--------|--------|--------|--------|--------|
D|---------------------|--------|--------|--------|--------|--------|--------|--------|


E|--------|--------|--------|--------|--------|--------|--------|--------|--------|
B|--------|--------|--------|--------|--------|--------|--------|--------|--------|
G|--------|--------|--------|--------|--------|--------|--------|--------|--------|
D|--------|--------|--------|--------|--------|--------|--------|--------|--------|
A|--------|--------|--------|--------|--------|--------|--------|--------|--------|
D|--------|--------|--------|--------|--------|--------|--------|--------|--------|


E|--------|--------|--------|--------|--------|--------|--------|--------|--------|
B|--------|--------|--------|--------|--------|--------|--------|--------|--------|
G|--------|--------|--------|--------|--------|--------|--------|--------|--------|
D|--------|--------|--------|--------|--------|--------|--------|--------|--------|
A|--------|--------|--------|--------|--------|--------|--------|--------|--------|
D|--------|--------|--------|--------|--------|--------|--------|--------|--------|


E|--------|--------|--------|--------|--------|--------|--------|--------|--------|
B|--------|--------|--------|--------|--------|--------|--------|--------|--------|
G|--------|--------|--------|--------|--------|--------|--------|--------|--------|
D|--------|--------|--------|--------|--------|--------|--------|--------|--------|
A|--------|--------|--------|--------|--------|--------|--------|--------|--------|
D|--------|--------|--------|--------|--------|--------|--------|--------|--------|


E|--------|--------|--------|--------|--------|--------|--------|--------|----------------|
B|--------|--------|--------|--------|--------|--------|--------|--------|------------17--|
G|--------|--------|--------|--------|--------|--------|--------|--------|----------------|
D|--------|--------|--------|--------|--------|--------|--------|--------|----------------|
A|--------|--------|--------|--------|--------|--------|--------|--------|----------------|
D|--------|--------|--------|--------|--------|--------|--------|--------|----------------|


E|-----------------|------14-16-14----14----------17-16-14-16-14-|----14--------------------------------------------|
B|-17----17----17--|---------------17----17-16-14----------------|-17----17-16-14-16-14----14-15-14-151412-11-13-14-|
G|-----------------|---------------------------------------------|----------------------16--------------------------|
D|-----------------|---------------------------------------------|--------------------------------------------------|
A|-----------------|---------------------------------------------|--------------------------------------------------|
D|-----------------|---------------------------------------------|--------------------------------------------------|


E|-------------------------------------------------|-------------------------------------------17-17-|
B|-13-10-12-13-12-11-13-14-13-10-14-15-14-15-14-12-|-14-12-------17-16-14-16-14----14----------------|
G|-------------------------------------------------|-------14-13----------------17----17-16-14-------|
D|-------------------------------------------------|-------------------------------------------------|
A|-------------------------------------------------|-------------------------------------------------|
D|-------------------------------------------------|-------------------------------------------------|


E|-------------17-17-------------17-17-------------|-17-17-14------------------------|
B|-17----------------17----------------17----------|----------17-14------------------|
G|----17-16-14----------17-16-14----------17-16-14-|----------------16-14------------|
D|-------------------------------------------------|-----------------------16----16--|
A|-------------------------------------------------|---------------------------------|
D|-------------------------------------------------|---------------------------------|


E|----------------|-----------------------------------------|-10-11-12--11-12-14--16-17-19------------|
B|----------------|---------------------10-11-12--11-12-13--|-------------------------------16-17-19--|
G|----------------|-----------9--10-11----------------------|-----------------------------------------|
D|--------16------|-8--9--10--------------------------------|-----------------------------------------|
A|----------------|-----------------------------------------|-----------------------------------------|
D|------------6---|-----------------------------------------|-----------------------------------------|


E|-17-19-22--22--22--22-22--22-22-22-22--|------------22--|-----------22---22--|------26----26--26--|
B|--------------------------------22-22--|------------22--|-----------22---22--|--------------------|
G|---------------------------------------|----------------|--------------------|--------------------|
D|---------------------------------------|----------------|--------------------|--------------------|
A|---------------------------------------|----------------|--------------------|--------------------|
D|---------------------------------------|----------------|--------------------|--------------------|


E|------26------------|
B|--------------------|
G|--------------------|
D|--------------------|
A|--------------------|
D|--------------------|





Track 3: Rex

G|-------------------------------------------------|-------------------------------------------------|
D|-------------------------------------------------|-------------------------------------------------|
A|-4---4---4---4---4---4---4---4---4---4---4---4---|-4---4---4---4---4---4---4---4---4---4---4---4---|
E|-------------------------------------------------|-------------------------------------------------|
B|-------------------------------------------------|-------------------------------------------------|


G|-------------------------------------------------|-------------------------------------------------|
D|-------------------------------------------------|-------------------------------------------------|
A|-4---4---4---4---4---4---4---4---4---4---4---4---|-4---4---4---4---4---4---4---4---4---4---4---4---|
E|-------------------------------------------------|-------------------------------------------------|
B|-------------------------------------------------|-------------------------------------------------|


G|-------------------------------------------------|-------------------------------------------------|
D|-------------------------------------------------|-------------------------------------------------|
A|-4---4---4---4---4---4---4---4---4---4---4---4---|-4---4---4---4---4---4---4---4---4---4---4---4---|
E|-------------------------------------------------|-------------------------------------------------|
B|-------------------------------------------------|-------------------------------------------------|


G|-------------------------------------------------|-------------------------------------------------|
D|-------------------------------------------------|-------------------------------------------------|
A|-4---4---4---4---4---4---4---4---4---4---4---4---|-4---4---4---4---4---4---4---4---4---4---4---4---|
E|-------------------------------------------------|-------------------------------------------------|
B|-------------------------------------------------|-------------------------------------------------|


G|-----------------|---------------------|-------------|------------------------|------------------------|
D|-----------------|---------------------|-------------|------------------------|------------------------|
A|-----------------|---------------------|-------------|------------------------|------------------------|
E|-0---------0-----|-0---------0---------|-0-----------|-0---0----0----0----0---|-----0----0---1----1----|
B|------3----------|----------------3----|-------------|------------------------|------------------------|


G|---------------------------------|---------------------------------|---------------------------|
D|---------------------------------|---------------------------------|---------------------------|
A|---------------------------------|---------------------------------|-------------0----2----3---|
E|-2---2---2---2---2---2---2---2---|-2---2---2---2---2---2---2---2---|-0---1---2-----------------|
B|---------------------------------|---------------------------------|---------------------------|


G|--------------------|---------------------------------|---------------------------------|
D|--------------------|---------------------------------|---------------------------------|
A|-----2----0---------|---------------------------------|---------------------------------|
E|--------------2-----|-2---2---2---2---2---2---2---2---|-2---2---2---2---2---2---2---2---|
B|--------------------|---------------------------------|---------------------------------|


G|---------------------------|--------------------|---------------------------------|
D|---------------------------|--------------------|---------------------------------|
A|-------------0----2----3---|-----2----0---------|---------------------------------|
E|-0---1---2-----------------|--------------2-----|-2---2---2---2---2---2---2---2---|
B|---------------------------|--------------------|---------------------------------|


G|---------------------------------|---------------------------|--------------------|
D|---------------------------------|---------------------------|--------------------|
A|---------------------------------|-------------0----2----3---|-----2----0---------|
E|-2---2---2---2---2---2---2---2---|-0---1---2-----------------|--------------2-----|
B|---------------------------------|---------------------------|--------------------|


G|---------------------------------|---------------------------------|---------------------------|
D|---------------------------------|---------------------------------|---------------------------|
A|---------------------------------|---------------------------------|-------------0----2----3---|
E|-2---2---2---2---2---2---2---2---|-2---2---2---2---2---2---2---2---|-0---1---2-----------------|
B|---------------------------------|---------------------------------|---------------------------|


G|--------------------|---------------------------------|---------------------------------|
D|--------------------|---------------------------------|---------------------------------|
A|-----2----0---------|-4---4---4---4---4---4---4---4---|-4---4---4---4---4---4---4---4---|
E|--------------2-----|---------------------------------|---------------------------------|
B|--------------------|---------------------------------|---------------------------------|


G|---------------------------------|---------------------------------|---------------------------------|
D|---------------------------------|---------------------------------|---------------------------------|
A|-4---4---4---4---4---4---4---4---|-4---4---4---4---4---4---4---4---|-2---4---4---4---4---4---4---4---|
E|---------------------------------|---------------------------------|---------------------------------|
B|---------------------------------|---------------------------------|---------------------------------|


G|---------------------------------|---------------------------------|---------------------------------|
D|---------------------------------|---------------------------------|---------------------------------|
A|-4---4---4---4---4---4---4---4---|-4---4---4---4---4---4---4---4---|-4---4---4---4---4---4---4---4---|
E|---------------------------------|---------------------------------|---------------------------------|
B|---------------------------------|---------------------------------|---------------------------------|


G|--------|--------|---------------------------------|---------------------------------|
D|--------|--------|---------------------------------|---------------------------------|
A|--------|-5------|-4---4---4---4---4---4---4---4---|-4---4---4---4---4---4---4---4---|
E|-0------|--------|---------------------------------|---------------------------------|
B|--------|--------|---------------------------------|---------------------------------|


G|---------------------------------|---------------------------------|--------|--------|
D|---------------------------------|---------------------------------|--------|--------|
A|-4---4---4---4---4---4---4---4---|-4---4---4---4---4---4---4---4---|--------|-5------|
E|---------------------------------|---------------------------------|-0------|--------|
B|---------------------------------|---------------------------------|--------|--------|


G|---------------------|-------------|---------------------------------|---------------------------------|
D|---------------------|-------------|---------------------------------|---------------------------------|
A|-2----2----2----2----|-2-----------|---------------------------------|---------------------------------|
E|---------------------|-------------|-4---4---4---4---4---4---4---4---|-4---4---4---4---4---4---4---4---|
B|---------------------|-------------|---------------------------------|---------------------------------|


G|---------------------------|--------------------|---------------------------------|
D|---------------------------|--------------------|---------------------------------|
A|-------------2----4----5---|-----4----2---------|---------------------------------|
E|-2---3---4-----------------|--------------4-----|-4---4---4---4---4---4---4---4---|
B|---------------------------|--------------------|---------------------------------|


G|---------------------------------|---------------------------|--------------------|
D|---------------------------------|---------------------------|--------------------|
A|---------------------------------|-------------2----4----5---|-----4----2---------|
E|-4---4---4---4---4---4---4---4---|-2---3---4-----------------|--------------4-----|
B|---------------------------------|---------------------------|--------------------|


G|---------------------------------|---------------------------------|---------------------------|
D|---------------------------------|---------------------------------|---------------------------|
A|---------------------------------|---------------------------------|-------------0----2----3---|
E|-2---2---2---2---2---2---2---2---|-2---2---2---2---2---2---2---2---|-0---1---2-----------------|
B|---------------------------------|---------------------------------|---------------------------|


G|--------------------|---------------------------------|---------------------------------|
D|--------------------|---------------------------------|---------------------------------|
A|-----2----0---------|---------------------------------|---------------------------------|
E|--------------2-----|-2---2---2---2---2---2---2---2---|-2---2---2---2---2---2---2---2---|
B|--------------------|---------------------------------|---------------------------------|


G|--------------------|--------|---------------------------------|---------------------------------|
D|--------------------|--------|---------------------------------|---------------------------------|
A|--------------------|--------|-4---4---4---4---4---4---4---4---|-4---4---4---4---4---4---4---4---|
E|-0---2--------------|--------|---------------------------------|---------------------------------|
B|--------------------|--------|---------------------------------|---------------------------------|


G|---------------------------------|---------------------------------|---------------------------------|
D|---------------------------------|---------------------------------|---------------------------------|
A|-4---4---4---4---4---4---4---4---|-4---4---4---4---4---4---4---4---|-2---4---4---4---4---4---4---4---|
E|---------------------------------|---------------------------------|---------------------------------|
B|---------------------------------|---------------------------------|---------------------------------|


G|---------------------------------|---------------------------------|---------------------------------|
D|---------------------------------|---------------------------------|---------------------------------|
A|-4---4---4---4---4---4---4---4---|-4---4---4---4---4---4---4---4---|-4---4---4---4---4---4---4---4---|
E|---------------------------------|---------------------------------|---------------------------------|
B|---------------------------------|---------------------------------|---------------------------------|


G|--------|--------|---------------------------------|---------------------------------|
D|--------|--------|---------------------------------|---------------------------------|
A|--------|-5------|-4---4---4---4---4---4---4---4---|-4---4---4---4---4---4---4---4---|
E|-0------|--------|---------------------------------|---------------------------------|
B|--------|--------|---------------------------------|---------------------------------|


G|---------------------------------|---------------------------------|--------|--------|
D|---------------------------------|---------------------------------|--------|--------|
A|-4---4---4---4---4---4---4---4---|-4---4---4---4---4---4---4---4---|--------|-5------|
E|---------------------------------|---------------------------------|-0------|--------|
B|---------------------------------|---------------------------------|--------|--------|


G|---------------------|-------------|---------------------------------|---------------------------------|
D|---------------------|-------------|---------------------------------|---------------------------------|
A|-2----2----2----2----|-2-----------|---------------------------------|---------------------------------|
E|---------------------|-------------|-4---4---4---4---4---4---4---4---|-4---4---4---4---4---4---4---4---|
B|---------------------|-------------|---------------------------------|---------------------------------|


G|---------------------------|--------------------|---------------------------------|
D|---------------------------|--------------------|---------------------------------|
A|-------------2----4----5---|-----4----2---------|---------------------------------|
E|-2---3---4-----------------|--------------4-----|-4---4---4---4---4---4---4---4---|
B|---------------------------|--------------------|---------------------------------|


G|---------------------------------|---------------------------|--------------------|
D|---------------------------------|---------------------------|--------------------|
A|---------------------------------|-------------2----4----5---|-----4----2---------|
E|-4---4---4---4---4---4---4---4---|-2---3---4-----------------|--------------4-----|
B|---------------------------------|---------------------------|--------------------|


G|---------------------------------|---------------------------------|------------|
D|---------------------------------|---------------------------------|------------|
A|---------------------------------|---------------------------------|------------|
E|-2---2---2---2---2---2---2---2---|-2---2---2---2---2---2---2---0---|-2------2---|
B|---------------------------------|---------------------------------|------------|


G|-----------------------|----------------|---------------------------|-----------------|
D|-----------------------|----------------|---------------------------|-----------------|
A|---------------3---3---|------------3---|-------3---2---0-----------|-----------------|
E|-----------------------|----------------|-------------------2---2---|-----------------|
B|-----------------------|----------------|---------------------------|-----------------|


G|----------------|----------------|---------------------------|------------------------------|
D|----------------|----------------|---------------------------|------------------------------|
A|--------3---3---|------------3---|-------3---2---0-----------|------------------------------|
E|----------------|----------------|-------------------2---2---|-0---1---2----0---1---2---2---|
B|----------------|----------------|---------------------------|------------------------------|


G|------------------------------|----------------|---------------------------|----------------|
D|------------------------------|----------------|---------------------------|----------------|
A|----------------------3---3---|------------3---|-------3---2---0-----------|----------------|
E|-0---1---2----2---2-----------|----------------|-------------------2---2---|----------------|
B|------------------------------|----------------|---------------------------|----------------|


G|---------------------------|----------------|----------------------------|---------------------------------|
D|---------------------------|----------------|----------------------------|---------------------------------|
A|-------------------3---3---|------------3---|-------2---3---2---0--------|-----2---2-------3---3-------4---|
E|-----2----2----2-----------|----------------|----------------------------|-------------3-----------4-------|
B|---------------------------|----------------|----------------------------|---------------------------------|


G|------------------------------|---------------------------------|---------------------------------|
D|------------------------------|---------------------------------|---------------------------------|
A|-4-------5---5-------6----4---|-4---4---4---4---4---4---4---4---|-4---4---4---4---4---4---4---4---|
E|-----5-----------6------------|---------------------------------|---------------------------------|
B|------------------------------|---------------------------------|---------------------------------|


G|---------------------------------|---------------------------|---------------------------------|
D|---------------------------------|---------------------------|---------------------------------|
A|-4---4---4---4---4---4---4---4---|-4---4------------2----4---|-4---4---4---4---4---4---4---4---|
E|---------------------------------|---------2----2------------|---------------------------------|
B|---------------------------------|---------------------------|---------------------------------|


G|---------------------------------|---------------------------------|---------------------|
D|---------------------------------|---------------------------------|---------------------|
A|-4---4---4---4---4---4---4---4---|-4---4---4---4---4---4---4---2---|------3-----4----6---|
E|---------------------------------|---------------------------------|---------------------|
B|---------------------------------|---------------------------------|---------------------|


G|---------------------------------|---------------------------------|---------------------------------|
D|---------------------------------|---------------------------------|---------------------------------|
A|-6---6---6---6---6---6---6---6---|-6---6---6---6---6---6---6---6---|-6---6---6---6---6---6---6---6---|
E|---------------------------------|---------------------------------|---------------------------------|
B|---------------------------------|---------------------------------|---------------------------------|


G|---------------------------------|---------------------------------|---------------------------------|
D|---------------------------------|---------------------------------|---------------------------------|
A|-6---6---6-----------4---6---6---|-6---6---6---6---6---6---6---6---|-6---6---6---6---6---6---6---6---|
E|-------------4---6---------------|---------------------------------|---------------------------------|
B|---------------------------------|---------------------------------|---------------------------------|


G|---------------------------------|---------------------|---------------------------------|
D|---------------------------------|---------------------|---------------------------------|
A|-6---6---6---6---6---6---6---9---|------8-----7----4---|-4---4---4---4---4---4---4---4---|
E|---------------------------------|---------------------|---------------------------------|
B|---------------------------------|---------------------|---------------------------------|


G|---------------------------------|---------------------------------|---------------------------------|
D|---------------------------------|---------------------------------|---------------------------------|
A|-4---4---4---4---4---4---4---4---|-4---4---4---4---4---4---4---4---|-4---4---4-----------2---4---4---|
E|---------------------------------|---------------------------------|-------------2---4---------------|
B|---------------------------------|---------------------------------|---------------------------------|


G|---------------------------------|---------------------------------|---------------------------------|
D|---------------------------------|---------------------------------|-----------------------------4---|
A|-4---4---4---4---4---4---4---4---|-4---4---4---4---4---4---4---4---|-4---4---4---4---4---4---4-------|
E|---------------------------------|---------------------------------|---------------------------------|
B|---------------------------------|---------------------------------|---------------------------------|


G|------------------------|---------------------------------------------------|---------------------------------------------------|
D|------3-----2-----------|---------------------------------------------------|---------------------------------------------------|
A|-----------------6---6--|----6---6---6---6---6---6---6---6---6---6---6---6--|----6---6---6---6---6---6---6---6---6---6---6---6--|
E|------------------------|---------------------------------------------------|---------------------------------------------------|
B|------------------------|---------------------------------------------------|---------------------------------------------------|


G|---------------------------------------------------|---------------------------------------------------|
D|---------------------------------------------------|---------------------------------------------------|
A|----6---6---6---6---6---6---6---6---6---6---6---6--|----6---6---6---6---6---6---6---6---6---6---6---6--|
E|---------------------------------------------------|---------------------------------------------------|
B|---------------------------------------------------|---------------------------------------------------|


G|---------------------------------------------------|---------------------------------------------------|
D|---------------------------------------------------|---------------------------------------------------|
A|----6---6---6---6---6---6---6---6---6---6---6---6--|----6---6---6---6---6---6---6---6---6---6---6---6--|
E|---------------------------------------------------|---------------------------------------------------|
B|---------------------------------------------------|---------------------------------------------------|


G|---------------------------------------------------|------------------------------------------------|
D|---------------------------------------------------|------------------------------------------------|
A|----6---6---6---6---6---6---6---6---6---6---6---6--|----6---6---6---6---6---6---6---6---6---6-------|
E|---------------------------------------------------|--------------------------------------------2---|
B|---------------------------------------------------|------------------------------------------------|


G|--------------------|------------------------|----------------|------------------------|
D|--------------------|------------------------|----------------|------------------------|
A|--------------------|------------------------|----------------|------------------------|
E|----------2-----2---|----------2---------2---|------------2---|-2----2----2----2-------|
B|-----5--------------|---------------5--------|----------------|------------------------|


G|------------------------|---------------------------------|---------------------------------|
D|------------------------|---------------------------------|---------------------------------|
A|------------------------|---------------------------------|---------------------------------|
E|-2----2---3----3----4---|-4---4---4---4---4---4---4---4---|-4---4---4---4---4---4---4---2---|
B|------------------------|---------------------------------|---------------------------------|


G|---------------------------|--------------------|---------------------------------|
D|---------------------------|--------------------|---------------------------------|
A|---------2----4----5-------|-4----2-------------|---------------------------------|
E|-3---4---------------------|----------4-----4---|-4---4---4---4---4---4---4---4---|
B|---------------------------|--------------------|---------------------------------|


G|---------------------------------|---------------------------|--------------------|
D|---------------------------------|---------------------------|--------------------|
A|---------------------------------|---------2----4----5-------|-4----2-------------|
E|-4---4---4---4---4---4---4---2---|-3---4---------------------|----------4-----2---|
B|---------------------------------|---------------------------|--------------------|


G|---------------------------------|---------------------------------|---------------------------|
D|---------------------------------|---------------------------------|---------------------------|
A|---------------------------------|---------------------------------|---------0----2----3-------|
E|-2---2---2---2---2---2---2---2---|-2---2---2---2---2---2---2---0---|-1---2---------------------|
B|---------------------------------|---------------------------------|---------------------------|


G|--------------------|---------------------------------|---------------------------------|
D|--------------------|---------------------------------|---------------------------------|
A|-2----0-------------|---------------------------------|---------------------------------|
E|----------2-----2---|-2---2---2---2---2---2---2---2---|-2---2---2---2---2---2---2---0---|
B|--------------------|---------------------------------|---------------------------------|


G|---------------------------|--------------------|---------------------------------|
D|---------------------------|--------------------|---------------------------------|
A|---------0----2----3-------|-2----0-------------|---------------------------------|
E|-1---2---------------------|----------2-----2---|-2---2---2---2---2---2---2---2---|
B|---------------------------|--------------------|---------------------------------|


G|---------------------------------|---------------------------------|---------------------------------|
D|-----------------------------4---|-4---4---4---4---4---4---4---4---|-4---4---4---4---4---4---4-------|
A|---------------------------------|---------------------------------|---------------------------------|
E|-2---2---2---2---2---2---2-------|---------------------------------|-----------------------------2---|
B|---------------------------------|---------------------------------|---------------------------------|


G|---------------------------------|---------------------------------|---------------------------|
D|---------------------------------|---------------------------------|---------------------------|
A|---------------------------------|---------------------------------|---------0----2----3-------|
E|-2---2---2---2---2---2---2---2---|-2---2---2---2---2---2---2---0---|-1---2---------------------|
B|---------------------------------|---------------------------------|---------------------------|


G|--------------------|------------------------------|------------------------------|
D|--------------------|---------0-------2------------|------------------------------|
A|-2----0---------0---|-1---2-------2----------------|---------4-------6------------|
E|----------2---------|--------------------------4---|-5---6-------6------------2---|
B|--------------------|------------------------------|------------------------------|


G|------------------------------|---------------------------------|---------------------------|
D|------------------------------|---------------------------------|---------------------------|
A|---------2-------4------------|---------1-------3-------4-------|-3-------1-----------------|
E|-3---4-------4------------1---|-2---3-------3-------3-------3---|-----3-------3---------2---|
B|------------------------------|---------------------------------|---------------------------|


G|----------------|----------------|----------------|----------------|----------------|
D|----------------|----------------|----------------|----------------|----------------|
A|----------------|----------------|----------------|----------------|----------------|
E|------------2---|------------2---|------------2---|------------2---|------------2---|
B|----------------|----------------|----------------|----------------|----------------|


G|----------------|----------------|----------------|----------------|----------------|
D|----------------|----------------|----------------|----------------|----------------|
A|----------------|----------------|----------------|----------------|----------------|
E|------------2---|------------2---|------------2---|------------2---|------------2---|
B|----------------|----------------|----------------|----------------|----------------|


G|----------------|----------------|----------------|---------------------|----------------|
D|----------------|----------------|----------------|---------------------|----------------|
A|----------------|----------------|----------------|---------------------|----------------|
E|------------2---|------------2---|------------2---|------2-----2----2---|----------------|
B|----------------|----------------|----------------|---------------------|----------------|