Menu:

 

Search:

 

pantera - revolution is my name:

 



Title: Revolution is my name
Artist: 
Album: Reinventing the Steel
Author: Pantera


Track 1: intro modulation effect (1)

D|---------------------------------|---------------------------------|---------------------------------|
A|---------------------------------|---------------------------------|---------------------------------|
F|-------------8---8-----------9---|-9-------------------------------|-------------8---8-----------9---|
C|---------------------------------|-----8---8-----------------------|---------------------------------|
G|-----6---6-----------6---6-------|-------------9---9---------------|-----6---6-----------6---6-------|
D|-0-------------------------------|---------------------5---5---1---|-0-------------------------------|


D|---------------------------------|---------------------------------|---------------------------------|
A|---------------------------------|---------------------------------|---------------------------------|
F|-9-------------------------------|-------------8---8-----------9---|-9-------------------------------|
C|-----8---8-----------------------|---------------------------------|-----8---8-----------------------|
G|-------------9---9---------------|-----6---6-----------6---6-------|-------------9---9---------------|
D|---------------------5---5---1---|-0-------------------------------|---------------------5---5---1---|


D|---------------------------------|-------------|---------------------------------|
A|---------------------------------|-------------|---------------------------------|
F|-------------8---8-----------8---|-8-----------|-------------8---8-----------9---|
C|---------------------------------|-------------|---------------------------------|
G|-----6---6-----------6---6-------|-------------|-----6---6-----------6---6-------|
D|-0-------------------------------|--------12---|-0-------------------------------|


D|---------------------------------|---------------------------------|---------------------------------|
A|---------------------------------|---------------------------------|---------------------------------|
F|-9-------------------------------|-------------8---8-----------9---|-9-------------------------------|
C|-----8---8-----------------------|---------------------------------|-----8---8-----------------------|
G|-------------9---9---------------|-----6---6-----------6---6-------|-------------9---9---------------|
D|---------------------5---5---1---|-0-------------------------------|---------------------5---5---1---|


D|---------------------------------|---------------------------------|---------------------------------|
A|---------------------------------|---------------------------------|---------------------------------|
F|-------------8---8-----------9---|-9-------------------------------|-------------8---8-----------9---|
C|---------------------------------|-----8---8-----------------------|---------------------------------|
G|-----6---6-----------6---6-------|-------------9---9---------------|-----6---6-----------6---6-------|
D|-0-------------------------------|---------------------5---5---1---|-0-------------------------------|


D|---------------------------------|--------|--------|--------|--------|--------|--------|
A|---------------------------------|--------|--------|--------|--------|--------|--------|
F|-9-------------------------------|--------|--------|--------|--------|--------|--------|
C|-----8---8-----------------------|--------|--------|--------|--------|--------|--------|
G|-------------9---9---------------|--------|--------|--------|--------|--------|--------|
D|---------------------5---5---1---|--------|--------|--------|--------|--------|--------|


D|--------|--------|--------|--------|--------|--------|--------|--------|--------|
A|--------|--------|--------|--------|--------|--------|--------|--------|--------|
F|--------|--------|--------|--------|--------|--------|--------|--------|--------|
C|--------|--------|--------|--------|--------|--------|--------|--------|--------|
G|--------|--------|--------|--------|--------|--------|--------|--------|--------|
D|--------|--------|--------|--------|--------|--------|--------|--------|--------|


D|--------|--------|--------|--------|--------|--------|--------|--------|--------|
A|--------|--------|--------|--------|--------|--------|--------|--------|--------|
F|--------|--------|--------|--------|--------|--------|--------|--------|--------|
C|--------|--------|--------|--------|--------|--------|--------|--------|--------|
G|--------|--------|--------|--------|--------|--------|--------|--------|--------|
D|--------|--------|--------|--------|--------|--------|--------|--------|--------|


D|--------|--------|--------|--------|--------|--------|--------|--------|--------|
A|--------|--------|--------|--------|--------|--------|--------|--------|--------|
F|--------|--------|--------|--------|--------|--------|--------|--------|--------|
C|--------|--------|--------|--------|--------|--------|--------|--------|--------|
G|--------|--------|--------|--------|--------|--------|--------|--------|--------|
D|--------|--------|--------|--------|--------|--------|--------|--------|--------|


D|--------|--------|--------|--------|--------|--------|--------|--------|--------|
A|--------|--------|--------|--------|--------|--------|--------|--------|--------|
F|--------|--------|--------|--------|--------|--------|--------|--------|--------|
C|--------|--------|--------|--------|--------|--------|--------|--------|--------|
G|--------|--------|--------|--------|--------|--------|--------|--------|--------|
D|--------|--------|--------|--------|--------|--------|--------|--------|--------|


D|--------|--------|--------|--------|--------|--------|--------|--------|--------|
A|--------|--------|--------|--------|--------|--------|--------|--------|--------|
F|--------|--------|--------|--------|--------|--------|--------|--------|--------|
C|--------|--------|--------|--------|--------|--------|--------|--------|--------|
G|--------|--------|--------|--------|--------|--------|--------|--------|--------|
D|--------|--------|--------|--------|--------|--------|--------|--------|--------|


D|--------|--------|--------|--------|--------|--------|--------|--------|--------|
A|--------|--------|--------|--------|--------|--------|--------|--------|--------|
F|--------|--------|--------|--------|--------|--------|--------|--------|--------|
C|--------|--------|--------|--------|--------|--------|--------|--------|--------|
G|--------|--------|--------|--------|--------|--------|--------|--------|--------|
D|--------|--------|--------|--------|--------|--------|--------|--------|--------|


D|--------|--------|--------|--------|--------|--------|--------|--------|--------|
A|--------|--------|--------|--------|--------|--------|--------|--------|--------|
F|--------|--------|--------|--------|--------|--------|--------|--------|--------|
C|--------|--------|--------|--------|--------|--------|--------|--------|--------|
G|--------|--------|--------|--------|--------|--------|--------|--------|--------|
D|--------|--------|--------|--------|--------|--------|--------|--------|--------|


D|--------|--------|--------|--------|--------|--------|--------|--------|--------|
A|--------|--------|--------|--------|--------|--------|--------|--------|--------|
F|--------|--------|--------|--------|--------|--------|--------|--------|--------|
C|--------|--------|--------|--------|--------|--------|--------|--------|--------|
G|--------|--------|--------|--------|--------|--------|--------|--------|--------|
D|--------|--------|--------|--------|--------|--------|--------|--------|--------|


D|--------|--------|--------|--------|--------|--------|--------|--------|--------|
A|--------|--------|--------|--------|--------|--------|--------|--------|--------|
F|--------|--------|--------|--------|--------|--------|--------|--------|--------|
C|--------|--------|--------|--------|--------|--------|--------|--------|--------|
G|--------|--------|--------|--------|--------|--------|--------|--------|--------|
D|--------|--------|--------|--------|--------|--------|--------|--------|--------|


D|--------|--------|--------|--------|--------|--------|--------|--------|--------|
A|--------|--------|--------|--------|--------|--------|--------|--------|--------|
F|--------|--------|--------|--------|--------|--------|--------|--------|--------|
C|--------|--------|--------|--------|--------|--------|--------|--------|--------|
G|--------|--------|--------|--------|--------|--------|--------|--------|--------|
D|--------|--------|--------|--------|--------|--------|--------|--------|--------|


D|--------|--------|--------|--------|--------|--------|--------|--------|--------|
A|--------|--------|--------|--------|--------|--------|--------|--------|--------|
F|--------|--------|--------|--------|--------|--------|--------|--------|--------|
C|--------|--------|--------|--------|--------|--------|--------|--------|--------|
G|--------|--------|--------|--------|--------|--------|--------|--------|--------|
D|--------|--------|--------|--------|--------|--------|--------|--------|--------|


D|--------|--------|--------|--------|--------|--------|--------|--------|--------|
A|--------|--------|--------|--------|--------|--------|--------|--------|--------|
F|--------|--------|--------|--------|--------|--------|--------|--------|--------|
C|--------|--------|--------|--------|--------|--------|--------|--------|--------|
G|--------|--------|--------|--------|--------|--------|--------|--------|--------|
D|--------|--------|--------|--------|--------|--------|--------|--------|--------|


D|--------|--------|--------|--------|--------|--------|--------|--------|--------|
A|--------|--------|--------|--------|--------|--------|--------|--------|--------|
F|--------|--------|--------|--------|--------|--------|--------|--------|--------|
C|--------|--------|--------|--------|--------|--------|--------|--------|--------|
G|--------|--------|--------|--------|--------|--------|--------|--------|--------|
D|--------|--------|--------|--------|--------|--------|--------|--------|--------|


D|--------|--------|--------|--------|--------|--------|--------|--------|--------|
A|--------|--------|--------|--------|--------|--------|--------|--------|--------|
F|--------|--------|--------|--------|--------|--------|--------|--------|--------|
C|--------|--------|--------|--------|--------|--------|--------|--------|--------|
G|--------|--------|--------|--------|--------|--------|--------|--------|--------|
D|--------|--------|--------|--------|--------|--------|--------|--------|--------|


D|--------|--------|--------|--------|--------|--------|--------|--------|--------|
A|--------|--------|--------|--------|--------|--------|--------|--------|--------|
F|--------|--------|--------|--------|--------|--------|--------|--------|--------|
C|--------|--------|--------|--------|--------|--------|--------|--------|--------|
G|--------|--------|--------|--------|--------|--------|--------|--------|--------|
D|--------|--------|--------|--------|--------|--------|--------|--------|--------|


D|--------|--------|--------|--------|--------|--------|--------|--------|--------|
A|--------|--------|--------|--------|--------|--------|--------|--------|--------|
F|--------|--------|--------|--------|--------|--------|--------|--------|--------|
C|--------|--------|--------|--------|--------|--------|--------|--------|--------|
G|--------|--------|--------|--------|--------|--------|--------|--------|--------|
D|--------|--------|--------|--------|--------|--------|--------|--------|--------|


D|--------|--------|--------|--------|--------|--------|--------|--------|--------|
A|--------|--------|--------|--------|--------|--------|--------|--------|--------|
F|--------|--------|--------|--------|--------|--------|--------|--------|--------|
C|--------|--------|--------|--------|--------|--------|--------|--------|--------|
G|--------|--------|--------|--------|--------|--------|--------|--------|--------|
D|--------|--------|--------|--------|--------|--------|--------|--------|--------|


D|--------|--------|--------|--------|--------|--------|--------|--------|--------|
A|--------|--------|--------|--------|--------|--------|--------|--------|--------|
F|--------|--------|--------|--------|--------|--------|--------|--------|--------|
C|--------|--------|--------|--------|--------|--------|--------|--------|--------|
G|--------|--------|--------|--------|--------|--------|--------|--------|--------|
D|--------|--------|--------|--------|--------|--------|--------|--------|--------|


D|--------|--------|--------|--------|--------|--------|--------|--------|--------|
A|--------|--------|--------|--------|--------|--------|--------|--------|--------|
F|--------|--------|--------|--------|--------|--------|--------|--------|--------|
C|--------|--------|--------|--------|--------|--------|--------|--------|--------|
G|--------|--------|--------|--------|--------|--------|--------|--------|--------|
D|--------|--------|--------|--------|--------|--------|--------|--------|--------|


D|--------|--------|--------|--------|
A|--------|--------|--------|--------|
F|--------|--------|--------|--------|
C|--------|--------|--------|--------|
G|--------|--------|--------|--------|
D|--------|--------|--------|--------|





Track 2: intro modulation effect (2)

D|--------|--------|--------|--------|--------|--------|--------|--------|--------|
A|--------|--------|--------|--------|--------|--------|--------|--------|--------|
F|--------|--------|--------|--------|--------|--------|--------|--------|--------|
C|--------|--------|--------|--------|--------|--------|--------|--------|--------|
G|--------|--------|--------|--------|--------|--------|--------|--------|--------|
D|--------|--------|--------|--------|--------|--------|--------|--------|--------|


D|--------|--------|--------|--------|--------|--------|--------|--------|--------|
A|--------|--------|--------|--------|--------|--------|--------|--------|--------|
F|--------|--------|--------|--------|--------|--------|--------|--------|--------|
C|--------|--------|--------|--------|--------|--------|--------|--------|--------|
G|--------|--------|--------|--------|--------|--------|--------|--------|--------|
D|--------|--------|--------|--------|--------|--------|--------|-0------|--------|


D|--------|--------|--------|--------|--------|--------|--------|--------|--------|
A|--------|--------|--------|--------|--------|--------|--------|--------|--------|
F|--------|--------|--------|--------|--------|--------|--------|--------|--------|
C|--------|--------|--------|--------|--------|--------|--------|--------|--------|
G|--------|--------|--------|--------|--------|--------|--------|--------|--------|
D|--------|--------|--------|--------|--------|--------|--------|--------|--------|


D|--------|--------|--------|--------|--------|--------|--------|--------|--------|
A|--------|--------|--------|--------|--------|--------|--------|--------|--------|
F|--------|--------|--------|--------|--------|--------|--------|--------|--------|
C|--------|--------|--------|--------|--------|--------|--------|--------|--------|
G|--------|--------|--------|--------|--------|--------|--------|--------|--------|
D|--------|--------|--------|--------|--------|--------|--------|--------|--------|


D|--------|--------|--------|--------|--------|--------|--------|--------|--------|
A|--------|--------|--------|--------|--------|--------|--------|--------|--------|
F|--------|--------|--------|--------|--------|--------|--------|--------|--------|
C|--------|--------|--------|--------|--------|--------|--------|--------|--------|
G|--------|--------|--------|--------|--------|--------|--------|--------|--------|
D|--------|--------|--------|--------|--------|--------|--------|--------|--------|


D|--------|--------|--------|--------|--------|--------|--------|--------|--------|
A|--------|--------|--------|--------|--------|--------|--------|--------|--------|
F|--------|--------|--------|--------|--------|--------|--------|--------|--------|
C|--------|--------|--------|--------|--------|--------|--------|--------|--------|
G|--------|--------|--------|--------|--------|--------|--------|--------|--------|
D|--------|--------|--------|--------|--------|--------|--------|--------|--------|


D|--------|--------|--------|--------|--------|--------|--------|--------|--------|
A|--------|--------|--------|--------|--------|--------|--------|--------|--------|
F|--------|--------|--------|--------|--------|--------|--------|--------|--------|
C|--------|--------|--------|--------|--------|--------|--------|--------|--------|
G|--------|--------|--------|--------|--------|--------|--------|--------|--------|
D|--------|--------|--------|--------|--------|--------|--------|--------|--------|


D|--------|--------|--------|--------|--------|--------|--------|--------|--------|
A|--------|--------|--------|--------|--------|--------|--------|--------|--------|
F|--------|--------|--------|--------|--------|--------|--------|--------|--------|
C|--------|--------|--------|--------|--------|--------|--------|--------|--------|
G|--------|--------|--------|--------|--------|--------|--------|--------|--------|
D|--------|--------|--------|--------|--------|--------|--------|--------|--------|


D|--------|--------|--------|--------|--------|--------|--------|--------|--------|
A|--------|--------|--------|--------|--------|--------|--------|--------|--------|
F|--------|--------|--------|--------|--------|--------|--------|--------|--------|
C|--------|--------|--------|--------|--------|--------|--------|--------|--------|
G|--------|--------|--------|--------|--------|--------|--------|--------|--------|
D|--------|--------|--------|--------|--------|--------|--------|--------|--------|


D|--------|--------|--------|--------|--------|--------|--------|--------|--------|
A|--------|--------|--------|--------|--------|--------|--------|--------|--------|
F|--------|--------|--------|--------|--------|--------|--------|--------|--------|
C|--------|--------|--------|--------|--------|--------|--------|--------|--------|
G|--------|--------|--------|--------|--------|--------|--------|--------|--------|
D|--------|--------|--------|--------|--------|--------|--------|--------|--------|


D|--------|--------|--------|--------|--------|--------|--------|--------|--------|
A|--------|--------|--------|--------|--------|--------|--------|--------|--------|
F|--------|--------|--------|--------|--------|--------|--------|--------|--------|
C|--------|--------|--------|--------|--------|--------|--------|--------|--------|
G|--------|--------|--------|--------|--------|--------|--------|--------|--------|
D|--------|--------|--------|--------|--------|--------|--------|--------|--------|


D|--------|--------|--------|--------|--------|--------|--------|--------|--------|
A|--------|--------|--------|--------|--------|--------|--------|--------|--------|
F|--------|--------|--------|--------|--------|--------|--------|--------|--------|
C|--------|--------|--------|--------|--------|--------|--------|--------|--------|
G|--------|--------|--------|--------|--------|--------|--------|--------|--------|
D|--------|--------|--------|--------|--------|--------|--------|--------|--------|


D|--------|--------|--------|--------|--------|--------|--------|--------|--------|
A|--------|--------|--------|--------|--------|--------|--------|--------|--------|
F|--------|--------|--------|--------|--------|--------|--------|--------|--------|
C|--------|--------|--------|--------|--------|--------|--------|--------|--------|
G|--------|--------|--------|--------|--------|--------|--------|--------|--------|
D|--------|--------|--------|--------|--------|--------|--------|--------|--------|


D|--------|--------|--------|--------|--------|--------|--------|--------|--------|
A|--------|--------|--------|--------|--------|--------|--------|--------|--------|
F|--------|--------|--------|--------|--------|--------|--------|--------|--------|
C|--------|--------|--------|--------|--------|--------|--------|--------|--------|
G|--------|--------|--------|--------|--------|--------|--------|--------|--------|
D|--------|--------|--------|--------|--------|--------|--------|--------|--------|


D|--------|--------|--------|--------|--------|--------|--------|--------|--------|
A|--------|--------|--------|--------|--------|--------|--------|--------|--------|
F|--------|--------|--------|--------|--------|--------|--------|--------|--------|
C|--------|--------|--------|--------|--------|--------|--------|--------|--------|
G|--------|--------|--------|--------|--------|--------|--------|--------|--------|
D|--------|--------|--------|--------|--------|--------|--------|--------|--------|


D|--------|--------|--------|--------|--------|--------|--------|--------|--------|
A|--------|--------|--------|--------|--------|--------|--------|--------|--------|
F|--------|--------|--------|--------|--------|--------|--------|--------|--------|
C|--------|--------|--------|--------|--------|--------|--------|--------|--------|
G|--------|--------|--------|--------|--------|--------|--------|--------|--------|
D|--------|--------|--------|--------|--------|--------|--------|--------|--------|


D|--------|--------|--------|--------|--------|--------|--------|--------|--------|
A|--------|--------|--------|--------|--------|--------|--------|--------|--------|
F|--------|--------|--------|--------|--------|--------|--------|--------|--------|
C|--------|--------|--------|--------|--------|--------|--------|--------|--------|
G|--------|--------|--------|--------|--------|--------|--------|--------|--------|
D|--------|--------|--------|--------|--------|--------|--------|--------|--------|


D|--------|--------|--------|--------|--------|--------|--------|--------|--------|
A|--------|--------|--------|--------|--------|--------|--------|--------|--------|
F|--------|--------|--------|--------|--------|--------|--------|--------|--------|
C|--------|--------|--------|--------|--------|--------|--------|--------|--------|
G|--------|--------|--------|--------|--------|--------|--------|--------|--------|
D|--------|--------|--------|--------|--------|--------|--------|--------|--------|


D|--------|--------|--------|--------|--------|--------|--------|--------|--------|
A|--------|--------|--------|--------|--------|--------|--------|--------|--------|
F|--------|--------|--------|--------|--------|--------|--------|--------|--------|
C|--------|--------|--------|--------|--------|--------|--------|--------|--------|
G|--------|--------|--------|--------|--------|--------|--------|--------|--------|
D|--------|--------|--------|--------|--------|--------|--------|--------|--------|


D|--------|--------|--------|--------|--------|--------|--------|--------|--------|
A|--------|--------|--------|--------|--------|--------|--------|--------|--------|
F|--------|--------|--------|--------|--------|--------|--------|--------|--------|
C|--------|--------|--------|--------|--------|--------|--------|--------|--------|
G|--------|--------|--------|--------|--------|--------|--------|--------|--------|
D|--------|--------|--------|--------|--------|--------|--------|--------|--------|


D|--------|--------|--------|--------|--------|--------|--------|--------|--------|
A|--------|--------|--------|--------|--------|--------|--------|--------|--------|
F|--------|--------|--------|--------|--------|--------|--------|--------|--------|
C|--------|--------|--------|--------|--------|--------|--------|--------|--------|
G|--------|--------|--------|--------|--------|--------|--------|--------|--------|
D|--------|--------|--------|--------|--------|--------|--------|--------|--------|


D|--------|--------|--------|--------|--------|--------|--------|--------|
A|--------|--------|--------|--------|--------|--------|--------|--------|
F|--------|--------|--------|--------|--------|--------|--------|--------|
C|--------|--------|--------|--------|--------|--------|--------|--------|
G|--------|--------|--------|--------|--------|--------|--------|--------|
D|--------|--------|--------|--------|--------|--------|--------|--------|





Track 3: Untitled

D|--------|--------|--------|--------|--------|--------|--------|--------|--------|
A|--------|--------|--------|--------|--------|--------|--------|--------|--------|
F|--------|--------|--------|--------|--------|--------|--------|--------|--------|
C|--------|--------|--------|--------|--------|--------|--------|--------|--------|
G|--------|--------|--------|--------|--------|--------|--------|--------|--------|
D|--------|--------|--------|--------|--------|--------|--------|--------|--------|


D|--------|--------|--------|--------|--------|--------|--------|--------|---------------------------------|
A|--------|--------|--------|--------|--------|--------|--------|--------|---------------------------------|
F|--------|--------|--------|--------|--------|--------|--------|--------|---------------------------------|
C|--------|--------|--------|--------|--------|--------|--------|--------|---------------------------------|
G|--------|--------|--------|--------|--------|--------|--------|--------|---------------------------------|
D|--------|--------|--------|--------|--------|--------|--------|--------|-0---0---0---0---0---0---0---0---|


D|---------------------------------|---------------------------------|------------------------|
A|---------------------------------|---------------------------------|------------------------|
F|---------------------------------|---------------------------------|------------------------|
C|---------------------------------|---------------------------------|------------------------|
G|-----------------7---5-------7---|-----5---------------------------|------------------------|
D|-0---0---0---0-----------7-------|-7-------7---6---5---3---5---3---|-0----0---0---0----0----|


D|------------------------------|---------------------------------|---------------------------------|
A|------------------------------|---------------------------------|---------------------------------|
F|------------------------------|---------------------------------|---------------------------------|
C|--------------------------5---|---------------------5-----------|---------------------------------|
G|--------------7---5-----------|-7---5---7---5-----------7---5---|---------------------------------|
D|-0---0---0------------7-------|-----------------7---------------|-0---0---0---0---0---0---0---0---|


D|---------------------------------|---------------------------------|------------------------|
A|---------------------------------|---------------------------------|------------------------|
F|---------------------------------|---------------------------------|------------------------|
C|---------------------------------|---------------------------------|------------------------|
G|-----------------7---5-------7---|-----5---------------------------|------------------------|
D|-0---0---0---0-----------7-------|-5-------7---6---5---3---5---3---|-0----0---0---0----0----|


D|--------------------|---------------------|------------------------------|------------------------------|
A|--------------------|---------------------|------------------------------|------------------------------|
F|--------------5-----|------8-----8----8---|------------------------------|------------------------------|
C|--------------5-----|------8-----8----8---|------------------------------|------------------------------|
G|--------------3-----|------6-----6----6---|------------------------------|------------------1-----------|
D|-0---0---0----3-----|------6-----6----6---|-0---6---0---3----5---0---6---|-0---3----5---0-------0---3---|


D|---------------------------------|------------------------------|------------------------------|
A|---------------------------------|------------------------------|------------------------------|
F|---------------------------------|------------------------------|------------------------------|
C|---------------------------------|------------------------------|------------------------------|
G|-----0---5---4---4---4---3---3---|-----1------------0-------1---|----------0-------------------|
D|---------3---2---2---2---1---1---|-0-------0---3--------0-------|-0---3--------0---6---0---3---|


D|---------------------------------|------------------------------|------------------------------|
A|---------------------------------|------------------------------|------------------------------|
F|---------------------------------|------------------------------|------------------------------|
C|---------------------------------|------------------------------|------------------------------|
G|---------5---4---4---4---3---3---|------------------------------|------------------1-----------|
D|-----5---3---2---2---2---1---1---|-0---6---0---3----5---0---6---|-0---3----5---0-------0---3---|


D|---------------------------------|------------------------------|------------------------------|
A|---------------------------------|------------------------------|------------------------------|
F|---------------------------------|------------------------------|------------------------------|
C|---------------------------------|------------------------------|------------------------------|
G|-----0---5---4---4---4---3---3---|-----1------------0-------1---|----------0-------------------|
D|---------3---2---2---2---1---1---|-0-------0---3--------0-------|-0---3--------0---6---0---3---|


D|---------------------------|---------------------------------|---------------------------------|
A|---------------------------|---------------------------------|---------------------------------|
F|---------------------------|---------------------------------|---------------------------------|
C|---------------------------|---------------------------------|---------------------------------|
G|---------------------------|---------------------------------|---------------------------------|
D|-0---5---0-----------12----|-0---6---0---3---0---5---0---6---|-0---3---0---5---0---6---0---3---|


D|---------------------------------|------------------------------|------------------------------|
A|---------------------------------|------------------------------|------------------------------|
F|---------------------------------|------------------------------|------------------------------|
C|---------------------------------|------------------------------|------------------------------|
G|---------5---4---4---4---3---3---|------------------------------|------------------------------|
D|-0---5---3---2---2---2---1---1---|-0---6---0---3----5---0---6---|-0---3----5---0---6---0---3---|


D|---------------------------------|---------------------------------|---------------------------------|
A|---------------------------------|---------------------------------|---------------------------------|
F|---------------------------------|---------------------------------|---------------------------------|
C|---------------------------------|---------------------------------|---------------------------------|
G|---------5---4---4---4---3---3---|---------------------------------|---------------------------------|
D|-----5---3---2---2---2---1---1---|-0---6---0---3---0---5---0---6---|-0---3---0---5---0---6---0---3---|


D|---------------------------------|------------------------------|--------------------|
A|---------------------------------|------------------------------|--------------------|
F|---------------------------------|------------------------------|--------------5-----|
C|---------------------------------|------------------------------|--------------5-----|
G|---------5---4---4---4---3---3---|------------------------------|--------------3-----|
D|-0---5---3---2---2---2---1---1---|-0---6---0---3----5---0---6---|-0---3----5---3-----|


D|------------------------|---------------------|---------------------------|---------------------------|
A|------------------------|---------------------|---------------------------|---------------------------|
F|------8----8---8---8----|---------------------|---------------------------|---------------------------|
C|------8----8---8---8----|---------------------|---------------------------|---------------------------|
G|------6----6---6---6----|-------5----7---8----|-7---7--------5----7---8---|-----7---7----3---3--------|
D|------6----6---6---6----|-0-------------------|----------0----------------|--------------1---1----0---|


D|---------------------|---------------------------|---------------------------|---------------------|
A|---------------------|---------------------------|---------------------------|---------------------|
F|---------------------|---------------------------|---------------------------|---------------------|
C|---------------------|---------------------------|---------------------------|----------------8----|
G|-------5----7---8----|-7---7--------5----7---8---|-----7---7----3---3--------|-------5----7--------|
D|-0-------------------|----------0----------------|--------------1---1----0---|-0-------------------|


D|---------------------------|---------------------------|---------------------|------------------------|
A|---------------------------|---------------------------|---------------------|------------------------|
F|---------------------------|---------------------------|---------------------|------------------------|
C|-----------------------8---|---------------------------|----------------8----|------------------------|
G|--------------5----7-------|--------------3---3--------|-------5----7--------|--------------8-----7---|
D|-6---6----0----------------|-----6---6----1---1----0---|-0-------------------|-6---6----0---6-----5---|


D|------------------|---------------------------------------|--------------------------------------|
A|------------------|---------------------------------------|--------------------------------------|
F|------------------|---------------------------------------|------------------1--2--1--2--4--6----|
C|------------------|---------4--2--4-----------------------|---------4--2--4----------------------|
G|------6-----5-----|-------------------4--3--4---1--0--1---|--------------------------------------|
D|------4-----3-----|-2---2---------------------------------|-2---2--------------------------------|


D|---------------------------------------|--------------------------------------|---------------------------------------------|
A|---------------------------------------|--------------------------------------|---------------------------------------------|
F|---------3--2--3-----------------------|---------3--2--3--4--6--4--6--8--9----|---------------------------------------------|
C|-------------------4--3--4-------------|--------------------------------------|---------7--5-----7-----5--------------------|
G|-----------------------------4--3--4---|--------------------------------------|---------------7-----------7--6--5--3--5--3--|
D|-2---2---------------------------------|-2---2--------------------------------|-5---5---------------------------------------|


D|----------------------------|-------5--------5-----5--8-7-5---7-5-----5---------------|
A|----------------------------|----5--------5-----------------8-----8-7---8-7-5-8-7-5---|
F|-------------------------5--|-7--------7--------7-----------------------------------8-|
C|----------------------------|---------------------------------------------------------|
G|-5----3--5--3---------------|---------------------------------------------------------|
D|----------------3-----------|---------------------------------------------------------|


D|--------------------------------5----6----|---------------------------------|---------------------------------|
A|-7-5-----5----------------------8----9----|---------------------------------|---------------------------------|
F|-----8-7---8-7-5-8-7-5---5-7-5------------|---------------------------------|---------------------------------|
C|-----------------------7------------------|---------------------------------|---------------------------------|
G|------------------------------------------|---------------------------------|-----------------7---5-------7---|
D|------------------------------------------|-0---0---0---0---0---0---0---0---|-0---0---0---0-----------7-------|


D|---------------------------------|------------------------|------------------------------|
A|---------------------------------|------------------------|------------------------------|
F|---------------------------------|------------------------|------------------------------|
C|---------------------------------|------------------------|--------------------------5---|
G|-----5---------------------------|------------------------|--------------7---5-----------|
D|-7-------7---6---5---3---5---3---|-0----0---0---0----0----|-0---0---0------------7-------|


D|---------------------------------|---------------------------------|---------------------------------|
A|---------------------------------|---------------------------------|---------------------------------|
F|---------------------------------|---------------------------------|---------------------------------|
C|---------------------5-----------|---------------------------------|---------------------------------|
G|-7---5---7---5-----------7---5---|---------------------------------|-----------------7---5-------7---|
D|-----------------7---------------|-0---0---0---0---0---0---0---0---|-0---0---0---0-----------7-------|


D|---------------------------------|------------------------|--------------------|
A|---------------------------------|------------------------|--------------------|
F|---------------------------------|------------------------|--------------5-----|
C|---------------------------------|------------------------|--------------5-----|
G|-----5---------------------------|------------------------|--------------3-----|
D|-7-------7---6---5---3---5---3---|-0----0---0---0----0----|-0---0---0----3-----|


D|---------------------|------------------------------|------------------------------|
A|---------------------|------------------------------|------------------------------|
F|------8-----8----8---|------------------------------|------------------------------|
C|------8-----8----8---|------------------------------|------------------------------|
G|------6-----6----6---|------------------------------|------------------1-----------|
D|------6-----6----6---|-0---6---0---3----5---0---6---|-0---3----5---0-------0---3---|


D|---------------------------------|------------------------------|------------------------------|
A|---------------------------------|------------------------------|------------------------------|
F|---------------------------------|------------------------------|------------------------------|
C|---------------------------------|------------------------------|------------------------------|
G|-----0---5---4---4---4---3---3---|-----1------------0-------1---|----------0-------------------|
D|---------3---2---2---2---1---1---|-0-------0---3--------0-------|-0---3--------0---6---0---3---|


D|---------------------------------|------------------------------|------------------------------|
A|---------------------------------|------------------------------|------------------------------|
F|---------------------------------|------------------------------|------------------------------|
C|---------------------------------|------------------------------|------------------------------|
G|---------5---4---4---4---3---3---|------------------------------|------------------1-----------|
D|-----5---3---2---2---2---1---1---|-0---6---0---3----5---0---6---|-0---3----5---0-------0---3---|


D|---------------------------------|------------------------------|------------------------------|
A|---------------------------------|------------------------------|------------------------------|
F|---------------------------------|------------------------------|------------------------------|
C|---------------------------------|------------------------------|------------------------------|
G|-----0---5---4---4---4---3---3---|-----1------------0-------1---|----------0-------------------|
D|---------3---2---2---2---1---1---|-0-------0---3--------0-------|-0---3--------0---6---0---3---|


D|---------------------------|---------------------------------|---------------------------------|
A|---------------------------|---------------------------------|---------------------------------|
F|---------------------------|---------------------------------|---------------------------------|
C|---------------------------|---------------------------------|---------------------------------|
G|---------------------------|---------------------------------|---------------------------------|
D|-0---5---0-----------12----|-0---6---0---3---0---5---0---6---|-0---3---0---5---0---6---0---3---|


D|---------------------------------|------------------------------|------------------------------|
A|---------------------------------|------------------------------|------------------------------|
F|---------------------------------|------------------------------|------------------------------|
C|---------------------------------|------------------------------|------------------------------|
G|---------5---4---4---4---3---3---|------------------------------|------------------------------|
D|-0---5---3---2---2---2---1---1---|-0---6---0---3----5---0---6---|-0---3----5---0---6---0---3---|


D|---------------------------------|---------------------------------|---------------------------------|
A|---------------------------------|---------------------------------|---------------------------------|
F|---------------------------------|---------------------------------|---------------------------------|
C|---------------------------------|---------------------------------|---------------------------------|
G|---------5---4---4---4---3---3---|---------------------------------|---------------------------------|
D|-----5---3---2---2---2---1---1---|-0---6---0---3---0---5---0---6---|-0---3---0---5---0---6---0---3---|


D|---------------------------------|------------------------------|--------------------|
A|---------------------------------|------------------------------|--------------------|
F|---------------------------------|------------------------------|--------------5-----|
C|---------------------------------|------------------------------|--------------5-----|
G|---------5---4---4---4---3---3---|------------------------------|--------------3-----|
D|-0---5---3---2---2---2---1---1---|-0---6---0---3----5---0---6---|-0---3----5---3-----|


D|------------------------|---------------------|---------------------------|---------------------------|
A|------------------------|---------------------|---------------------------|---------------------------|
F|------8----8---8---8----|---------------------|---------------------------|---------------------------|
C|------8----8---8---8----|---------------------|---------------------------|---------------------------|
G|------6----6---6---6----|-------5----7---8----|-7---7--------5----7---8---|-----7---7----3---3--------|
D|------6----6---6---6----|-0-------------------|----------0----------------|--------------1---1----0---|


D|---------------------|---------------------------|---------------------------|---------------------|
A|---------------------|---------------------------|---------------------------|---------------------|
F|---------------------|---------------------------|---------------------------|---------------------|
C|---------------------|---------------------------|---------------------------|----------------8----|
G|-------5----7---8----|-7---7--------5----7---8---|-----7---7----3---3--------|-------5----7--------|
D|-0-------------------|----------0----------------|--------------1---1----0---|-0-------------------|


D|---------------------------|---------------------------|---------------------|------------------------------|
A|---------------------------|---------------------------|---------------------|------------------------------|
F|---------------------------|---------------------------|---------------------|------------------------------|
C|-----------------------8---|---------------------------|----------------8----|----------------------8-------|
G|--------------5----7-------|--------------3---3--------|-------5----7--------|------------------8-----------|
D|-6---6----0----------------|-----6---6----1---1----0---|-0-------------------|-6---6----0---6-----------5---|


D|---------------------------------|---------------------|---------------------------|
A|---------------------------------|---------------------|---------------------------|
F|---------------------------------|---------------------|---------------------------|
C|-----7-----------5-----------3---|---------------------|---------------------------|
G|-7-----------5-----------3-------|-------5----7---8----|-7---7--------5----7---8---|
D|---------3-----------1-----------|-0-------------------|----------0----------------|


D|---------------------------|---------------------|---------------------------|---------------------------|
A|---------------------------|---------------------|---------------------------|---------------------------|
F|---------------------------|---------------------|---------------------------|---------------------------|
C|---------------------------|---------------------|---------------------------|---------------------------|
G|-----7---7----3---3--------|-------5----7---8----|-7---7--------5----7---8---|-----7---7----3---3--------|
D|--------------1---1----0---|-0-------------------|----------0----------------|--------------1---1----0---|


D|---------------------|---------------------------|---------------------------|---------------------|
A|---------------------|---------------------------|---------------------------|---------------------|
F|---------------------|---------------------------|---------------------------|---------------------|
C|----------------8----|-----------------------8---|---------------------------|----------------8----|
G|-------5----7--------|--------------5----7-------|--------------3---3--------|-------5----7--------|
D|-0-------------------|-6---6----0----------------|-----6---6----1---1----0---|-0-------------------|


D|------------------------|------------------|---------------------------------------|
A|------------------------|------------------|---------------------------------------|
F|------------------------|------------------|---------------------------------------|
C|------------------------|------------------|---------4--2--4-----------------------|
G|--------------8-----7---|------6-----5-----|-------------------4--3--4---1--0--1---|
D|-6---6----0---6-----5---|------4-----3-----|-2---2---------------------------------|


D|--------------------------------------|---------------------------------------|--------------------------------------|
A|--------------------------------------|---------------------------------------|--------------------------------------|
F|------------------1--2--1--2--4--6----|---------------------------------------|------------------1--2--1--2--4--6----|
C|---------4--2--4----------------------|---------4--2--4-----------------------|---------4--2--4----------------------|
G|--------------------------------------|-------------------4--3--4---1--0--1---|--------------------------------------|
D|-2---2--------------------------------|-2---2---------------------------------|-2---2--------------------------------|


D|-----------------------------------|-----------------5-----------------------|-8-7-5---5----------5--8-7-5---5----------5--8-7-5---5------|
A|-----------------------------------|--------------5-----5--8--8----8--8------|-------8-----8---------------8-----8---------------8-----8--|
F|------9--7-------------------------|-----5--7--7-----------------------------|------------------------------------------------------------|
C|-10------------9--7-----5--7-------|-7---------------------------------------|------------------------------------------------------------|
G|------------------------------7----|-----------------------------------------|------------------------------------------------------------|
D|-----------------------------------|-----------------------------------------|------------------------------------------------------------|


D|----5-----5-----5-----5-----5-----5------------------------------|------------------------------------------|
A|-------8-----8-----8-----8-----8-----8-5-8-5---5-----------------|----------------------6--7--6--8--7--7----|
F|---------------------------------------------8---8-7-5---5-7-5---|----------6--7--6--7----------------------|
C|-------------------------------------------------------7---------|-9--8--9----------------------------------|
G|-----------------------------------------------------------------|------------------------------------------|
D|-----------------------------------------------------------------|------------------------------------------|


D|-----------------------------------------------------------------|----------------------------------------|
A|-7-8-7-6-7-6---6-7-6---6-----------------------------------------|----------------------------------------|
F|-------------9-------9---9-7-6---7-6-----6-----------------------|------------------------------------9---|
C|-------------------------------9-----9-7---9-7-6-9-7-6---7-6-----|---------------------------9--10-11-----|
G|-------------------------------------------------------9-----9-7-|---------9-----10----11-----------------|
D|-----------------------------------------------------------------|-9----12--------------------------------|


D|---------------------12----------------------|-15----------------------18----------------------|
A|-11-11-------------------14--11------11------|-----17--14------14----------20--17------17------|
F|-11-11---9---11--9---------------13------13--|-------------16------16--------------19------19--|
C|---------------------------------------------|-------------------------------------------------|
G|---------------------------------------------|-------------------------------------------------|
D|---------------------------------------------|-------------------------------------------------|


D|-20----------------------------|-------------------------------------------|-------------------------------------------|
A|----------------9--9--10-------|----9------10--10-----------9--9--10-------|----9------10--10-----------9--9--10-------|
F|----------------9--9--10-------|----9------10--10-----------9--9--10-------|----9------10--10-----------9--9--10-------|
C|-------------------------------|-------------------------------------------|-------------------------------------------|
G|-------------------------------|-------------------------------------------|-------------------------------------------|
D|-------0--0--0-----------0--0--|-------0-----------0--0--0-----------0--0--|-------0-----------0--0--0-----------0--0--|


D|-------------------------------------------|-----------------------------------------|
A|----9------10--10-----------9--9--10-------|----9------10--10------------------------|
F|----9------10--10-----------9--9--10-------|----9------10--10------------------------|
C|-------------------------------------------|-----------------------------------------|
G|-------------------------------------------|-------------------2--2--2--5--5--7---2--|
D|-------0-----------0--0--0-----------0--0--|-------0-----------0--0--0--3--3--5---0--|


D|-----------------------------------------|-------------------------------------------|
A|-----------------------------------------|-------------------------------------------|
F|-----------------------------------------|-------------------------------------------|
C|-----------------------------------------|-------------------------------------------|
G|-2--5---2--9---8---2--2--2--5--5--7---2--|-2--5--2--5--9---8---2--2--2--5--5--7---2--|
D|-0--3---0--7---6---0--0--0--3--3--5---0--|-0--3--0--3--7---6---0--0--0--3--3--5---0--|


D|-----------------------------------------|-----------------------------------------------|
A|-----------------------------------------|-----------------------------------------------|
F|-----------------------------------------|---------------------9-109-7-9--7--------------|
C|-----------------------------------------|-----------------------------------9--8--7--5--|
G|-2--5---2--9---8---2--2--2--5--5--7---2--|-2--5--2--5--9---8-----------------------------|
D|-0--3---0--7---6---0--0--0--3--3--5---0--|-0--3--0--3--7---6-----------------------------|


D|-----------------------------------------------------|-----------------------------------------|
A|-----------------------------------------------------|----------9--9--10--------9------10--10--|
F|-----------------------------------------------------|----------9--9--10--------9------10--10--|
C|-7-8-7-5-7--5----------------------------------------|-----------------------------------------|
G|---------------7--6--5--3--5-6-5-3-5--3--------------|-----------------------------------------|
D|-----------------------------------------5--4--3--1--|-0--0--0-----------0--0------0-----------|


D|-----------------------------------------|-----------------------------------------|
A|----------9--9--10--------9------10--10--|----------9--9--10--------9------10--10--|
F|----------9--9--10--------9------10--10--|----------9--9--10--------9------10--10--|
C|-----------------------------------------|-----------------------------------------|
G|-----------------------------------------|-----------------------------------------|
D|-0--0--0-----------0--0------0-----------|-0--0--0-----------0--0------0-----------|


D|-----------------------------------------|-----------------------------------------|
A|----------9--9--10--------9------10--10--|-----------------------------------------|
F|----------9--9--10--------9------10--10--|-----------------------------------------|
C|-----------------------------------------|-----------------------------------------|
G|-----------------------------------------|-2--2--2--5--5--7---2--2--5---2--9---8---|
D|-0--0--0-----------0--0------0-----------|-0--0--0--3--3--5---0--0--3---0--7---6---|


D|-------------------------------------------|-----------------------------------------|
A|-------------------------------------------|-----------------------------------------|
F|-------------------------------------------|-----------------------------------------|
C|-------------------------------------------|-----------------------------------------|
G|-2--2--2--5--5--7---2--2--5--2--5--9---8---|-2--2--2--5--5--7---2--2--5---2--9---8---|
D|-0--0--0--3--3--5---0--0--3--0--3--7---6---|-0--0--0--3--3--5---0--0--3---0--7---6---|


D|-------------------------------------------|-----------------------------------------------------|
A|-------------------------------------------|-----------------------------------------------------|
F|-------------------------------------------|-9-109-7-9--7----------------------------------------|
C|-------------------------------------------|---------------9--8--7--5--7-8-7-5-7--5--------------|
G|-2--2--2--5--5--7---2--2--5--2--5--9---8---|-----------------------------------------7--6--5--3--|
D|-0--0--0--3--3--5---0--0--3--0--3--7---6---|-----------------------------------------------------|


D|---------------------------------|-----------------------|---------------------------------|
A|---------------------------------|-----------------------|---------------------------------|
F|---------------------------------|-----------------------|---------------------------------|
C|---------------------------------|-----------------------|---------------------------------|
G|-5-6-5-3-5--3--------------------|-----------------------|---------------------------------|
D|---------------5--4--3--1--0-----|-------0---0---0---0---|-0---0---0---0---0---0---0---0---|


D|---------------------------------|------------------------------|------------------------|
A|---------------------------------|------------------------------|------------------------|
F|---------------------------------|------------------------------|------------------------|
C|---------------------------------|------------------------------|------------------------|
G|-7---5-------7-------5-----------|------------------------------|------------------------|
D|---------7-------7-------7---6---|-5---3---5---3---0----0---0---|-0----0----0---0---0----|


D|-------------|------------------------|---------------------------|------------------------|
A|-------------|------------------------|---------------------------|------------------------|
F|-5------8----|-8---8---8--------------|---------------------------|------------------------|
C|-5------8----|-8---8---8--------------|---------------------------|------------------------|
G|-3------6----|-6---6---6----------5---|-----7---8----7---7--------|-5----7---8----7---7----|
D|-3------6----|-6---6---6----0---------|-----------------------0---|------------------------|


D|------------------------|---------------------------|------------------------|------------------------|
A|------------------------|---------------------------|------------------------|------------------------|
F|------------------------|---------------------------|------------------------|------------------------|
C|------------------------|---------------------------|------------------------|------------------------|
G|-3---3--------------5---|-----7---8----7---7--------|-5----7---8----7---7----|-3---3--------------5---|
D|-1---1----0---0---------|-----------------------0---|------------------------|-1---1----0---0---------|


D|---------------------------|------------------------|------------------------|---------------------------|
A|---------------------------|------------------------|------------------------|---------------------------|
F|---------------------------|------------------------|------------------------|---------------------------|
C|---------8-----------------|----------8-------------|------------------------|---------8-----------------|
G|-----7---------------------|-5----7-----------------|-3---3--------------5---|-----7---------------------|
D|--------------6---6----0---|---------------6---6----|-1---1----0---0---------|--------------6---6----0---|


D|---------------------------------|---------------------------|---------------------------|
A|---------------------------------|---------------------------|---------------------------|
F|---------------------------------|---------------------------|---------------------------|
C|---------8-----------7-----------|-5-----------3-------------|---------------------------|
G|-----8-----------7-----------5---|---------3-------------5---|-----7---8----7---7--------|
D|-6-----------5-----------3-------|-----1-----------0---------|-----------------------0---|


D|------------------------|------------------------|---------------------------|------------------------|
A|------------------------|------------------------|---------------------------|------------------------|
F|------------------------|------------------------|---------------------------|------------------------|
C|------------------------|------------------------|---------------------------|------------------------|
G|-5----7---8----7---7----|-3---3--------------5---|-----7---8----7---7--------|-5----7---8----7---7----|
D|------------------------|-1---1----0---0---------|-----------------------0---|------------------------|


D|------------------------|---------------------------|------------------------|------------------------|
A|------------------------|---------------------------|------------------------|------------------------|
F|------------------------|---------------------------|------------------------|------------------------|
C|------------------------|---------8-----------------|----------8-------------|------------------------|
G|-3---3--------------5---|-----7---------------------|-5----7-----------------|-3---3--------------5---|
D|-1---1----0---0---------|--------------6---6----0---|---------------6---6----|-1---1----0---0---------|


D|---------------------------|------------------|--------------------|
A|---------------------------|------------------|--------------------|
F|---------------------------|------------------|--------------------|
C|---------8-----------------|------------------|--------------------|
G|-----7---------------------|-8-----7-----5----|-----3----2---------|
D|--------------6---6----0---|-6-----5-----3----|-----1----0---------|





Track 4: Untitled

D|--------|--------|--------|--------|--------|--------|--------|--------|--------|
A|--------|--------|--------|--------|--------|--------|--------|--------|--------|
F|--------|--------|--------|--------|--------|--------|--------|--------|--------|
C|--------|--------|--------|--------|--------|--------|--------|--------|--------|
G|--------|--------|--------|--------|--------|--------|--------|--------|--------|
D|--------|--------|--------|--------|--------|--------|--------|--------|--------|


D|--------|--------|--------|--------|--------|--------|--------|--------|--------|
A|--------|--------|--------|--------|--------|--------|--------|--------|--------|
F|--------|--------|--------|--------|--------|--------|--------|--------|--------|
C|--------|--------|--------|--------|--------|--------|--------|--------|--------|
G|--------|--------|--------|--------|--------|--------|--------|--------|--------|
D|--------|--------|--------|--------|--------|--------|--------|--------|--------|


D|--------|--------|--------|--------|--------|--------|--------|--------|--------|
A|--------|--------|--------|--------|--------|--------|--------|--------|--------|
F|--------|--------|--------|--------|--------|--------|--------|--------|--------|
C|--------|--------|--------|--------|--------|--------|--------|--------|--------|
G|--------|--------|--------|--------|--------|--------|--------|--------|--------|
D|--------|--------|--------|--------|--------|--------|--------|--------|--------|


D|--------|--------|--------|--------|--------|--------|--------|--------|--------|
A|--------|--------|--------|--------|--------|--------|--------|--------|--------|
F|--------|--------|--------|--------|--------|--------|--------|--------|--------|
C|--------|--------|--------|--------|--------|--------|--------|--------|--------|
G|--------|--------|--------|--------|--------|--------|--------|--------|--------|
D|--------|--------|--------|--------|--------|--------|--------|--------|--------|


D|--------|--------|--------|--------|--------|--------|--------|--------|--------|
A|--------|--------|--------|--------|--------|--------|--------|--------|--------|
F|--------|--------|--------|--------|--------|--------|--------|--------|--------|
C|--------|--------|--------|--------|--------|--------|--------|--------|--------|
G|--------|--------|--------|--------|--------|--------|--------|--------|--------|
D|--------|--------|--------|--------|--------|--------|--------|--------|--------|


D|--------|--------|--------|--------|--------|--------|--------|--------|--------|
A|--------|--------|--------|--------|--------|--------|--------|--------|--------|
F|--------|--------|--------|--------|--------|--------|--------|--------|--------|
C|--------|--------|--------|--------|--------|--------|--------|--------|--------|
G|--------|--------|--------|--------|--------|--------|--------|--------|--------|
D|--------|--------|--------|--------|--------|--------|--------|--------|--------|


D|--------|--------|--------|--------|--------|--------|--------|--------|--------|
A|--------|--------|--------|--------|--------|--------|--------|--------|--------|
F|--------|--------|--------|--------|--------|--------|--------|--------|--------|
C|--------|--------|--------|--------|--------|--------|--------|--------|--------|
G|--------|--------|--------|--------|--------|--------|--------|--------|--------|
D|--------|--------|--------|--------|--------|--------|--------|--------|--------|


D|--------|--------|---------------------------------------|--------------------------------------|
A|--------|--------|---------------------------------------|--------------------------------------|
F|--------|--------|---------------------------------------|------------------1--2--1--2--4--6----|
C|--------|--------|---------4--2--4-----------------------|---------4--2--4----------------------|
G|--------|--------|-------------------4--3--4---1--0--1---|--------------------------------------|
D|--------|--------|-2---2---------------------------------|-2---2--------------------------------|


D|---------------------------------------|--------------------------------------|--------|
A|---------------------------------------|--------------------------------------|--------|
F|---------------------------------------|------------------1--2--1--2--4--6----|--------|
C|---------4--2--4-----------------------|---------4--2--4----------------------|--------|
G|-------------------4--3--4---1--0--1---|--------------------------------------|--------|
D|-2---2---------------------------------|-2---2--------------------------------|--------|


D|--------|--------|--------|--------|--------|--------|--------|--------|--------|
A|--------|--------|--------|--------|--------|--------|--------|--------|--------|
F|--------|--------|--------|--------|--------|--------|--------|--------|--------|
C|--------|--------|--------|--------|--------|--------|--------|--------|--------|
G|--------|--------|--------|--------|--------|--------|--------|--------|--------|
D|--------|--------|--------|--------|--------|--------|--------|--------|--------|


D|--------|--------|--------|--------|--------|--------|--------|--------|--------|
A|--------|--------|--------|--------|--------|--------|--------|--------|--------|
F|--------|--------|--------|--------|--------|--------|--------|--------|--------|
C|--------|--------|--------|--------|--------|--------|--------|--------|--------|
G|--------|--------|--------|--------|--------|--------|--------|--------|--------|
D|--------|--------|--------|--------|--------|--------|--------|--------|--------|


D|--------|--------|--------|--------|--------|--------|--------|--------|--------|
A|--------|--------|--------|--------|--------|--------|--------|--------|--------|
F|--------|--------|--------|--------|--------|--------|--------|--------|--------|
C|--------|--------|--------|--------|--------|--------|--------|--------|--------|
G|--------|--------|--------|--------|--------|--------|--------|--------|--------|
D|--------|--------|--------|--------|--------|--------|--------|--------|--------|


D|--------|--------|--------|--------|--------|--------|--------|--------|--------|
A|--------|--------|--------|--------|--------|--------|--------|--------|--------|
F|--------|--------|--------|--------|--------|--------|--------|--------|--------|
C|--------|--------|--------|--------|--------|--------|--------|--------|--------|
G|--------|--------|--------|--------|--------|--------|--------|--------|--------|
D|--------|--------|--------|--------|--------|--------|--------|--------|--------|


D|--------|--------|--------|--------|--------|--------|--------|--------|--------|
A|--------|--------|--------|--------|--------|--------|--------|--------|--------|
F|--------|--------|--------|--------|--------|--------|--------|--------|--------|
C|--------|--------|--------|--------|--------|--------|--------|--------|--------|
G|--------|--------|--------|--------|--------|--------|--------|--------|--------|
D|--------|--------|--------|--------|--------|--------|--------|--------|--------|


D|--------|--------|--------|--------|--------|--------|--------|--------|--------|
A|--------|--------|--------|--------|--------|--------|--------|--------|--------|
F|--------|--------|--------|--------|--------|--------|--------|--------|--------|
C|--------|--------|--------|--------|--------|--------|--------|--------|--------|
G|--------|--------|--------|--------|--------|--------|--------|--------|--------|
D|--------|--------|--------|--------|--------|--------|--------|--------|--------|


D|--------|--------|--------|--------|--------|--------|--------|--------|--------|
A|--------|--------|--------|--------|--------|--------|--------|--------|--------|
F|--------|--------|--------|--------|--------|--------|--------|--------|--------|
C|--------|--------|--------|--------|--------|--------|--------|--------|--------|
G|--------|--------|--------|--------|--------|--------|--------|--------|--------|
D|--------|--------|--------|--------|--------|--------|--------|--------|--------|


D|---------------------------------------|--------------------------------------|---------------------------------------|
A|---------------------------------------|--------------------------------------|---------------------------------------|
F|---------------------------------------|------------------1--2--1--2--4--6----|---------3--2--3-----------------------|
C|---------4--2--4-----------------------|---------4--2--4----------------------|-------------------4--3--4-------------|
G|-------------------4--3--4---1--0--1---|--------------------------------------|-----------------------------4--3--4---|
D|-2---2---------------------------------|-2---2--------------------------------|-2---2---------------------------------|


D|--------------------------------------|-----------------------------------|-----------------5-----------------------|
A|--------------------------------------|-----------------------------------|--------------5-----5--8--8----8--8------|
F|---------3--2--3--4--6--4--6--8--9----|-----------------------------------|-----5--7--7-----------------------------|
C|--------------------------------------|------10-9-------------------------|-7---------------------------------------|
G|--------------------------------------|-12------------10-8-----7--8-------|-----------------------------------------|
D|-2---2--------------------------------|------------------------------8----|-----------------------------------------|


D|--------|--------|--------|--------|--------|-------9-----------------------|-12----------------------15----------------------|
A|--------|--------|--------|--------|--------|-----------11--8-------8-------|-----14--11------11----------17--14------14------|
F|--------|--------|--------|--------|--------|-------------------10------10--|-------------13------13--------------16------16--|
C|--------|--------|--------|--------|--------|-------------------------------|-------------------------------------------------|
G|--------|--------|--------|--------|--------|-------------------------------|-------------------------------------------------|
D|--------|--------|--------|--------|--------|-------------------------------|-------------------------------------------------|


D|-17----------|--------|--------|--------|--------|--------|--------|--------|--------|
A|-------------|--------|--------|--------|--------|--------|--------|--------|--------|
F|-------------|--------|--------|--------|--------|--------|--------|--------|--------|
C|-------------|--------|--------|--------|--------|--------|--------|--------|--------|
G|-------------|--------|--------|--------|--------|--------|--------|--------|--------|
D|-------------|--------|--------|--------|--------|--------|--------|--------|--------|


D|--------|--------|--------|--------|--------|--------|--------|--------|--------|
A|--------|--------|--------|--------|--------|--------|--------|--------|--------|
F|--------|--------|--------|--------|--------|--------|--------|--------|--------|
C|--------|--------|--------|--------|--------|--------|--------|--------|--------|
G|--------|--------|--------|--------|--------|--------|--------|--------|--------|
D|--------|--------|--------|--------|--------|--------|--------|--------|--------|


D|--------|--------|--------|--------|--------|--------|--------|--------|--------|
A|--------|--------|--------|--------|--------|--------|--------|--------|--------|
F|--------|--------|--------|--------|--------|--------|--------|--------|--------|
C|--------|--------|--------|--------|--------|--------|--------|--------|--------|
G|--------|--------|--------|--------|--------|--------|--------|--------|--------|
D|--------|--------|--------|--------|--------|--------|--------|--------|--------|


D|--------|--------|--------|--------|--------|--------|--------|--------|--------|
A|--------|--------|--------|--------|--------|--------|--------|--------|--------|
F|--------|--------|--------|--------|--------|--------|--------|--------|--------|
C|--------|--------|--------|--------|--------|--------|--------|--------|--------|
G|--------|--------|--------|--------|--------|--------|--------|--------|--------|
D|--------|--------|--------|--------|--------|--------|--------|--------|--------|


D|--------|--------|--------|--------|--------|--------|--------|--------|--------|
A|--------|--------|--------|--------|--------|--------|--------|--------|--------|
F|--------|--------|--------|--------|--------|--------|--------|--------|--------|
C|--------|--------|--------|--------|--------|--------|--------|--------|--------|
G|--------|--------|--------|--------|--------|--------|--------|--------|--------|
D|--------|--------|--------|--------|--------|--------|--------|--------|--------|


D|--------|--------|--------|--------|--------|--------|
A|--------|--------|--------|--------|--------|--------|
F|--------|--------|--------|--------|--------|--------|
C|--------|--------|--------|--------|--------|--------|
G|--------|--------|--------|--------|--------|--------|
D|--------|--------|--------|--------|--------|--------|





Track 5: Untitled

G|--------|--------|--------|--------|--------|--------|--------|--------|--------|
D|--------|--------|--------|--------|--------|--------|--------|--------|--------|
A|--------|--------|--------|--------|--------|--------|--------|--------|--------|
E|--------|--------|--------|--------|--------|--------|--------|--------|--------|


G|--------|--------|--------|--------|--------|--------|--------|--------|--------|
D|--------|--------|--------|--------|--------|--------|--------|--------|--------|
A|--------|--------|--------|--------|--------|--------|--------|--------|--------|
E|--------|--------|--------|--------|--------|--------|--------|--------|--------|


G|--------|--------|--------|--------|--------|--------|--------|--------|--------|
D|--------|--------|--------|--------|--------|--------|--------|--------|--------|
A|--------|--------|--------|--------|--------|--------|--------|--------|--------|
E|--------|--------|--------|--------|--------|--------|--------|--------|--------|


G|--------|--------|--------|--------|--------|--------|--------|--------|--------|
D|--------|--------|--------|--------|--------|--------|--------|--------|--------|
A|--------|--------|--------|--------|--------|--------|--------|--------|--------|
E|--------|--------|--------|--------|--------|--------|--------|--------|--------|


G|--------|--------|--------|--------|--------|--------|--------|--------|--------|
D|--------|--------|--------|--------|--------|--------|--------|--------|--------|
A|--------|--------|--------|--------|--------|--------|--------|--------|--------|
E|--------|--------|--------|--------|--------|--------|--------|--------|--------|


G|--------|--------|--------|--------|--------|--------|--------|--------|--------|
D|--------|--------|--------|--------|--------|--------|--------|--------|--------|
A|--------|--------|--------|--------|--------|--------|--------|--------|--------|
E|--------|--------|--------|--------|--------|--------|--------|--------|--------|


G|--------|--------|--------|--------|--------|--------|--------|--------|--------|
D|--------|--------|--------|--------|--------|--------|--------|--------|--------|
A|--------|--------|--------|--------|--------|--------|--------|--------|--------|
E|--------|--------|--------|--------|--------|--------|--------|--------|--------|


G|--------|--------|--------|--------|--------|--------|--------|--------|--------|
D|--------|--------|--------|--------|--------|--------|--------|--------|--------|
A|--------|--------|--------|--------|--------|--------|--------|--------|--------|
E|--------|--------|--------|--------|--------|--------|--------|--------|--------|


G|--------|--------|--------|--------|--------|--------|--------|--------|--------|
D|--------|--------|--------|--------|--------|--------|--------|--------|--------|
A|--------|--------|--------|--------|--------|--------|--------|--------|--------|
E|--------|--------|--------|--------|--------|--------|--------|--------|--------|


G|--------|--------|--------|--------|--------|--------|--------|--------|--------|
D|--------|--------|--------|--------|--------|--------|--------|--------|--------|
A|--------|--------|--------|--------|--------|--------|--------|--------|--------|
E|--------|--------|--------|--------|--------|--------|--------|--------|--------|


G|--------|--------|--------|--------|--------|--------|--------|--------|--------|
D|--------|--------|--------|--------|--------|--------|--------|--------|--------|
A|--------|--------|--------|--------|--------|--------|--------|--------|--------|
E|--------|--------|--------|--------|--------|--------|--------|--------|--------|


G|--------|--------|--------|--------|--------|--------|--------|--------|--------|
D|--------|--------|--------|--------|--------|--------|--------|--------|--------|
A|--------|--------|--------|--------|--------|--------|--------|--------|--------|
E|--------|--------|--------|--------|--------|--------|--------|--------|--------|


G|--------|--------|--------|--------|--------|--------|--------|--------|--------|
D|--------|--------|--------|--------|--------|--------|--------|--------|--------|
A|--------|--------|--------|--------|--------|--------|--------|--------|--------|
E|--------|--------|--------|--------|--------|--------|--------|--------|--------|


G|--------|--------|--------|--------|--------|--------|--------|--------|--------|
D|--------|--------|--------|--------|--------|--------|--------|--------|--------|
A|--------|--------|--------|--------|--------|--------|--------|--------|--------|
E|--------|--------|--------|--------|--------|--------|--------|--------|--------|


G|--------|--------|--------|--------|--------|--------|--------|--------|--------|
D|--------|--------|--------|--------|--------|--------|--------|--------|--------|
A|--------|--------|--------|--------|--------|--------|--------|--------|--------|
E|--------|--------|--------|--------|--------|--------|--------|--------|--------|


G|--------|--------|--------|--------|--------|--------|--------|--------|--------|
D|--------|--------|--------|--------|--------|--------|--------|--------|--------|
A|--------|--------|--------|--------|--------|--------|--------|--------|--------|
E|--------|--------|--------|--------|--------|--------|--------|--------|--------|


G|--------|--------|--------|--------|--------|--------|--------|--------|--------|
D|--------|--------|--------|--------|--------|--------|--------|--------|--------|
A|--------|--------|--------|--------|--------|--------|--------|--------|--------|
E|--------|--------|--------|--------|--------|--------|--------|--------|--------|


G|--------|--------|--------|--------|--------|--------|--------|--------|--------|
D|--------|--------|--------|--------|--------|--------|--------|--------|--------|
A|--------|--------|--------|--------|--------|--------|--------|--------|--------|
E|--------|--------|--------|--------|--------|--------|--------|--------|--------|


G|--------|--------|--------|--------|--------|--------|--------|--------|--------|
D|--------|--------|--------|--------|--------|--------|--------|--------|--------|
A|--------|--------|--------|--------|--------|--------|--------|--------|--------|
E|--------|--------|--------|--------|--------|--------|--------|--------|--------|


G|--------|--------|--------|--------|--------|--------|--------|--------|--------|
D|--------|--------|--------|--------|--------|--------|--------|--------|--------|
A|--------|--------|--------|--------|--------|--------|--------|--------|--------|
E|--------|--------|--------|--------|--------|--------|--------|--------|--------|


G|--------|--------|--------|--------|--------|--------|--------|--------|--------|
D|--------|--------|--------|--------|--------|--------|--------|--------|--------|
A|--------|--------|--------|--------|--------|--------|--------|--------|--------|
E|--------|--------|--------|--------|--------|--------|--------|--------|--------|


G|--------|--------|--------|--------|--------|--------|--------|--------|
D|--------|--------|--------|--------|--------|--------|--------|--------|
A|--------|--------|--------|--------|--------|--------|--------|--------|
E|--------|--------|--------|--------|--------|--------|--------|--------|