Menu:

 

Search:

 

pantera - psycho holiday:

 



Title: Psycho Holiday
Artist: 
Album: Cowbowy From Hell
Author: Vincent Paul Abbott, Darrell Lance Abbott, Rex Robert Brown, Philip Hansen Anselmo


Track 1: Gun

E|-------------------------------------------------------------------------|--------|
B|-0--0--0--0--0--0--0--0--0--0--0--0--0--0--0--0--0--0--0--0--0--0--0--0--|--------|
G|-------------------------------------------------------------------------|--------|
D|-------------------------------------------------------------------------|--------|
A|-------------------------------------------------------------------------|--------|
E|-------------------------------------------------------------------------|--------|


E|--------|--------|--------|--------|--------|--------|--------|--------|--------|
B|--------|--------|--------|--------|--------|--------|--------|--------|--------|
G|--------|--------|--------|--------|--------|--------|--------|--------|--------|
D|--------|--------|--------|--------|--------|--------|--------|--------|--------|
A|--------|--------|--------|--------|--------|--------|--------|--------|--------|
E|--------|--------|--------|--------|--------|--------|--------|--------|--------|


E|--------|--------|--------|--------|--------|--------|--------|--------|--------|
B|--------|--------|--------|--------|--------|--------|--------|--------|--------|
G|--------|--------|--------|--------|--------|--------|--------|--------|--------|
D|--------|--------|--------|--------|--------|--------|--------|--------|--------|
A|--------|--------|--------|--------|--------|--------|--------|--------|--------|
E|--------|--------|--------|--------|--------|--------|--------|--------|--------|


E|--------|--------|--------|--------|--------|--------|--------|--------|--------|
B|--------|--------|--------|--------|--------|--------|--------|--------|--------|
G|--------|--------|--------|--------|--------|--------|--------|--------|--------|
D|--------|--------|--------|--------|--------|--------|--------|--------|--------|
A|--------|--------|--------|--------|--------|--------|--------|--------|--------|
E|--------|--------|--------|--------|--------|--------|--------|--------|--------|


E|--------|--------|--------|--------|--------|--------|--------|--------|--------|
B|--------|--------|--------|--------|--------|--------|--------|--------|--------|
G|--------|--------|--------|--------|--------|--------|--------|--------|--------|
D|--------|--------|--------|--------|--------|--------|--------|--------|--------|
A|--------|--------|--------|--------|--------|--------|--------|--------|--------|
E|--------|--------|--------|--------|--------|--------|--------|--------|--------|


E|--------|--------|--------|--------|--------|--------|--------|--------|--------|
B|--------|--------|--------|--------|--------|--------|--------|--------|--------|
G|--------|--------|--------|--------|--------|--------|--------|--------|--------|
D|--------|--------|--------|--------|--------|--------|--------|--------|--------|
A|--------|--------|--------|--------|--------|--------|--------|--------|--------|
E|--------|--------|--------|--------|--------|--------|--------|--------|--------|


E|--------|--------|--------|--------|--------|--------|--------|--------|--------|
B|--------|--------|--------|--------|--------|--------|--------|--------|--------|
G|--------|--------|--------|--------|--------|--------|--------|--------|--------|
D|--------|--------|--------|--------|--------|--------|--------|--------|--------|
A|--------|--------|--------|--------|--------|--------|--------|--------|--------|
E|--------|--------|--------|--------|--------|--------|--------|--------|--------|


E|--------|--------|--------|--------|--------|--------|--------|--------|--------|
B|--------|--------|--------|--------|--------|--------|--------|--------|--------|
G|--------|--------|--------|--------|--------|--------|--------|--------|--------|
D|--------|--------|--------|--------|--------|--------|--------|--------|--------|
A|--------|--------|--------|--------|--------|--------|--------|--------|--------|
E|--------|--------|--------|--------|--------|--------|--------|--------|--------|


E|--------|--------|--------|--------|--------|--------|--------|--------|--------|
B|--------|--------|--------|--------|--------|--------|--------|--------|--------|
G|--------|--------|--------|--------|--------|--------|--------|--------|--------|
D|--------|--------|--------|--------|--------|--------|--------|--------|--------|
A|--------|--------|--------|--------|--------|--------|--------|--------|--------|
E|--------|--------|--------|--------|--------|--------|--------|--------|--------|


E|--------|--------|--------|--------|--------|--------|--------|--------|--------|
B|--------|--------|--------|--------|--------|--------|--------|--------|--------|
G|--------|--------|--------|--------|--------|--------|--------|--------|--------|
D|--------|--------|--------|--------|--------|--------|--------|--------|--------|
A|--------|--------|--------|--------|--------|--------|--------|--------|--------|
E|--------|--------|--------|--------|--------|--------|--------|--------|--------|


E|--------|--------|--------|--------|--------|--------|--------|--------|--------|
B|--------|--------|--------|--------|--------|--------|--------|--------|--------|
G|--------|--------|--------|--------|--------|--------|--------|--------|--------|
D|--------|--------|--------|--------|--------|--------|--------|--------|--------|
A|--------|--------|--------|--------|--------|--------|--------|--------|--------|
E|--------|--------|--------|--------|--------|--------|--------|--------|--------|


E|--------|--------|--------|--------|--------|--------|--------|--------|--------|
B|--------|--------|--------|--------|--------|--------|--------|--------|--------|
G|--------|--------|--------|--------|--------|--------|--------|--------|--------|
D|--------|--------|--------|--------|--------|--------|--------|--------|--------|
A|--------|--------|--------|--------|--------|--------|--------|--------|--------|
E|--------|--------|--------|--------|--------|--------|--------|--------|--------|


E|--------|--------|--------|--------|--------|--------|--------|--------|--------|
B|--------|--------|--------|--------|--------|--------|--------|--------|--------|
G|--------|--------|--------|--------|--------|--------|--------|--------|--------|
D|--------|--------|--------|--------|--------|--------|--------|--------|--------|
A|--------|--------|--------|--------|--------|--------|--------|--------|--------|
E|--------|--------|--------|--------|--------|--------|--------|--------|--------|


E|--------|--------|--------|--------|--------|--------|--------|--------|--------|
B|--------|--------|--------|--------|--------|--------|--------|--------|--------|
G|--------|--------|--------|--------|--------|--------|--------|--------|--------|
D|--------|--------|--------|--------|--------|--------|--------|--------|--------|
A|--------|--------|--------|--------|--------|--------|--------|--------|--------|
E|--------|--------|--------|--------|--------|--------|--------|--------|--------|


E|--------|--------|--------|--------|--------|--------|--------|--------|--------|
B|--------|--------|--------|--------|--------|--------|--------|--------|--------|
G|--------|--------|--------|--------|--------|--------|--------|--------|--------|
D|--------|--------|--------|--------|--------|--------|--------|--------|--------|
A|--------|--------|--------|--------|--------|--------|--------|--------|--------|
E|--------|--------|--------|--------|--------|--------|--------|--------|--------|


E|--------|--------|--------|--------|--------|--------|--------|
B|--------|--------|--------|--------|--------|--------|--------|
G|--------|--------|--------|--------|--------|--------|--------|
D|--------|--------|--------|--------|--------|--------|--------|
A|--------|--------|--------|--------|--------|--------|--------|
E|--------|--------|--------|--------|--------|--------|--------|





Track 2: Guitar

E|--------|-------------------------------------------------------|-------------------------------------------------------|
B|--------|-------------------------------------------------------|-------------------------------------------------------|
G|--------|-------------------------------------------------------|-------------------------------------------------------|
D|--------|-------------------------------------------------------|-------------------------------------------------------|
A|--------|-------------------------------------------------------|-------------------------------------------------------|
E|--------|-2--2--2--2--2--2--2--2--2--2--2--2--2--2--2--2--2--2--|-2--2--2--2--2--2--2--2--2--2--2--2--2--2--2--2--2--2--|


E|-------------------------------------------------------|-------------------------------------------------------|
B|-------------------------------------------------------|-------------------------------------------------------|
G|-------------------------------------------------------|-------------------------------------------------------|
D|-------------------------------------------------------|-------------------------------------------------------|
A|-------------------------------------------------------|-------------------------------------------------------|
E|-2--2--2--2--2--2--2--2--2--2--2--2--2--2--2--2--2--2--|-2--2--2--2--2--2--2--2--2--2--2--2--2--2--2--2--2--2--|


E|--------------------------------|--------------------------------|--------------------------------|
B|--------------------------------|--------------------------------|--------------------------------|
G|----------------------3---3-----|----------------------2---2-----|----------------------1---1-----|
D|----------------------3---3-----|----------------------2---2-----|----------------------1---1-----|
A|--------------------------------|--------------------------------|--------------------------------|
E|-4--4--4--4--4--4--4------------|-4--4--4--4--4--4--4------------|-4--4--4--4--4--4--4------------|


E|--------------------------------|--------------------------------|--------------------------------|
B|--------------------------------|--------------------------------|--------------------------------|
G|----------------------0---0-----|----------------------3---3-----|----------------------2---2-----|
D|----------------------0---0-----|----------------------3---3-----|----------------------2---2-----|
A|--------------------------------|--------------------------------|--------------------------------|
E|-4--4--4--4--4--4--4------------|-4--4--4--4--4--4--4------------|-4--4--4--4--4--4--4------------|


E|--------------------------------|-------------|-------------------------------------------------------|
B|--------------------------------|-------------|-------------------------------------------------------|
G|----------------------1---1-----|-5-----------|---------------------------------------------------7---|
D|----------------------1---1-----|-------------|-6--4----------------------6--4--------------------7---|
A|--------------------------------|--------10---|-------6--5--4--5----------------6--5--4--5------------|
E|-4--4--4--4--4--4--4------------|-------------|-------------------7--4----------------------7--4------|


E|-------------------------------------------------------|-------------------------------------------------------|
B|-------------------------------------------------------|-------------------------------------------------------|
G|---------------------------------------------------7---|---------------------------------------------------7---|
D|-6--4----------------------6--4--------------------7---|-6--4----------------------6--4--------------------7---|
A|-------6--5--4--5----------------6--5--4--5------------|-------6--5--4--5----------------6--5--4--5------------|
E|-------------------7--4----------------------7--4------|-------------------7--4----------------------7--4------|


E|-------------------------------------------------------|-----------------------------------------------------|
B|-------------------------------------------------------|-----------------------------------------------------|
G|---------------------------------------------------7---|-----------------------------------------------------|
D|-6--4----------------------6--4--------------------7---|-----------------------------------------------------|
A|-------6--5--4--5----------------6--5--4--5------------|-----------------------------------------------------|
E|-------------------7--4----------------------7--4------|-----0--0--0--0--0--0--0--0--0--0--0--0--0--0--0--0--|


E|-------------------------------------------------------|-------------------------------------------------------|
B|-------------------------------------------------------|-------------------------------------------------------|
G|-------------------------------------------------------|-------------------------------------------------------|
D|-------------------------------------------------------|-------------------------------------------------------|
A|-------------------------------------------------------|-------------------------------------------------------|
E|-0--0--0--0--0--0--0--0--0--0--0--0--0--0--0--0--0--0--|-0--0--0--0--0--0--0--0--0--0--0--0--0--0--0--0--0--0--|


E|-------------------------------------------------------|-------------------------------------------------------|
B|-------------------------------------------------------|-------------------------------------------------------|
G|-------------------------------------------------------|-------------------------------------------------------|
D|-------------------------------------------------------|-------------------------------------------------------|
A|-------------------------------------------------------|-------------------------------------------------------|
E|-0--0--0--0--0--0--0--0--0--0--0--0--0--0--0--0--0--0--|-0--0--0--0--0--0--0--0--0--0--0--0--0--0--0--0--0--0--|


E|-------------------------------------------------------|-------------------------------------------------------|
B|-------------------------------------------------------|-------------------------------------------------------|
G|-------------------------------------------------------|-------------------------------------------------------|
D|-------------------------------------------------------|-------------------------------------------------------|
A|-------------------------------------------------------|-------------------------------------------------------|
E|-0--0--0--0--0--0--0--0--0--0--0--0--0--0--0--0--0--0--|-0--0--0--0--0--0--0--0--0--0--0--0--0--0--0--0--0--0--|


E|-------------------------------------------------------|---------------------------------------------------------|
B|-------------------------------------------------------|---------------------------------------------------------|
G|-------------------------------------------------------|---------------------------------------------------------|
D|-------------------------------------------------------|-------6--4----------------------6--4--------------------|
A|-------------------------------------------------------|-------------6--5--4--5----------------6--5--4--5--------|
E|-0--0--0--0--0--0--0--0--0--0--0--0--0--0--0--0--0--0--|-0--0--------------------7--4----------------------7--4--|


E|-----------------------------------------------------|-------------------------------------------------------|
B|-----------------------------------------------------|-------------------------------------------------------|
G|-7---------------------------------------------------|-------------------------------------------------------|
D|-7---------------------------------------------------|-------------------------------------------------------|
A|-----------------------------------------------------|-------------------------------------------------------|
E|-----0--0--0--0--0--0--0--0--0--0--0--0--0--0--0--0--|-0--0--0--0--0--0--0--0--0--0--0--0--0--0--0--0--0--0--|


E|---------------------------------------------------------|-------------------------------------------------------|
B|---------------------------------------------------------|-------------------------------------------------------|
G|---------------------------------------------------------|-7-----------------------------------------------------|
D|-------6--4----------------------6--4--------------------|-7---6--4----------------------6--4--------------------|
A|-------------6--5--4--5----------------6--5--4--5--------|-----------6--5--4--5----------------6--5--4--5--------|
E|-0--0--------------------7--4----------------------7--4--|-----------------------7--4----------------------7--4--|


E|-------------------------------------------------------|--------------------------------------------------|
B|-------------------------------------------------------|--------------------------------------------------|
G|-7-----------------------------------------------------|-7-------------------------------------7----------|
D|-7---6--4----------------------6--4--------------------|-7---6--4------------------------------7----------|
A|-----------6--5--4--5----------------6--5--4--5--------|-----------6--5--4--5-----------------------------|
E|-----------------------7--4----------------------7--4--|-----------------------7--4----0---0-------0---0--|


E|---------------------------|-----------------|-----------------|-----------------|
B|---------------------------|-----------------|-----------------|-----------------|
G|----7---7------------3-----|-----------2-----|-----------1-----|-----------0-----|
D|----7---7------------3-----|-----------2-----|-----------1-----|-----------0-----|
A|---------------------------|-----------------|-----------------|-----------------|
E|---------------------------|-----------------|-----------------|-----------------|


E|-----------------|-----------------|-----------------|-----------3-----|--------------------------------|
B|-----------------|-----------------|-----------------|-----------------|--------------------------------|
G|-----------3-----|-----------2-----|-----------1-----|-----------------|--------------------------------|
D|-----------3-----|-----------2-----|-----------1-----|-----------------|--------------------------------|
A|-----------------|-----------------|-----------------|-----------------|--------------------------------|
E|-----------------|-----------------|-----------------|-----------------|-----------0--0--0--0--0--0--0--|


E|-------------------------------------------------------|-------------------------------------------------------|
B|-------------------------------------------------------|-------------------------------------------------------|
G|-------------------------------------------------------|-------------------------------------------------------|
D|-------------------------------------------------------|-------------------------------------------------------|
A|-------------------------------------------------------|-------------------------------------------------------|
E|-0--0--0--0--0--0--0--0--0--0--0--0--0--0--0--0--0--0--|-0--0--0--0--0--0--0--0--0--0--0--0--0--0--0--0--0--0--|


E|-------------------------------------------------------|-------------------------------------------------------|
B|-------------------------------------------------------|-------------------------------------------------------|
G|-------------------------------------------------------|-------------------------------------------------------|
D|-------------------------------------------------------|-------------------------------------------------------|
A|-------------------------------------------------------|-------------------------------------------------------|
E|-0--0--0--0--0--0--0--0--0--0--0--0--0--0--0--0--0--0--|-0--0--0--0--0--0--0--0--0--0--0--0--0--0--0--0--0--0--|


E|-------------------------------------------------------|-------------------------------------------------------|
B|-------------------------------------------------------|-------------------------------------------------------|
G|-------------------------------------------------------|-------------------------------------------------------|
D|-------------------------------------------------------|-------------------------------------------------------|
A|-------------------------------------------------------|-------------------------------------------------------|
E|-0--0--0--0--0--0--0--0--0--0--0--0--0--0--0--0--0--0--|-0--0--0--0--0--0--0--0--0--0--0--0--0--0--0--0--0--0--|


E|-------------------------------------------------------|----------------------------------------------------------|
B|-------------------------------------------------------|----------------------------------------------------------|
G|-------------------------------------------------------|----------------------------------------------------------|
D|-------------------------------------------------------|----------------------------------6--4--------------------|
A|-------------------------------------------------------|----------------------------------------6--5--4--5--------|
E|-0--0--0--0--0--0--0--0--0--0--0--0--0--0--0--0--0--0--|-0--0--0--0--0--0--0--0--0--0--0--------------------7--4--|


E|------------------------------------------------------|-------------------------------------------------------|
B|------------------------------------------------------|-------------------------------------------------------|
G|-----------------------------7------------------------|-------------------------------------------------------|
D|-----6--4--------------------7------------------------|-------------------------------------------------------|
A|-----------6--5--4--5---------------------------------|-------------------------------------------------------|
E|-----------------------7--4------0--0--0--0--0--0--0--|-0--0--0--0--0--0--0--0--0--0--0--0--0--0--0--0--0--0--|


E|----------------------------------------------------------|---------------------------------------------------------|
B|----------------------------------------------------------|---------------------------------------------------------|
G|----------------------------------------------------------|-----------------------------7---------------------------|
D|----------------------------------6--4--------------------|-----6--4--------------------7---6--4--------------------|
A|----------------------------------------6--5--4--5--------|-----------6--5--4--5------------------6--5--4--5--------|
E|-0--0--0--0--0--0--0--0--0--0--0--------------------7--4--|-----------------------7--4------------------------7--4--|


E|---------------------------------------------------------|---------------------------------------------------------|
B|---------------------------------------------------------|---------------------------------------------------------|
G|-----------------------------7---------------------------|-----------------------------7---------------------------|
D|-----6--4--------------------7---6--4--------------------|-----6--4--------------------7---6--4--------------------|
A|-----------6--5--4--5------------------6--5--4--5--------|-----------6--5--4--5------------------6--5--4--5--------|
E|-----------------------7--4------------------------7--4--|-----------------------7--4------------------------7--4--|


E|-----------------------------------------|------------|------------|------------|
B|-----------------------------------------|------------|------------|------------|
G|-------------7-----------7---7-----------|-----3------|-----2------|-----1------|
D|-------------7-----------7---7-----------|-----3------|-----2------|-----1------|
A|-----------------------------------------|------------|------------|------------|
E|-----0---0-------0---0-------------------|------------|------------|------------|


E|------------|------------|------------|------------|-------------------------------------|
B|------------|------------|------------|------------|-------------------------------------|
G|-----0------|-----3------|-----2------|-----1------|-------------------------------------|
D|-----0------|-----3------|-----2------|-----1------|-----6--4----------------------------|
A|------------|------------|------------|------------|-----------6--5--4-------------------|
E|------------|------------|------------|------------|--------------------7--4-------------|


E|--------------0----------------0------|--------------0--3-------5----5---|--------------12---------------12-----|
B|-----------0-----3----------0-----2---|-----------0----------------------|-----------12----15---------12----14--|
G|-----0--1-------------0--1------------|-----0--1-------------------------|-----12-13------------12-13-----------|
D|--------------------------------------|----------------------------------|--------------------------------------|
A|--------------------------------------|----------------------------------|--------------------------------------|
E|--------------------------------------|----------------------------------|--------------------------------------|


E|--------------12-15-------15--------|-----------------------------------------------------------15-17----|
B|-----------12----------------14-14--|-----------------------15-17----15-17----15-17-18-15-17-18-------18-|
G|-----12-13--------------------------|-----15-17-18-15-17-18-------18-------18----------------------------|
D|------------------------------------|--------------------------------------------------------------------|
A|------------------------------------|--------------------------------------------------------------------|
E|------------------------------------|--------------------------------------------------------------------|


E|-15-17----15-17-18-17-17-18-17-1817181715-151718-17-15----15-18-18-18----|--------------18-22-18----17-------------------18-22-18------------|
B|-------18----------------------------------------------18-------------17-|-----------20----------20----20-18----18----20----------20-20-18-18|
G|-------------------------------------------------------------------------|----16-16--------------------------19----19------------------------|
D|-------------------------------------------------------------------------|-------------------------------------------------------------------|
A|-------------------------------------------------------------------------|-------------------------------------------------------------------|
E|-------------------------------------------------------------------------|-------------------------------------------------------------------|


E|-----------------------------------------------------------------------|--------------12---------------12-----|
B|------18------18--2018--1822---18----18--------------------------------|-----------12----15---------12----14--|
G|---19----19-18--18----19----19----18----18----18----18-----------------|-----12-13------------12-13-----------|
D|-------------------------------------------20----18----18----17----17--|--------------------------------------|
A|----------------------------------------------------------20----20-----|--------------------------------------|
E|-----------------------------------------------------------------------|--------------------------------------|


E|--------------12-15-------17---|--------19-------18----22-17-------17-------19-------18-------17-------|
B|-----------12------------------|-17--20----19-20----20-------19-20----19-20----19-20----19-20----19-20-|
G|-----12-13---------------------|-----------------------------------------------------------------------|
D|-------------------------------|-----------------------------------------------------------------------|
A|-------------------------------|-----------------------------------------------------------------------|
E|-------------------------------|-----------------------------------------------------------------------|


E|-18-------19-------18-------17-------18-------18----|-----15-17-18-17-18-17-18-17-15-17-15----------15-17-15-17-15---------|
B|----19-20----19-20----19-20----19-------19----------|-15-----------------------------------18-18-17----------------18181715|
G|----------------------------------19-------19-------|----------------------------------------------------------------------|
D|----------------------------------------------------|----------------------------------------------------------------------|
A|----------------------------------------------------|----------------------------------------------------------------------|
E|----------------------------------------------------|----------------------------------------------------------------------|


E|-----------------------------------------------------|-----15----15----|---------------------|
B|-17151415161514151817151415-14-------18-18-----------|-----------------|---------13----13----|
G|-------------------------------17-16---------17---16-|-----------------|---------------------|
D|-----------------------------------------------------|-----------------|---------------------|
A|-----------------------------------------------------|-----------------|---------------------|
E|-----------------------------------------------------|-----------------|---------------------|


E|--------------------17--20-|--------17--19------17--------------------------|------------------------|
B|---------20----20----------|----20----------20------19--20--17--------------|---------22----22-------|
G|---------------------------|------------------------------------18----------|------------------------|
D|---------------------------|----------------------------------------19------|------------------------|
A|---------------------------|------------------------------------------------|------------------------|
E|---------------------------|--------------------------------------------17--|------------------------|


E|-24--24----24----|-----------------------------------------------------|-------------------------------------------------------|
B|-----------------|-----------------------------------------------------|-------------------------------------------------------|
G|-----------------|-----------------------------------------------------|-------------------------------------------------------|
D|-----------------|-----------------------------------------------------|-------------------------------------------------------|
A|-----------------|-----------------------------------------------------|-------------------------------------------------------|
E|-----------------|-----0--0--0--0--0--0--0--0--0--0--0--0--0--0--0--0--|-0--0--0--0--0--0--0--0--0--0--0--0--0--0--0--0--0--0--|


E|-------------------------------------------------------|-------------------------------------------------------|
B|-------------------------------------------------------|-------------------------------------------------------|
G|-------------------------------------------------------|-------------------------------------------------------|
D|-------------------------------------------------------|-------------------------------------------------------|
A|-------------------------------------------------------|-------------------------------------------------------|
E|-0--0--0--0--0--0--0--0--0--0--0--0--0--0--0--0--0--0--|-0--0--0--0--0--0--0--0--0--0--0--0--0--0--0--0--0--0--|


E|-------------------------------------------------------|-------------------------------------------------------|
B|-------------------------------------------------------|-------------------------------------------------------|
G|-------------------------------------------------------|-------------------------------------------------------|
D|-------------------------------------------------------|-------------------------------------------------------|
A|-------------------------------------------------------|-------------------------------------------------------|
E|-0--0--0--0--0--0--0--0--0--0--0--0--0--0--0--0--0--0--|-0--0--0--0--0--0--0--0--0--0--0--0--0--0--0--0--0--0--|


E|-------------------------------------------------------|-------------------------------------------------------|
B|-------------------------------------------------------|-------------------------------------------------------|
G|-------------------------------------------------------|-------------------------------------------------------|
D|-------------------------------------------------------|-------------------------------------------------------|
A|-------------------------------------------------------|-------------------------------------------------------|
E|-0--0--0--0--0--0--0--0--0--0--0--0--0--0--0--0--0--0--|-0--0--0--0--0--0--0--0--0--0--0--0--0--0--0--0--0--0--|


E|---------------------------------------------------------|-----------------------------------------------------|
B|---------------------------------------------------------|-----------------------------------------------------|
G|---------------------------------------------------------|-7---------------------------------------------------|
D|-------6--4----------------------6--4--------------------|-7---------------------------------------------------|
A|-------------6--5--4--5----------------6--5--4--5--------|-----------------------------------------------------|
E|-0--0--------------------7--4----------------------7--4--|-----0--0--0--0--0--0--0--0--0--0--0--0--0--0--0--0--|


E|-------------------------------------------------------|---------------------------------------------------------|
B|-------------------------------------------------------|---------------------------------------------------------|
G|-------------------------------------------------------|---------------------------------------------------------|
D|-------------------------------------------------------|-------6--4----------------------6--4--------------------|
A|-------------------------------------------------------|-------------6--5--4--5----------------6--5--4--5--------|
E|-0--0--0--0--0--0--0--0--0--0--0--0--0--0--0--0--0--0--|-0--0--------------------7--4----------------------7--4--|


E|-------------------------------------------------------|-------------------------------------------------------|
B|-------------------------------------------------------|-------------------------------------------------------|
G|-7-----------------------------------------------------|-7-----------------------------------------------------|
D|-7---6--4----------------------6--4--------------------|-7---6--4----------------------6--4--------------------|
A|-----------6--5--4--5----------------6--5--4--5--------|-----------6--5--4--5----------------6--5--4--5--------|
E|-----------------------7--4----------------------7--4--|-----------------------7--4----------------------7--4--|


E|--------------------------------------------------|---------------------------|-----------------|
B|--------------------------------------------------|---------------------------|-----------------|
G|-7-------------------------------------7----------|----7---7------------3-----|-----------2-----|
D|-7---6--4------------------------------7----------|----7---7------------3-----|-----------2-----|
A|-----------6--5--4--5-----------------------------|---------------------------|-----------------|
E|-----------------------7--4----0---0-------0---0--|---------------------------|-----------------|


E|-----------------|-----------------|-----------------|-----------------|-----------------|
B|-----------------|-----------------|-----------------|-----------------|-----------------|
G|-----------1-----|-----------0-----|-----------3-----|-----------2-----|-----------1-----|
D|-----------1-----|-----------0-----|-----------3-----|-----------2-----|-----------1-----|
A|-----------------|-----------------|-----------------|-----------------|-----------------|
E|-----------------|-----------------|-----------------|-----------------|-----------------|


E|-----------3---3----|-3---------------|-----------------|-----------------|-----------------------|
B|--------------------|-----------11----|-----------10----|-----------9-----|-----------------------|
G|--------------------|-----------------|-----------------|-----------------|-----------2----3--3---|
D|--------------------|-----------8-----|-----------7-----|-----------6-----|-----------------------|
A|--------------------|-----------------|-----------------|-----------------|-----------------------|
E|--------------------|-----------------|-----------------|-----------------|-----------------------|


E|-----------------|-----------------|-----------------|-----------15-------|-----------------------------|
B|-2---2-----11----|-----------10----|-----------9-----|--------------------|-----------------------------|
G|-----------------|-----------------|-----------------|--------------------|-----------------------------|
D|-----------8-----|-----------7-----|-----------6-----|--------------------|-----------------------------|
A|-----------------|-----------------|-----------------|--------------------|-----------8-----------8-----|
E|-----------------|-----------------|-----------------|--------------------|-----------6--6--6--6--6--6--|


E|-------------------------------------------------|-------------------------------------------------|
B|-------------------------------------------------|-------------------------------------------------|
G|-------------------------------------------------|-------------------------------------------------|
D|-------------------------------------------------|-------------------------------------------------|
A|-------8--------8-----------8--7-----------7-----|-------7--------7-----------7--6-----------6-----|
E|-6--6--6--6--6--6--6--6--6--6--5--5--5--5--5--5--|-5--5--5--5--5--5--5--5--5--5--4--4--4--4--4--4--|


E|-------------------------------------------------|-------------------------------------------------|
B|-------------------------------------------------|-------------------------------------------------|
G|-------------------------------------------------|-------------------------------------------------|
D|-------------------------------------------------|-------------------------------------------------|
A|-------6--------6-----------6--5-----------------|-------------------------------8-----------8-----|
E|-4--4--4--4--4--4--4--4--4--4--3--3--3--3--3--3--|-3--3--3--3--3--3--3--3--3--3--6--6--6--6--6--6--|


E|-------------------------------------------------|-------------------------------------------------|
B|-------------------------------------------------|-------------------------------------------------|
G|-------------------------------------------------|-------------------------------------------------|
D|-------------------------------------------------|-------------------------------------------------|
A|-------8--------8-----------8--7-----------7-----|-------7--------7-----------7--6-----------6-----|
E|-6--6--6--6--6--6--6--6--6--6--5--5--5--5--5--5--|-5--5--5--5--5--5--5--5--5--5--4--4--4--4--4--4--|


E|---------------------------------------------|---------------------------------------|
B|---------------------------------------------|---------------------------------------|
G|---------------------------------------------|---------------------------------------|
D|---------------------------------------------|---------------------------------------|
A|-------6--------6-----------6--5---5---5--3--|-----5---5---5--4----8-----------8-----|
E|-4--4--4--4--4--4--4--4--4--4--3---3---3--1--|-----3---3---3--2----6--6--6--6--6--6--|


E|-------------------------------------------------|-------------------------------------------------|
B|-------------------------------------------------|-------------------------------------------------|
G|-------------------------------------------------|-------------------------------------------------|
D|-------------------------------------------------|-------------------------------------------------|
A|-------8--------8-----------8--7-----------7-----|-------7--------7-----------7--6-----------6-----|
E|-6--6--6--6--6--6--6--6--6--6--5--5--5--5--5--5--|-5--5--5--5--5--5--5--5--5--5--4--4--4--4--4--4--|


E|-------------------------------------------------|-------------------------------------------------|
B|-------------------------------------------------|-------------------------------------------------|
G|-------------------------------------------------|-------------------------------------------------|
D|-------------------------------------------------|-------------------------------------------------|
A|-------6--------6-----------6--5-----------------|-------------------------------8-----------8-----|
E|-4--4--4--4--4--4--4--4--4--4--3--3--3--3--3--3--|-3--3--3--3--3--3--3--3--3--3--6--6--6--6--6--6--|


E|-------------------------------------------------|-------------------------------------------------|
B|-------------------------------------------------|-------------------------------------------------|
G|-------------------------------------------------|-------------------------------------------------|
D|-------------------------------------------------|-------------------------------------------------|
A|-------8--------8-----------8--7-----------7-----|-------7--------7-----------7--6-----------6-----|
E|-6--6--6--6--6--6--6--6--6--6--5--5--5--5--5--5--|-5--5--5--5--5--5--5--5--5--5--4--4--4--4--4--4--|


E|---------------------------------------------|---------------------------------|
B|---------------------------------------------|---------------------------------|
G|---------------------------------------------|---------------------------------|
D|---------------------------------------------|---------------------5-------5---|
A|-------6--------6-----------6--5---5---5--3--|-----5---5---5--4----5-------5---|
E|-4--4--4--4--4--4--4--4--4--4--3---3---3--1--|-----3---3---3--2----3-------3---|


E|---------------------------|----------18---7----------------|-----------------|
B|---------------------------|--------------------------------|-----------------|
G|---------------------------|-----15-------------------------|-----------------|
D|-----5-------5-------8-----|--------------------8---5-------|-----------------|
A|-----5-------5-------8-----|--------------------8---5-------|-----------------|
E|-----3-------3-------6-----|--------------------6---3-------|-----------------|





Track 3: Untitled

G|--------|--------|--------|--------|--------|--------|--------|--------|--------|
D|--------|--------|--------|--------|--------|--------|--------|--------|--------|
A|--------|--------|--------|--------|--------|--------|--------|--------|--------|
E|--------|--------|--------|--------|--------|--------|--------|--------|--------|


G|--------|--------|--------|--------|--------|--------|--------|--------|--------|
D|--------|--------|--------|--------|--------|--------|--------|--------|--------|
A|--------|--------|--------|--------|--------|--------|--------|--------|--------|
E|--------|--------|--------|--------|--------|--------|--------|--------|--------|


G|--------|--------|--------|--------|--------|--------|--------|--------|--------|
D|--------|--------|--------|--------|--------|--------|--------|--------|--------|
A|--------|--------|--------|--------|--------|--------|--------|--------|--------|
E|--------|--------|--------|--------|--------|--------|--------|--------|--------|


G|--------|--------|--------|--------|--------|--------|--------|--------|--------|
D|--------|--------|--------|--------|--------|--------|--------|--------|--------|
A|--------|--------|--------|--------|--------|--------|--------|--------|--------|
E|--------|--------|--------|--------|--------|--------|--------|--------|--------|


G|--------|--------|--------|--------|--------|--------|--------|--------|--------|
D|--------|--------|--------|--------|--------|--------|--------|--------|--------|
A|--------|--------|--------|--------|--------|--------|--------|--------|--------|
E|--------|--------|--------|--------|--------|--------|--------|--------|--------|


G|--------|--------|--------|--------|--------|--------|--------|--------|--------|
D|--------|--------|--------|--------|--------|--------|--------|--------|--------|
A|--------|--------|--------|--------|--------|--------|--------|--------|--------|
E|--------|--------|--------|--------|--------|--------|--------|--------|--------|


G|--------|--------|--------|--------|--------|--------|--------|--------|--------|
D|--------|--------|--------|--------|--------|--------|--------|--------|--------|
A|--------|--------|--------|--------|--------|--------|--------|--------|--------|
E|--------|--------|--------|--------|--------|--------|--------|--------|--------|


G|--------|--------|--------|--------|--------|--------|--------|--------|--------|
D|--------|--------|--------|--------|--------|--------|--------|--------|--------|
A|--------|--------|--------|--------|--------|--------|--------|--------|--------|
E|--------|--------|--------|--------|--------|--------|--------|--------|--------|


G|--------|--------|--------|--------|--------|--------|--------|--------|--------|
D|--------|--------|--------|--------|--------|--------|--------|--------|--------|
A|--------|--------|--------|--------|--------|--------|--------|--------|--------|
E|--------|--------|--------|--------|--------|--------|--------|--------|--------|


G|--------|--------|--------|--------|--------|--------|--------|--------|--------|
D|--------|--------|--------|--------|--------|--------|--------|--------|--------|
A|--------|--------|--------|--------|--------|--------|--------|--------|--------|
E|--------|--------|--------|--------|--------|--------|--------|--------|--------|


G|--------|--------|--------|--------|--------|--------|--------|--------|--------|
D|--------|--------|--------|--------|--------|--------|--------|--------|--------|
A|--------|--------|--------|--------|--------|--------|--------|--------|--------|
E|--------|--------|--------|--------|--------|--------|--------|--------|--------|


G|--------|--------|--------|--------|--------|--------|--------|--------|--------|
D|--------|--------|--------|--------|--------|--------|--------|--------|--------|
A|--------|--------|--------|--------|--------|--------|--------|--------|--------|
E|--------|--------|--------|--------|--------|--------|--------|--------|--------|


G|--------|--------|--------|--------|--------|--------|--------|--------|--------|
D|--------|--------|--------|--------|--------|--------|--------|--------|--------|
A|--------|--------|--------|--------|--------|--------|--------|--------|--------|
E|--------|--------|--------|--------|--------|--------|--------|--------|--------|


G|--------|--------|--------|--------|--------|--------|--------|--------|--------|
D|--------|--------|--------|--------|--------|--------|--------|--------|--------|
A|--------|--------|--------|--------|--------|--------|--------|--------|--------|
E|--------|--------|--------|--------|--------|--------|--------|--------|--------|


G|--------|--------|--------|--------|--------|--------|--------|--------|--------|
D|--------|--------|--------|--------|--------|--------|--------|--------|--------|
A|--------|--------|--------|--------|--------|--------|--------|--------|--------|
E|--------|--------|--------|--------|--------|--------|--------|--------|--------|