Menu:

 

Search:

 

pantera - planet caravan:

 



Title: Planet Caravan
Artist: 
Album: Far Beyond Driven
Author: Ozzy Osborne, Bill Ward, Geezer Butler, Toni Iommi


Track 1: Untitled

D#|-------------0---0---0--------|---------------------------------|-------------0---0---0--------|
A#|-------------0---0---0--------|-------------0-------------------|-------------0---0---0--------|
F#|-------------0---0---0--------|---------0---------------0---2---|-------------0---0---0--------|
C#|---------5-----------4----2---|-----4---------------4-----------|---------5-----------4----2---|
G#|-----2------------------------|-5---------------5---------------|-----2------------------------|
D#|-0----------------------------|---------------------------------|-0----------------------------|


D#|---------------------------------|-------------0---0---0--------|---------------------------------|
A#|-------------0-------------------|-------------0---0---0--------|-------------0-------------------|
F#|---------0---------------0---2---|-------------0---0---0--------|---------0---------------0---2---|
C#|-----4---------------4-----------|---------5-----------4----2---|-----4---------------4-----------|
G#|-5---------------5---------------|-----2------------------------|-5---------------5---------------|
D#|---------------------------------|-0----------------------------|---------------------------------|


D#|-------------0---0---0--------|---------------------------------|-------------0---0---0--------|
A#|-------------0---0---0--------|-------------0-------------------|-------------0---0---0--------|
F#|-------------0---0---0--------|---------0---------------0---2---|-------------0---0---0--------|
C#|---------5-----------4----2---|-----4---------------4-----------|---------5-----------4----2---|
G#|-----2------------------------|-5---------------5---------------|-----2------------------------|
D#|-0----------------------------|---------------------------------|-0----------------------------|


D#|---------------------------------|-------------0---0---0--------|---------------------------------|
A#|-------------0-------------------|-------------0---0---0--------|-------------0-------------------|
F#|---------0---------------0---2---|-------------0---0---0--------|---------0---------------0---2---|
C#|-----4---------------4-----------|---------5-----------4----2---|-----4---------------4-----------|
G#|-5---------------5---------------|-----2------------------------|-5---------------5---------------|
D#|---------------------------------|-0----------------------------|---------------------------------|


D#|-------------0---0---0--------|---------------------------------|-------------0---0---0--------|
A#|-------------0---0---0--------|-------------0-------------------|-------------0---0---0--------|
F#|-------------0---0---0--------|---------0---------------0---2---|-------------0---0---0--------|
C#|---------5-----------4----2---|-----4---------------4-----------|---------5-----------4----2---|
G#|-----2------------------------|-5---------------5---------------|-----2------------------------|
D#|-0----------------------------|---------------------------------|-0----------------------------|


D#|---------------------------------|-------------0---0---0--------|---------------------------------|
A#|-------------0-------------------|-------------0---0---0--------|-------------0-------------------|
F#|---------0---------------0---2---|-------------0---0---0--------|---------0---------------0---2---|
C#|-----4---------------4-----------|---------5-----------4----2---|-----4---------------4-----------|
G#|-5---------------5---------------|-----2------------------------|-5---------------5---------------|
D#|---------------------------------|-0----------------------------|---------------------------------|


D#|-------------0---0---0--------|---------------------------------|-------------0---0---0--------|
A#|-------------0---0---0--------|-------------0-------------------|-------------0---0---0--------|
F#|-------------0---0---0--------|---------0---------------0---2---|-------------0---0---0--------|
C#|---------5-----------4----2---|-----4---------------4-----------|---------5-----------4----2---|
G#|-----2------------------------|-5---------------5---------------|-----2------------------------|
D#|-0----------------------------|---------------------------------|-0----------------------------|


D#|---------------------------------|-------------0---0---0--------|---------------------------------|
A#|-------------0-------------------|-------------0---0---0--------|-------------0-------------------|
F#|---------0---------------0---2---|-------------0---0---0--------|---------0---------------0---2---|
C#|-----4---------------4-----------|---------5-----------4----2---|-----4---------------4-----------|
G#|-5---------------5---------------|-----2------------------------|-5---------------5---------------|
D#|---------------------------------|-0----------------------------|---------------------------------|


D#|-------------0---0---0--------|---------------------------------|-------------0---0---0--------|
A#|-------------0---0---0--------|-------------0-------------------|-------------0---0---0--------|
F#|-------------0---0---0--------|---------0---------------0---2---|-------------0---0---0--------|
C#|---------5-----------4----2---|-----4---------------4-----------|---------5-----------4----2---|
G#|-----2------------------------|-5---------------5---------------|-----2------------------------|
D#|-0----------------------------|---------------------------------|-0----------------------------|


D#|---------------------------------|-------------0---0---0--------|---------------------------------|
A#|-------------0-------------------|-------------0---0---0--------|-------------0-------------------|
F#|---------0---------------0---2---|-------------0---0---0--------|---------0---------------0---2---|
C#|-----4---------------4-----------|---------5-----------4----2---|-----4---------------4-----------|
G#|-5---------------5---------------|-----2------------------------|-5---------------5---------------|
D#|---------------------------------|-0----------------------------|---------------------------------|


D#|-------------0---0---0--------|---------------------------------|-------------0---0---0--------|
A#|-------------0---0---0--------|-------------0-------------------|-------------0---0---0--------|
F#|-------------0---0---0--------|---------0---------------0---2---|-------------0---0---0--------|
C#|---------5-----------4----2---|-----4---------------4-----------|---------5-----------4----2---|
G#|-----2------------------------|-5---------------5---------------|-----2------------------------|
D#|-0----------------------------|---------------------------------|-0----------------------------|


D#|---------------------------------|-------------0---0---0--------|---------------------------------|
A#|-------------0-------------------|-------------0---0---0--------|-------------0-------------------|
F#|---------0---------------0---2---|-------------0---0---0--------|---------0---------------0---2---|
C#|-----4---------------4-----------|---------5-----------4----2---|-----4---------------4-----------|
G#|-5---------------5---------------|-----2------------------------|-5---------------5---------------|
D#|---------------------------------|-0----------------------------|---------------------------------|


D#|-------------0---0---0--------|---------------------------------|-------------0---0---0--------|
A#|-------------0---0---0--------|-------------0-------------------|-------------0---0---0--------|
F#|-------------0---0---0--------|---------0---------------0---2---|-------------0---0---0--------|
C#|---------5-----------4----2---|-----4---------------4-----------|---------5-----------4----2---|
G#|-----2------------------------|-5---------------5---------------|-----2------------------------|
D#|-0----------------------------|---------------------------------|-0----------------------------|


D#|---------------------------------|-------------0---0---0--------|---------------------------------|
A#|-------------0-------------------|-------------0---0---0--------|-------------0-------------------|
F#|---------0---------------0---2---|-------------0---0---0--------|---------0---------------0---2---|
C#|-----4---------------4-----------|---------5-----------4----2---|-----4---------------4-----------|
G#|-5---------------5---------------|-----2------------------------|-5---------------5---------------|
D#|---------------------------------|-0----------------------------|---------------------------------|


D#|-------------0---0---0--------|---------------------------------|-------------0---0---0--------|
A#|-------------0---0---0--------|-------------0-------------------|-------------0---0---0--------|
F#|-------------0---0---0--------|---------0---------------0---2---|-------------0---0---0--------|
C#|---------5-----------4----2---|-----4---------------4-----------|---------5-----------4----2---|
G#|-----2------------------------|-5---------------5---------------|-----2------------------------|
D#|-0----------------------------|---------------------------------|-0----------------------------|


D#|---------------------------------|-------------0---0---0--------|---------------------------------|
A#|-------------0-------------------|-------------0---0---0--------|-------------0-------------------|
F#|---------0---------------0---2---|-------------0---0---0--------|---------0---------------0---2---|
C#|-----4---------------4-----------|---------5-----------4----2---|-----4---------------4-----------|
G#|-5---------------5---------------|-----2------------------------|-5---------------5---------------|
D#|---------------------------------|-0----------------------------|---------------------------------|


D#|-------------0---0---0--------|---------------------------------|-------------0---0---0--------|
A#|-------------0---0---0--------|-------------0-------------------|-------------0---0---0--------|
F#|-------------0---0---0--------|---------0---------------0---2---|-------------0---0---0--------|
C#|---------5-----------4----2---|-----4---------------4-----------|---------5-----------4----2---|
G#|-----2------------------------|-5---------------5---------------|-----2------------------------|
D#|-0----------------------------|---------------------------------|-0----------------------------|


D#|---------------------------------|-------------0---0---0--------|---------------------------------|
A#|-------------0-------------------|-------------0---0---0--------|-------------0-------------------|
F#|---------0---------------0---2---|-------------0---0---0--------|---------0---------------0---2---|
C#|-----4---------------4-----------|---------5-----------4----2---|-----4---------------4-----------|
G#|-5---------------5---------------|-----2------------------------|-5---------------5---------------|
D#|---------------------------------|-0----------------------------|---------------------------------|


D#|-------------0---0---0--------|---------------------------------|-------------0---0---0--------|
A#|-------------0---0---0--------|-------------0-------------------|-------------0---0---0--------|
F#|-------------0---0---0--------|---------0---------------0---2---|-------------0---0---0--------|
C#|---------5-----------4----2---|-----4---------------4-----------|---------5-----------4----2---|
G#|-----2------------------------|-5---------------5---------------|-----2------------------------|
D#|-0----------------------------|---------------------------------|-0----------------------------|


D#|---------------------------------|-------------0---0---0--------|---------------------------------|
A#|-------------0-------------------|-------------0---0---0--------|-------------0-------------------|
F#|---------0---------------0---2---|-------------0---0---0--------|---------0---------------0---2---|
C#|-----4---------------4-----------|---------5-----------4----2---|-----4---------------4-----------|
G#|-5---------------5---------------|-----2------------------------|-5---------------5---------------|
D#|---------------------------------|-0----------------------------|---------------------------------|


D#|-------------0---0---0--------|---------------------------------|-------------0---0---0--------|
A#|-------------0---0---0--------|-------------0-------------------|-------------0---0---0--------|
F#|-------------0---0---0--------|---------0---------------0---2---|-------------0---0---0--------|
C#|---------5-----------4----2---|-----4---------------4-----------|---------5-----------4----2---|
G#|-----2------------------------|-5---------------5---------------|-----2------------------------|
D#|-0----------------------------|---------------------------------|-0----------------------------|


D#|---------------------------------|-------------0---0---0--------|---------------------------------|
A#|-------------0-------------------|-------------0---0---0--------|-------------0-------------------|
F#|---------0---------------0---2---|-------------0---0---0--------|---------0---------------0---2---|
C#|-----4---------------4-----------|---------5-----------4----2---|-----4---------------4-----------|
G#|-5---------------5---------------|-----2------------------------|-5---------------5---------------|
D#|---------------------------------|-0----------------------------|---------------------------------|


D#|-------------0---0---0--------|---------------------------------|-------------0---0---0--------|
A#|-------------0---0---0--------|-------------0-------------------|-------------0---0---0--------|
F#|-------------0---0---0--------|---------0---------------0---2---|-------------0---0---0--------|
C#|---------5-----------4----2---|-----4---------------4-----------|---------5-----------4----2---|
G#|-----2------------------------|-5---------------5---------------|-----2------------------------|
D#|-0----------------------------|---------------------------------|-0----------------------------|


D#|---------------------------------|-------------0---0---0--------|---------------------------------|
A#|-------------0-------------------|-------------0---0---0--------|-------------0-------------------|
F#|---------0---------------0---2---|-------------0---0---0--------|---------0---------------0---2---|
C#|-----4---------------4-----------|---------5-----------4----2---|-----4---------------4-----------|
G#|-5---------------5---------------|-----2------------------------|-5---------------5---------------|
D#|---------------------------------|-0----------------------------|---------------------------------|


D#|-------------0---0---0--------|---------------------------------|-------------0---0---0--------|
A#|-------------0---0---0--------|-------------0-------------------|-------------0---0---0--------|
F#|-------------0---0---0--------|---------0---------------0---2---|-------------0---0---0--------|
C#|---------5-----------4----2---|-----4---------------4-----------|---------5-----------4----2---|
G#|-----2------------------------|-5---------------5---------------|-----2------------------------|
D#|-0----------------------------|---------------------------------|-0----------------------------|


D#|---------------------------------|-------------0---0---0--------|---------------------------------|
A#|-------------0-------------------|-------------0---0---0--------|-------------0-------------------|
F#|---------0---------------0---2---|-------------0---0---0--------|---------0---------------0---2---|
C#|-----4---------------4-----------|---------5-----------4----2---|-----4---------------4-----------|
G#|-5---------------5---------------|-----2------------------------|-5---------------5---------------|
D#|---------------------------------|-0----------------------------|---------------------------------|


D#|-------------0---0---0--------|---------------------------------|-------------0---0---0--------|
A#|-------------0---0---0--------|-------------0-------------------|-------------0---0---0--------|
F#|-------------0---0---0--------|---------0---------------0---2---|-------------0---0---0--------|
C#|---------5-----------4----2---|-----4---------------4-----------|---------5-----------4----2---|
G#|-----2------------------------|-5---------------5---------------|-----2------------------------|
D#|-0----------------------------|---------------------------------|-0----------------------------|


D#|---------------------------------|-------------0---0---0--------|---------------------------------|
A#|-------------0-------------------|-------------0---0---0--------|-------------0-------------------|
F#|---------0---------------0---2---|-------------0---0---0--------|---------0---------------0---2---|
C#|-----4---------------4-----------|---------5-----------4----2---|-----4---------------4-----------|
G#|-5---------------5---------------|-----2------------------------|-5---------------5---------------|
D#|---------------------------------|-0----------------------------|---------------------------------|





Track 2: Solo Gtr.

D#|--------|--------|--------|--------|--------|--------|--------|--------|--------|
A#|--------|--------|--------|--------|--------|--------|--------|--------|--------|
F#|--------|--------|--------|--------|--------|--------|--------|--------|--------|
C#|--------|--------|--------|--------|--------|--------|--------|--------|--------|
G#|--------|--------|--------|--------|--------|--------|--------|--------|--------|
D#|--------|--------|--------|--------|--------|--------|--------|--------|--------|


D#|--------|--------|--------|--------|--------|--------|--------|--------|--------|
A#|--------|--------|--------|--------|--------|--------|--------|--------|--------|
F#|--------|--------|--------|--------|--------|--------|--------|--------|--------|
C#|--------|--------|--------|--------|--------|--------|--------|--------|--------|
G#|--------|--------|--------|--------|--------|--------|--------|--------|--------|
D#|--------|--------|--------|--------|--------|--------|--------|--------|--------|


D#|--------|--------|--------|--------|--------|--------|--------|--------|--------|
A#|--------|--------|--------|--------|--------|--------|--------|--------|--------|
F#|--------|--------|--------|--------|--------|--------|--------|--------|--------|
C#|--------|--------|--------|--------|--------|--------|--------|--------|--------|
G#|--------|--------|--------|--------|--------|--------|--------|--------|--------|
D#|--------|--------|--------|--------|--------|--------|--------|--------|--------|


D#|--------|--------|--------|--------|--------|--------|--------|--------|--------|
A#|--------|--------|--------|--------|--------|--------|--------|--------|--------|
F#|--------|--------|--------|--------|--------|--------|--------|--------|--------|
C#|--------|--------|--------|--------|--------|--------|--------|--------|--------|
G#|--------|--------|--------|--------|--------|--------|--------|--------|--------|
D#|--------|--------|--------|--------|--------|--------|--------|--------|--------|


D#|--------|--------|--------|--------|--------|--------|--------|--------|--------|
A#|--------|--------|--------|--------|--------|--------|--------|--------|--------|
F#|--------|--------|--------|--------|--------|--------|--------|--------|--------|
C#|--------|--------|--------|--------|--------|--------|--------|--------|--------|
G#|--------|--------|--------|--------|--------|--------|--------|--------|--------|
D#|--------|--------|--------|--------|--------|--------|--------|--------|--------|


D#|--------|--------|--------|--------|--------|--------|--------|--------|--------|
A#|--------|--------|--------|--------|--------|--------|--------|--------|--------|
F#|--------|--------|--------|--------|--------|--------|--------|--------|--------|
C#|--------|--------|--------|--------|--------|--------|--------|--------|--------|
G#|--------|--------|--------|--------|--------|--------|--------|--------|--------|
D#|--------|--------|--------|--------|--------|--------|--------|--------|--------|


D#|--------|--------|--------|--------|--------|----------------------------------------|
A#|--------|--------|--------|--------|--------|-7--8--7--5--7--------------------------|
F#|--------|--------|--------|--------|--------|-7--------------7--6--7--6---7----------|
C#|--------|--------|--------|--------|--------|-7------------------------------7--4----|
G#|--------|--------|--------|--------|--------|----------------------------------------|
D#|--------|--------|--------|--------|--------|----------------------------------------|


D#|---------------------------------------------|-------------------------------------------------|
A#|-----7--8--7-----10--7--8--7--7--10----7--8--|-7-----7---7--8-7-5--7---------------------------|
F#|-----0--------7---------------------7--------|----9-------------------7--6--7--7-6-4--6--------|
C#|-----0---------------------------------------|-------------------------------------------7--5--|
G#|---------------------------------------------|-------------------------------------------------|
D#|---------------------------------------------|-------------------------------------------------|


D#|--------------------------------------|---------------------------------------------|
A#|--------------------------------------|---------------------------------------------|
F#|--------------------------------------|---------------------------------------------|
C#|-7--5--4--5-4---4----------9--5--5----|------5---7---8-------7-------7-8-7-5--7--5--|
G#|--------------5---7----7--------------|---------------------------------------------|
D#|--------------------------------------|---------------------------------------------|


D#|-----------------------------------|------------------------------------------------------|
A#|-------------------------------8---|------------------11----10-10-10-8-----10----8--101110|
F#|-------------------------7--9------|-9----9--7--9-----------------------9-----9-----------|
C#|-------------5---5---9-------------|------------------------------------------------------|
G#|-7----7----------------------------|------------------------------------------------------|
D#|-----------------------------------|------------------------------------------------------|


D#|-----------------------------------|---------------------------------------------------------------|
A#|-8---10---8--10-----10-8--8---8----|-8-------15----15-14-------14----14-13-------13----13-11-------|
F#|---9-------------------------------|-----12--------------15-12-------------14-11-------------13-10-|
C#|-----------------------------------|---------------------------------------------------------------|
G#|-----------------------------------|---------------------------------------------------------------|
D#|-----------------------------------|---------------------------------------------------------------|


D#|-----------------------12--|-14--15--17--17--17-------17--|-17-15-14-------15----------------------|
A#|-10---10--10-----------0---|------------------------------|----------17-15----15---15-------1515-12|
F#|-----------------------0---|------------------------------|---------------------------------16-----|
C#|---------------------------|------------------------------|---------------------------------17-----|
G#|---------------------------|------------------------------|----------------------------------------|
D#|---------------------------|------------------------------|----------------------------------------|


D#|-----------------------------------|------------------------------|-------------------------------------------|
A#|-----------------------7--8--7--8--|-7----------------------------|-------------------------------------------|
F#|-1514---14---6--7--6---------------|------9---9---9--------6--7-6-|----6--------------------------------------|
C#|-----------------------------------|------------------------------|-9-----7---5--4-----4----------------------|
G#|-----------------------------------|------------------------------|-----------------7-----5--7--5-------------|
D#|-----------------------------------|------------------------------|---------------------------------5--5--3---|


D#|-------------------------------------------------------|-----------12--------------12-----12----12-----|
A#|----------------------------------------12----12----12-|-------------1512------15-----15----15----15---|
F#|-------------------------12--14--121415----15----15----|-1514121415------151412------------------------|
C#|---------12----14---1414---14--14----------------------|-----------------------------------------------|
G#|-5---11-----14----14-----------------------------------|-----------------------------------------------|
D#|-------------------------------------------------------|-----------------------------------------------|


D#|---------17-18-17-151412-----------|-17----16-15----17--------------------------------|
A#|-15------17--------------15--------|-17----------17----15--12----15-------------------|
F#|---------16------------------------|-14-----------------------------15-12--14---------|
C#|-----------------------------------|-------------------------------------14---14-14---|
G#|-----------------------------------|--------------------------------------------------|
D#|-----------------------------------|--------------------------------------------------|


D#|-14--14-141215----12-------------------------------------|--------------------------|
A#|-15------------15----15-15-12----12-14--14-12------------|--------------------------|
F#|-15---------------------------15--------------14-14141214|-14----------11-----------|
C#|---------------------------------------------------------|----------14----12--------|
G#|---------------------------------------------------------|--------------------------|
D#|---------------------------------------------------------|--------------------------|


D#|------------------------------------------------|------------------------------------------|
A#|------------------------------------------------|------------------------------------------|
F#|-1412---1211--11--------------------------------|------------------------12-14-1414--1214--|
C#|----------------1412111211----------------------|--------------12--13-14-------------------|
G#|---------------------------141210------9--10----|------12--14------------------------------|
D#|---------------------------------------------10-|-12---------------------------------------|


D#|---------------------------1717-1517--|-1717-1517-17-17-15-17----------|
A#|---------------------------17---------|-----------------------17-17----|
F#|-14-14---14-12-14----------16---------|--------------------------------|
C#|------------------14--14--------------|--------------------------------|
G#|--------------------------------------|--------------------------------|
D#|--------------------------------------|--------------------------------|





Track 3: Untitled

F#|--------|--------|---------------------------9---|----------------------|----------------------9---|
C#|--------|--------|---------------------7--9------|-----------7--7--7----|----------------7--9------|
G#|--------|--------|-5--7--------------------------|-5-----5--------------|-7-----7---7--------------|
D#|--------|--------|-------0---0-------------------|----------------------|--------------------------|


F#|-----------------------------|----------------------9---|-----------------------------|
C#|------------------7--7--7----|----------------7--9------|------------------7--7--7----|
G#|-5--------5---5--------------|-7-----7---7--------------|-5--------5---5--------------|
D#|-----------------------------|--------------------------|-----------------------------|


F#|----------------------9---|--------------------------------|----------------------9---|
C#|----------------7--9------|------------------7--7--7---5---|----------------7--9------|
G#|-7-----7---7--------------|-5--------5---5-----------------|-7-----7---7--------------|
D#|--------------------------|--------------------------------|--------------------------|


F#|-----------------------------|----------------------9---|-----------------------------|
C#|------------------7--7--7----|----------------7--9------|------------------7--7--7----|
G#|-5--------5---5--------------|-7-----7---7--------------|-5--------5---5--------------|
D#|-----------------------------|--------------------------|-----------------------------|


F#|----------------------9---|-----------------------------|----------------------9---|
C#|----------------7--9------|------------------7--7--7----|----------------7--9------|
G#|-7-----7---7--------------|-5--------5---5--------------|-7-----7---7--------------|
D#|--------------------------|-----------------------------|--------------------------|


F#|--------------------------------|----------------------9---|-----------------------------|
C#|------------------7--7--7---5---|----------------7--9------|------------------7--7--7----|
G#|-5--------5---5-----------------|-7-----7---7--------------|-5--------5---5--------------|
D#|--------------------------------|--------------------------|-----------------------------|


F#|----------------------9---|--------------------------------|----------------------9---|
C#|----------------7--9------|------------------7--7--7---5---|----------------7--9------|
G#|-7-----7---7--------------|-5--------5---5-----------------|-7-----7---7--------------|
D#|--------------------------|--------------------------------|--------------------------|


F#|------------------------------------|----------------------9---|-----------------------------|
C#|------------------------------5--7--|----------------7--9------|------------------7--7--7----|
G#|-5--------5-------------5-----------|-7-----7---7--------------|-5--------5---5--------------|
D#|------------------5--7-----7--------|--------------------------|-----------------------------|


F#|----------------------9---|-----------------------------|----------------------9---|
C#|----------------7--9------|------------------7--7--7----|----------------7--9------|
G#|-7-----7---7--------------|-5--------5---5--------------|-7-----7---7--------------|
D#|--------------------------|-----------------------------|--------------------------|


F#|--------------------------------|------------------------------9---|--------------------------------|
C#|----------------------7--7--7---|------------------------7--9------|------------------7--7--7---5---|
G#|-5--------5---5---5-------------|-5--7----------7---7--------------|-5--------5---5-----------------|
D#|--------------------------------|-------0---0----------------------|--------------------------------|


F#|----------------------9---|-----------------------------|----------------------9---|
C#|----------------7--9------|------------------7--7--7----|----------------7--9------|
G#|-7-----7---7--------------|-5--------5---5--------------|-7-----7---7--------------|
D#|--------------------------|-----------------------------|--------------------------|


F#|-----------------------------|----------------------9---|--------------------------------|
C#|------------------7--7--7----|----------------7--9------|------------------7--7--7---5---|
G#|-5--------5---5--------------|-7-----7---7--------------|-5--------5---5-----------------|
D#|-----------------------------|--------------------------|--------------------------------|


F#|----------------------9---|-----------------------------|----------------------9---|
C#|----------------7--9------|------------------7--7--7----|----------------7--9------|
G#|-7-----7---7--------------|-5--------5---5--------------|-7-----7---7--------------|
D#|--------------------------|-----------------------------|--------------------------|


F#|-----------------------------|----------------------9---|-----------------------------|
C#|------------------7--7--7----|----------------7--9------|------------------7--7--7----|
G#|-5--------5---5--------------|-7-----7---7--------------|-5--------5---5--------------|
D#|-----------------------------|--------------------------|-----------------------------|


F#|----------------------9---|--------------------------------|----------------------9---|
C#|----------------7--9------|------------------7--7--7---5---|----------------7--9------|
G#|-7-----7---7--------------|-5--------5---5-----------------|-7-----7---7--------------|
D#|--------------------------|--------------------------------|--------------------------|


F#|-----------------------------|----------------------9---|--------------------------------|
C#|------------------7--7--7----|----------------7--9------|------------------7--7--7---5---|
G#|-5--------5---5--------------|-7-----7---7--------------|-5--------5---5-----------------|
D#|-----------------------------|--------------------------|--------------------------------|


F#|----------------------9---|------------------------------------|----------------------9---|
C#|----------------7--9------|------------------------------5--7--|----------------7--9------|
G#|-7-----7---7--------------|-5--------5-------------5-----------|-7-----7---7--------------|
D#|--------------------------|------------------5--7-----7--------|--------------------------|


F#|-----------------------------|--------|--------|--------|--------|--------|-----------------------------|
C#|------------------7--7--7----|--------|--------|--------|--------|--------|------------------7--7--7----|
G#|-5--------5---5--------------|--------|--------|--------|--------|--------|-5--------5---5--------------|
D#|-----------------------------|--------|--------|--------|--------|--------|-----------------------------|


F#|----------------------9---|-----------------------------|----------------------9---|
C#|----------------7--9------|------------------7--7--7----|----------------7--9------|
G#|-7-----7---7--------------|-5--------5---5--------------|-7-----7---7--------------|
D#|--------------------------|-----------------------------|--------------------------|


F#|-----------------------------|----------------------9---|-----------------------------|
C#|------------------7--7--7----|----------------7--9------|------------------7--7--7----|
G#|-5--------5---5--------------|-7-----7---7--------------|-5--------5---5--------------|
D#|-----------------------------|--------------------------|-----------------------------|


F#|----------------------9---|-----------------------------|----------------------9---|
C#|----------------7--9------|------------------7--7--7----|----------------7--9------|
G#|-7-----7---7--------------|-5--------5---5--------------|-7-----7---7--------------|
D#|--------------------------|-----------------------------|--------------------------|


F#|-----------------------------|----------------------9---|-----------------------------|
C#|------------------7--7--7----|----------------7--9------|------------------7--7--7----|
G#|-5--------5---5--------------|-7-----7---7--------------|-5--------5---5--------------|
D#|-----------------------------|--------------------------|-----------------------------|


F#|----------------------9---|-----------------------------|----------------------9---|
C#|----------------7--9------|------------------7--7--7----|----------------7--9------|
G#|-7-----7---7--------------|-5--------5---5--------------|-7-----7---7--------------|
D#|--------------------------|-----------------------------|--------------------------|


F#|-----------------------------|----------------------9---|-----------------------------|
C#|------------------7--7--7----|----------------7--9------|------------------7--7--7----|
G#|-5--------5---5--------------|-7-----7---7--------------|-5--------5---5--------------|
D#|-----------------------------|--------------------------|-----------------------------|


F#|----------------------9---|-----------------------------|----------------------9---|
C#|----------------7--9------|------------------7--7--7----|----------------7--9------|
G#|-7-----7---7--------------|-5--------5---5--------------|-7-----7---7--------------|
D#|--------------------------|-----------------------------|--------------------------|


F#|-----------------------------|----------------------9---|-----------------------------|
C#|------------------7--7--7----|----------------7--9------|------------------7--7--7----|
G#|-5--------5---5--------------|-7-----7---7--------------|-5--------5---5--------------|
D#|-----------------------------|--------------------------|-----------------------------|





Track 4: Untitled

F#|--------|--------|--------|--------|--------|--------|--------|--------|--------|
C#|--------|--------|--------|--------|--------|--------|--------|--------|--------|
G#|--------|--------|--------|--------|--------|--------|--------|--------|--------|
D#|--------|--------|--------|--------|--------|--------|--------|--------|--------|


F#|--------|--------|--------|--------|--------|--------|--------|--------|--------|
C#|--------|--------|--------|--------|--------|--------|--------|--------|--------|
G#|--------|--------|--------|--------|--------|--------|--------|--------|--------|
D#|--------|--------|--------|--------|--------|--------|--------|--------|--------|


F#|--------|--------|--------|--------|--------|--------|--------|--------|--------|
C#|--------|--------|--------|--------|--------|--------|--------|--------|--------|
G#|--------|--------|--------|--------|--------|--------|--------|--------|--------|
D#|--------|--------|--------|--------|--------|--------|--------|--------|--------|


F#|--------|--------|--------|--------|--------|--------|--------|--------|--------|
C#|--------|--------|--------|--------|--------|--------|--------|--------|--------|
G#|--------|--------|--------|--------|--------|--------|--------|--------|--------|
D#|--------|--------|--------|--------|--------|--------|--------|--------|--------|


F#|--------|--------|--------|--------|--------|--------|--------|--------|--------|
C#|--------|--------|--------|--------|--------|--------|--------|--------|--------|
G#|--------|--------|--------|--------|--------|--------|--------|--------|--------|
D#|--------|--------|--------|--------|--------|--------|--------|--------|--------|


F#|--------|--------|--------|--------|--------|--------|--------|--------|--------|
C#|--------|--------|--------|--------|--------|--------|--------|--------|--------|
G#|--------|--------|--------|--------|--------|--------|--------|--------|--------|
D#|--------|--------|--------|--------|--------|--------|--------|--------|--------|


F#|--------|--------|--------|--------|--------|--------|--------|--------|--------|
C#|--------|--------|--------|--------|--------|--------|--------|--------|--------|
G#|--------|--------|--------|--------|--------|--------|--------|--------|--------|
D#|--------|--------|--------|--------|--------|--------|--------|--------|--------|


F#|--------|--------|--------|--------|--------|--------|--------|--------|--------|
C#|--------|--------|--------|--------|--------|--------|--------|--------|--------|
G#|--------|--------|--------|--------|--------|--------|--------|--------|--------|
D#|--------|--------|--------|--------|--------|--------|--------|--------|--------|


F#|--------|--------|--------|--------|--------|--------|--------|--------|--------|
C#|--------|--------|--------|--------|--------|--------|--------|--------|--------|
G#|--------|--------|--------|--------|--------|--------|--------|--------|--------|
D#|--------|--------|--------|--------|--------|--------|--------|--------|--------|


F#|--------|--------|--------|
C#|--------|--------|--------|
G#|--------|--------|--------|
D#|--------|--------|--------|





Track 5: Untitled

F#|--------|--------|--------|--------|--------|--------|--------|--------|--------|
C#|--------|--------|--------|--------|--------|--------|--------|--------|--------|
G#|--------|--------|--------|--------|--------|--------|--------|--------|--------|
D#|--------|--------|--------|--------|--------|--------|--------|--------|--------|
A#|--------|--------|--------|--------|--------|--------|--------|--------|--------|


F#|--------|--------|--------|--------|--------|--------|--------|--------|--------|
C#|--------|--------|--------|--------|--------|--------|--------|--------|--------|
G#|--------|--------|--------|--------|--------|--------|--------|--------|--------|
D#|--------|--------|--------|--------|--------|--------|--------|--------|--------|
A#|--------|--------|--------|--------|--------|--------|--------|--------|--------|


F#|--------|--------|--------|--------|--------|--------|--------|--------|--------|
C#|--------|--------|--------|--------|--------|--------|--------|--------|--------|
G#|--------|--------|--------|--------|--------|--------|--------|--------|--------|
D#|--------|--------|--------|--------|--------|--------|--------|--------|--------|
A#|--------|--------|--------|--------|--------|--------|--------|--------|--------|


F#|--------|--------|--------|--------|--------|--------|--------|--------|--------|
C#|--------|--------|--------|--------|--------|--------|--------|--------|--------|
G#|--------|--------|--------|--------|--------|--------|--------|--------|--------|
D#|--------|--------|--------|--------|--------|--------|--------|--------|--------|
A#|--------|--------|--------|--------|--------|--------|--------|--------|--------|


F#|--------|--------|--------|--------|--------|--------|--------|--------|--------|
C#|--------|--------|--------|--------|--------|--------|--------|--------|--------|
G#|--------|--------|--------|--------|--------|--------|--------|--------|--------|
D#|--------|--------|--------|--------|--------|--------|--------|--------|--------|
A#|--------|--------|--------|--------|--------|--------|--------|--------|--------|


F#|--------|--------|--------|--------|--------|--------|--------|--------|--------|
C#|--------|--------|--------|--------|--------|--------|--------|--------|--------|
G#|--------|--------|--------|--------|--------|--------|--------|--------|--------|
D#|--------|--------|--------|--------|--------|--------|--------|--------|--------|
A#|--------|--------|--------|--------|--------|--------|--------|--------|--------|


F#|--------|--------|--------|--------|--------|--------|--------|--------|--------|
C#|--------|--------|--------|--------|--------|--------|--------|--------|--------|
G#|--------|--------|--------|--------|--------|--------|--------|--------|--------|
D#|--------|--------|--------|--------|--------|--------|--------|--------|--------|
A#|--------|--------|--------|--------|--------|--------|--------|--------|--------|


F#|--------|--------|--------|--------|--------|--------|--------|--------|--------|
C#|--------|--------|--------|--------|--------|--------|--------|--------|--------|
G#|--------|--------|--------|--------|--------|--------|--------|--------|--------|
D#|--------|--------|--------|--------|--------|--------|--------|--------|--------|
A#|--------|--------|--------|--------|--------|--------|--------|--------|--------|


F#|--------|--------|--------|--------|--------|--------|--------|--------|--------|
C#|--------|--------|--------|--------|--------|--------|--------|--------|--------|
G#|--------|--------|--------|--------|--------|--------|--------|--------|--------|
D#|--------|--------|--------|--------|--------|--------|--------|--------|--------|
A#|--------|--------|--------|--------|--------|--------|--------|--------|--------|


F#|--------|--------|--------|
C#|--------|--------|--------|
G#|--------|--------|--------|
D#|--------|--------|--------|
A#|--------|--------|--------|





Track 6: Untitled

F#|--------|--------|--------|--------|--------|--------|--------|--------|--------|
C#|--------|--------|--------|--------|--------|--------|--------|--------|--------|
G#|--------|--------|--------|--------|--------|--------|--------|--------|--------|
D#|--------|--------|--------|--------|--------|--------|--------|--------|--------|


F#|--------|--------|--------|--------|--------|--------|--------|--------|--------|
C#|--------|--------|--------|--------|--------|--------|--------|--------|--------|
G#|--------|--------|--------|--------|--------|--------|--------|--------|--------|
D#|--------|--------|--------|--------|--------|--------|--------|--------|--------|


F#|--------|--------|--------|--------|--------|--------|--------|--------|--------|
C#|--------|--------|--------|--------|--------|--------|--------|--------|--------|
G#|--------|--------|--------|--------|--------|--------|--------|--------|--------|
D#|--------|--------|--------|--------|--------|--------|--------|--------|--------|


F#|--------|--------|--------|--------|--------|--------|--------|--------|--------|
C#|--------|--------|--------|--------|--------|--------|--------|--------|--------|
G#|--------|--------|--------|--------|--------|--------|--------|--------|--------|
D#|--------|--------|--------|--------|--------|--------|--------|--------|--------|


F#|--------|--------|--------|--------|--------|--------|--------|--------|--------|
C#|--------|--------|--------|--------|--------|--------|--------|--------|--------|
G#|--------|--------|--------|--------|--------|--------|--------|--------|--------|
D#|--------|--------|--------|--------|--------|--------|--------|--------|--------|


F#|--------|--------|--------|--------|--------|--------|--------|--------|--------|
C#|--------|--------|--------|--------|--------|--------|--------|--------|--------|
G#|--------|--------|--------|--------|--------|--------|--------|--------|--------|
D#|--------|--------|--------|--------|--------|--------|--------|--------|--------|


F#|----------------------9---|-----------------------------|--------|----------------------9---|
C#|----------------7--9------|------------------7--7--7----|--------|----------------7--9------|
G#|-7-----7---7--------------|-5--------5---5--------------|--------|-7-----7---7--------------|
D#|--------------------------|-----------------------------|--------|--------------------------|


F#|-----------------------------|--------|--------|--------|--------|--------|--------|
C#|------------------7--7--7----|--------|--------|--------|--------|--------|--------|
G#|-5--------5---5--------------|--------|--------|--------|--------|--------|--------|
D#|-----------------------------|--------|--------|--------|--------|--------|--------|


F#|--------|--------|--------|--------|--------|--------|--------|--------|--------|
C#|--------|--------|--------|--------|--------|--------|--------|--------|--------|
G#|--------|--------|--------|--------|--------|--------|--------|--------|--------|
D#|--------|--------|--------|--------|--------|--------|--------|--------|--------|


F#|--------|--------|--------|--------|--------|--------|--------|--------|--------|
C#|--------|--------|--------|--------|--------|--------|--------|--------|--------|
G#|--------|--------|--------|--------|--------|--------|--------|--------|--------|
D#|--------|--------|--------|--------|--------|--------|--------|--------|--------|


F#|--------|
C#|--------|
G#|--------|
D#|--------|





Track 7: Untitled

F#|--------|--------|--------|--------|--------|--------|--------|--------|--------|
C#|--------|--------|--------|--------|--------|--------|--------|--------|--------|
G#|--------|--------|--------|--------|--------|--------|--------|--------|--------|
D#|--------|--------|--------|--------|--------|--------|--------|--------|--------|


F#|--------|--------|--------|--------|--------|--------|--------|--------|--------|
C#|--------|--------|--------|--------|--------|--------|--------|--------|--------|
G#|--------|--------|--------|--------|--------|--------|--------|--------|--------|
D#|--------|--------|--------|--------|--------|--------|--------|--------|--------|


F#|--------|--------|--------|--------|--------|--------|--------|--------|--------|
C#|--------|--------|--------|--------|--------|--------|--------|--------|--------|
G#|--------|--------|--------|--------|--------|--------|--------|--------|--------|
D#|--------|--------|--------|--------|--------|--------|--------|--------|--------|


F#|--------|--------|--------|--------|--------|--------|--------|--------|--------|
C#|--------|--------|--------|--------|--------|--------|--------|--------|--------|
G#|--------|--------|--------|--------|--------|--------|--------|--------|--------|
D#|--------|--------|--------|--------|--------|--------|--------|--------|--------|


F#|--------|--------|--------|--------|--------|--------|--------|--------|--------|
C#|--------|--------|--------|--------|--------|--------|--------|--------|--------|
G#|--------|--------|--------|--------|--------|--------|--------|--------|--------|
D#|--------|--------|--------|--------|--------|--------|--------|--------|--------|


F#|--------|--------|--------|--------|--------|--------|--------|--------|--------|
C#|--------|--------|--------|--------|--------|--------|--------|--------|--------|
G#|--------|--------|--------|--------|--------|--------|--------|--------|--------|
D#|--------|--------|--------|--------|--------|--------|--------|--------|--------|


F#|-----------------|-----------------------------------------|----------------------------------|
C#|-----------------|-----------------------------------------|----------------------------------|
G#|-----------------|-----------------------------------------|----------------------------------|
D#|-2---------------|------0---3---5---5--6--5--3-----5---3---|-3---0-------------0---3--2--0----|


F#|------------------------------------------------|---------------------------|--------|
C#|------------------------------------------------|---------------------------|--------|
G#|------------------------------------------------|---------------------------|--------|
D#|-----------0--3--5--5-----5-----6--5-----5--3-0-|-3----0----3---2---0-------|--------|


F#|--------|--------|--------|--------|--------|--------|--------|--------|--------|
C#|--------|--------|--------|--------|--------|--------|--------|--------|--------|
G#|--------|--------|--------|--------|--------|--------|--------|--------|--------|
D#|--------|--------|--------|--------|--------|--------|--------|--------|--------|


F#|--------|--------|--------|--------|--------|--------|--------|--------|--------|
C#|--------|--------|--------|--------|--------|--------|--------|--------|--------|
G#|--------|--------|--------|--------|--------|--------|--------|--------|--------|
D#|--------|--------|--------|--------|--------|--------|--------|--------|--------|


F#|--------|--------|--------|--------|--------|--------|
C#|--------|--------|--------|--------|--------|--------|
G#|--------|--------|--------|--------|--------|--------|
D#|--------|--------|--------|--------|--------|--------|