Menu:

 

Search:

 

pantera - no good attack the radical:

 



Title: No Good (Attack The Radical)
Artist: 
Album: Vulgar Display Of Power
Author: Pantera


Track 1: Heavy Distortion

D#|------------------------------|--------|------------------------------|-------------|
A#|------------------------------|--------|------------------------------|-------------|
F#|------------------------------|--------|------------------------------|-------------|
C#|---------------------0---3----|-3------|---------------------0---3----|-3-----------|
G#|-------------2---3------------|--------|-------------2---3------------|-------------|
C#|-0---2---3--------------------|--------|-0---2---3--------------------|-------15----|


D#|------------------------------|-------------------------------------|------------------------------|
A#|------------------------------|-------------------------------------|------------------------------|
F#|------------------------------|-------------------------------------|------------------------------|
C#|------------------------------|-------------------------------------|------------------------------|
G#|------------------------------|-----------------3--3--5---3--3--5---|------------------------------|
C#|-0---3---5---3---3---0----5---|-3---3---3---0-----------------------|-0---3---5---3---3---0----5---|


D#|------------------------------|------------------------------|------------------------------|
A#|------------------------------|------------------------------|------------------------------|
F#|------------------------------|------------------------------|------------------------------|
C#|------------------------------|------------------------------|-------------------------3----|
G#|------------------------------|------------------------------|---------2---3---4---5--------|
C#|-3---3---3---0---5---5---3----|-0---3---5---3---3---0----3---|-2---3------------------------|


D#|------------------------------|------------------------------|------------------------------|
A#|------------------------------|------------------------------|------------------------------|
F#|------------------------------|------------------------------|------------------------------|
C#|------------------------------|------------------------------|------------------------------|
G#|------------------------------|------------------------------|------------------------------|
C#|-0---3---5---3---3---0----5---|-3---3---3---0---5---5---3----|-0---3---5---3---3---0----5---|


D#|-------------------------------------|------------------------------|------------------------------|
A#|-------------------------------------|------------------------------|------------------------------|
F#|-------------------------------------|------------------------------|------------------------------|
C#|-------------------------------------|------------------------------|------------------------------|
G#|-----------------3--3--5---3--3--5---|------------------------------|------------------------------|
C#|-3---3---3---0-----------------------|-0---3---5---3---3---0----5---|-3---3---3---0---5---5---3----|


D#|------------------------------|------------------------------|------------------------------|
A#|------------------------------|------------------------------|------------------------------|
F#|------------------------------|------------------------------|------------------------------|
C#|------------------------------|-------------------------3----|------------------------------|
G#|------------------------------|---------2---3---4---5--------|------------------------------|
C#|-0---3---5---3---3---0----3---|-2---3------------------------|-0---3---5---3---3---0----5---|


D#|------------------------------|-------------|-------------|--------------|--------|
A#|------------------------------|-------------|-------------|--------------|--------|
F#|------------------------------|-------------|-------------|--------------|--------|
C#|------------------------------|-------------|-------------|--------------|--------|
G#|------------------------------|-------------|-------------|--------------|--------|
C#|-3---3---3---0---5---5---3----|-1----1------|-1----1------|-1------1--1--|--------|


D#|--------|--------|--------|--------------------|---------------------------------|
A#|--------|--------|--------|--------------------|---------------------------------|
F#|--------|--------|--------|--------------------|---------------------------------|
C#|--------|--------|--------|--------------------|-1---1-------1---1-------1---1---|
G#|--------|--------|--------|--------------------|-1---1-------1---1-------1---1---|
C#|--------|--------|--------|-------6---7---3----|-1---1-------1---1-------1---1---|


D#|---------------------------------|---------------------------------|--------------------|
A#|---------------------------------|---------------------------------|--------------------|
F#|---------------------------------|---------------------------------|--------------------|
C#|-----1---1-------3---4---3---2---|-1---1-------1---1-------1---1---|-----1---5-----6----|
G#|-----1---1-------3---4---3---2---|-1---1-------1---1-------1---1---|-----1---5-----6----|
C#|-----1---1-------3---4---3---2---|-1---1-------1---1-------1---1---|-----1---5-----6----|


D#|---------------------------------|---------------------------------|---------------------------------|
A#|---------------------------------|---------------------------------|---------------------------------|
F#|---------------------------------|---------------------------------|---------------------------------|
C#|-1---1-------1---1-------1---1---|-----1---1-------3---4---3---2---|-1---1-------1---1-------1---1---|
G#|-1---1-------1---1-------1---1---|-----1---1-------3---4---3---2---|-1---1-------1---1-------1---1---|
C#|-1---1-------1---1-------1---1---|-----1---1-------3---4---3---2---|-1---1-------1---1-------1---1---|


D#|--------------------|---------------------------------|---------------------------------|
A#|--------------------|---------------------------------|---------------------------------|
F#|--------------------|---------------------------------|---------------------------------|
C#|-----1---5-----6----|-1---1-------1---1-------1---1---|-----1---1-------3---4---3---2---|
G#|-----1---5-----6----|-1---1-------1---1-------1---1---|-----1---1-------3---4---3---2---|
C#|-----1---5-----6----|-1---1-------1---1-------1---1---|-----1---1-------3---4---3---2---|


D#|---------------------------------|--------------------|---------------------------------|
A#|---------------------------------|--------------------|---------------------------------|
F#|---------------------------------|--------------------|---------------------------------|
C#|-1---1-------1---1-------1---1---|-----1---5-----6----|-1---1-------1---1-------1---1---|
G#|-1---1-------1---1-------1---1---|-----1---5-----6----|-1---1-------1---1-------1---1---|
C#|-1---1-------1---1-------1---1---|-----1---5-----6----|-1---1-------1---1-------1---1---|


D#|---------------------------------|---------------------------------|------------------------------|
A#|---------------------------------|---------------------------------|------------------------------|
F#|---------------------------------|---------------------------------|------------------------------|
C#|-----1---1-------3---4---3---2---|-1---1-------1---1-------1---1---|-----1---1--------------------|
G#|-----1---1-------3---4---3---2---|-1---1-------1---1-------1---1---|-----1---1--------------------|
C#|-----1---1-------3---4---3---2---|-1---1-------1---1-------1---1---|-----1---1-------6---7---3----|


D#|-----------------------------------|-----------------------------------|-----------------------------------|
A#|-----------------------------------|-----------------------------------|-----------------------------------|
F#|-----------------------------------|-----------------------------------|-----------------------------------|
C#|-6--6--7-------7-------6-------6---|-6--6--7-------7-------6-------6---|-6--6--7-------7-------6-------6---|
G#|-6--6--7-------7-------6-------6---|-6--6--7-------7-------6-------6---|-6--6--7-------7-------6-------6---|
C#|-6--6--7-------7-------6-------6---|-6--6--7-------7-------6-------6---|-6--6--7-------7-------6-------6---|


D#|-----------------|-----------------------------------|-----------------------------------|
A#|-----------------|-----------------------------------|-----------------------------------|
F#|-----------------|-----------------------------------|-----------------------------------|
C#|-10---10---6-----|-6--6--7-------7-------6-------6---|-6--6--7-------7-------6-------6---|
G#|-10---10---6-----|-6--6--7-------7-------6-------6---|-6--6--7-------7-------6-------6---|
C#|-10---10---6-----|-6--6--7-------7-------6-------6---|-6--6--7-------7-------6-------6---|


D#|-----------------------------|------------------|-----------------------------------|
A#|-----------------------------|------------------|-----------------------------------|
F#|-----------------------------|------------------|-----------------------------------|
C#|-6--6--7-------7-------6-----|-6----3-----6-----|-6--6--7-------7-------6-------6---|
G#|-6--6--7-------7-------6-----|-6----3-----6-----|-6--6--7-------7-------6-------6---|
C#|-6--6--7-------7-------6-----|-6----3-----6-----|-6--6--7-------7-------6-------6---|


D#|-----------------------------------|-----------------------------------|-----------------|
A#|-----------------------------------|-----------------------------------|-----------------|
F#|-----------------------------------|-----------------------------------|-----------------|
C#|-6--6--7-------7-------6-------6---|-6--6--7-------7-------6-------6---|-10---10---6-----|
G#|-6--6--7-------7-------6-------6---|-6--6--7-------7-------6-------6---|-10---10---6-----|
C#|-6--6--7-------7-------6-------6---|-6--6--7-------7-------6-------6---|-10---10---6-----|


D#|-----------------------------------|-----------------------------------|-----------------------------|
A#|-----------------------------------|-----------------------------------|-----------------------------|
F#|-----------------------------------|-----------------------------------|-----------------------------|
C#|-6--6--7-------7-------6-------6---|-6--6--7-------7-------6-------6---|-6--6--7-------7-------6-----|
G#|-6--6--7-------7-------6-------6---|-6--6--7-------7-------6-------6---|-6--6--7-------7-------6-----|
C#|-6--6--7-------7-------6-------6---|-6--6--7-------7-------6-------6---|-6--6--7-------7-------6-----|


D#|------------------|------------------------------|-------------------------------------|
A#|------------------|------------------------------|-------------------------------------|
F#|------5-----6-----|------------------------------|-------------------------------------|
C#|-6----5-----6-----|------------------------------|-------------------------------------|
G#|-6----3-----4-----|------------------------------|-----------------3--3--5---3--3--5---|
C#|-6----------------|-0---3---5---3---3---0----5---|-3---3---3---0-----------------------|


D#|------------------------------|------------------------------|------------------------------|
A#|------------------------------|------------------------------|------------------------------|
F#|------------------------------|------------------------------|------------------------------|
C#|------------------------------|------------------------------|------------------------------|
G#|------------------------------|------------------------------|------------------------------|
C#|-0---3---5---3---3---0----5---|-3---3---3---0---5---5---3----|-0---3---5---3---3---0----3---|


D#|------------------------------|------------------------------|------------------------------|
A#|------------------------------|------------------------------|------------------------------|
F#|------------------------------|------------------------------|------------------------------|
C#|-------------------------3----|------------------------------|------------------------------|
G#|---------2---3---4---5--------|------------------------------|------------------------------|
C#|-2---3------------------------|-0---3---5---3---3---0----5---|-3---3---3---0---5---5---3----|


D#|------------------------------|-------------------------------------|------------------------------|
A#|------------------------------|-------------------------------------|------------------------------|
F#|------------------------------|-------------------------------------|------------------------------|
C#|------------------------------|-------------------------------------|------------------------------|
G#|------------------------------|-----------------3--3--5---3--3--5---|------------------------------|
C#|-0---3---5---3---3---0----5---|-3---3---3---0-----------------------|-0---3---5---3---3---0----5---|


D#|------------------------------|------------------------------|------------------------------|
A#|------------------------------|------------------------------|------------------------------|
F#|------------------------------|------------------------------|------------------------------|
C#|------------------------------|------------------------------|-------------------------3----|
G#|------------------------------|------------------------------|---------2---3---4---5--------|
C#|-3---3---3---0---5---5---3----|-0---3---5---3---3---0----3---|-2---3------------------------|


D#|------------------------------|------------------------------|-------------|-------------|
A#|------------------------------|------------------------------|-------------|-------------|
F#|------------------------------|------------------------------|-------------|-------------|
C#|------------------------------|------------------------------|-------------|-------------|
G#|------------------------------|------------------------------|-------------|-------------|
C#|-0---3---5---3---3---0----5---|-3---3---3---0---5---5---3----|-1----1------|-1----1------|


D#|--------------|--------|--------|--------|--------|--------------------|---------------------------------|
A#|--------------|--------|--------|--------|--------|--------------------|---------------------------------|
F#|--------------|--------|--------|--------|--------|--------------------|---------------------------------|
C#|--------------|--------|--------|--------|--------|--------------------|-1---1-------1---1-------1---1---|
G#|--------------|--------|--------|--------|--------|--------------------|-1---1-------1---1-------1---1---|
C#|-1------1--1--|--------|--------|--------|--------|-------6---7---3----|-1---1-------1---1-------1---1---|


D#|---------------------------------|---------------------------------|--------------------|
A#|---------------------------------|---------------------------------|--------------------|
F#|---------------------------------|---------------------------------|--------------------|
C#|-----1---1-------3---4---3---2---|-1---1-------1---1-------1---1---|-----1---5-----6----|
G#|-----1---1-------3---4---3---2---|-1---1-------1---1-------1---1---|-----1---5-----6----|
C#|-----1---1-------3---4---3---2---|-1---1-------1---1-------1---1---|-----1---5-----6----|


D#|---------------------------------|---------------------------------|---------------------------------|
A#|---------------------------------|---------------------------------|---------------------------------|
F#|---------------------------------|---------------------------------|---------------------------------|
C#|-1---1-------1---1-------1---1---|-----1---1-------3---4---3---2---|-1---1-------1---1-------1---1---|
G#|-1---1-------1---1-------1---1---|-----1---1-------3---4---3---2---|-1---1-------1---1-------1---1---|
C#|-1---1-------1---1-------1---1---|-----1---1-------3---4---3---2---|-1---1-------1---1-------1---1---|


D#|--------------------|---------------------------------|---------------------------------|
A#|--------------------|---------------------------------|---------------------------------|
F#|--------------------|---------------------------------|---------------------------------|
C#|-----1---5-----6----|-1---1-------1---1-------1---1---|-----1---1-------3---4---3---2---|
G#|-----1---5-----6----|-1---1-------1---1-------1---1---|-----1---1-------3---4---3---2---|
C#|-----1---5-----6----|-1---1-------1---1-------1---1---|-----1---1-------3---4---3---2---|


D#|---------------------------------|--------------------|---------------------------------|
A#|---------------------------------|--------------------|---------------------------------|
F#|---------------------------------|--------------------|---------------------------------|
C#|-1---1-------1---1-------1---1---|-----1---5-----6----|-1---1-------1---1-------1---1---|
G#|-1---1-------1---1-------1---1---|-----1---5-----6----|-1---1-------1---1-------1---1---|
C#|-1---1-------1---1-------1---1---|-----1---5-----6----|-1---1-------1---1-------1---1---|


D#|---------------------------------|---------------------------------|------------------------------|
A#|---------------------------------|---------------------------------|------------------------------|
F#|---------------------------------|---------------------------------|------------------------------|
C#|-----1---1-------3---4---3---2---|-1---1-------1---1-------1---1---|-----1---1--------------------|
G#|-----1---1-------3---4---3---2---|-1---1-------1---1-------1---1---|-----1---1--------------------|
C#|-----1---1-------3---4---3---2---|-1---1-------1---1-------1---1---|-----1---1-------6---7---3----|


D#|-----------------------------------|-----------------------------------|-----------------------------------|
A#|-----------------------------------|-----------------------------------|-----------------------------------|
F#|-----------------------------------|-----------------------------------|-----------------------------------|
C#|-6--6--7-------7-------6-------6---|-6--6--7-------7-------6-------6---|-6--6--7-------7-------6-------6---|
G#|-6--6--7-------7-------6-------6---|-6--6--7-------7-------6-------6---|-6--6--7-------7-------6-------6---|
C#|-6--6--7-------7-------6-------6---|-6--6--7-------7-------6-------6---|-6--6--7-------7-------6-------6---|


D#|-----------------|-----------------------------------|-----------------------------------|
A#|-----------------|-----------------------------------|-----------------------------------|
F#|-----------------|-----------------------------------|-----------------------------------|
C#|-10---10---6-----|-6--6--7-------7-------6-------6---|-6--6--7-------7-------6-------6---|
G#|-10---10---6-----|-6--6--7-------7-------6-------6---|-6--6--7-------7-------6-------6---|
C#|-10---10---6-----|-6--6--7-------7-------6-------6---|-6--6--7-------7-------6-------6---|


D#|-----------------------------|------------------|-----------------------------------|
A#|-----------------------------|------------------|-----------------------------------|
F#|-----------------------------|------------------|-----------------------------------|
C#|-6--6--7-------7-------6-----|-6----3-----6-----|-6--6--7-------7-------6-------6---|
G#|-6--6--7-------7-------6-----|-6----3-----6-----|-6--6--7-------7-------6-------6---|
C#|-6--6--7-------7-------6-----|-6----3-----6-----|-6--6--7-------7-------6-------6---|


D#|-----------------------------------|-----------------------------------|-----------------|
A#|-----------------------------------|-----------------------------------|-----------------|
F#|-----------------------------------|-----------------------------------|-----------------|
C#|-6--6--7-------7-------6-------6---|-6--6--7-------7-------6-------6---|-10---10---6-----|
G#|-6--6--7-------7-------6-------6---|-6--6--7-------7-------6-------6---|-10---10---6-----|
C#|-6--6--7-------7-------6-------6---|-6--6--7-------7-------6-------6---|-10---10---6-----|


D#|-----------------------------------|-----------------------------------|-----------------------------|
A#|-----------------------------------|-----------------------------------|-----------------------------|
F#|-----------------------------------|-----------------------------------|-----------------------------|
C#|-6--6--7-------7-------6-------6---|-6--6--7-------7-------6-------6---|-6--6--7-------7-------6-----|
G#|-6--6--7-------7-------6-------6---|-6--6--7-------7-------6-------6---|-6--6--7-------7-------6-----|
C#|-6--6--7-------7-------6-------6---|-6--6--7-------7-------6-------6---|-6--6--7-------7-------6-----|


D#|------------------|------------------------------|-------------------------------------|
A#|------------------|------------------------------|-------------------------------------|
F#|------5-----6-----|------------------------------|-------------------------------------|
C#|-6----5-----6-----|------------------------------|-------------------------------------|
G#|-6----3-----4-----|------------------------------|-----------------3--3--5---3--3--5---|
C#|-6----------------|-0---3---5---3---3---0----5---|-3---3---3---0-----------------------|


D#|------------------------------|------------------------------|------------------------------|
A#|------------------------------|------------------------------|------------------------------|
F#|------------------------------|------------------------------|------------------------------|
C#|------------------------------|------------------------------|------------------------------|
G#|------------------------------|------------------------------|------------------------------|
C#|-0---3---5---3---3---0----5---|-3---3---3---0---5---5---3----|-0---3---5---3---3---0----3---|


D#|------------------------------|------------------------------|------------------------------|
A#|------------------------------|------------------------------|------------------------------|
F#|------------------------------|------------------------------|------------------------------|
C#|-------------------------3----|------------------------------|------------------------------|
G#|---------2---3---4---5--------|------------------------------|------------------------------|
C#|-2---3------------------------|-0---3---5---3---3---0----5---|-3---3---3---0---5---5---3----|


D#|------------------------------|-------------------------------------|------------------------------|
A#|------------------------------|-------------------------------------|------------------------------|
F#|------------------------------|-------------------------------------|------------------------------|
C#|------------------------------|-------------------------------------|------------------------------|
G#|------------------------------|-----------------3--3--5---3--3--5---|------------------------------|
C#|-0---3---5---3---3---0----5---|-3---3---3---0-----------------------|-0---3---5---3---3---0----5---|


D#|------------------------------|------------------------------|------------------------------|
A#|------------------------------|------------------------------|------------------------------|
F#|------------------------------|------------------------------|------------------------------|
C#|------------------------------|------------------------------|-------------------------3----|
G#|------------------------------|------------------------------|---------2---3---4---5--------|
C#|-3---3---3---0---5---5---3----|-0---3---5---3---3---0----3---|-2---3------------------------|


D#|------------------------------|------------------------------|------------------------------|
A#|------------------------------|------------------------------|------------------------------|
F#|------------------------------|------------------------------|------------------------------|
C#|------------------------------|------------------------------|---------------------0---3----|
G#|------------------------------|------------------------------|-------------2---3------------|
C#|-0---3---5---3---3---0----5---|-3---3---3---0---5---5---3----|-0---2---3--------------------|


D#|--------|------------------------------|--------|------------|-------------|------------15--------------17--17--20--|
A#|--------|------------------------------|--------|------------|-------0-----|-15-15--1515----17-17-17-17-------------|
F#|--------|------------------------------|--------|------------|-------0-----|----------------------------------------|
C#|-3------|---------------------0---3----|-3------|------------|-------------|----------------------------------------|
G#|--------|-------------2---3------------|--------|------------|-------------|----------------------------------------|
C#|--------|-0---2---3--------------------|--------|-0---0------|-0-----0-----|----------------------------------------|


D#|-20----20--20---20--|--------|--------|--------|------------|----------------13------|
A#|--------------------|--------|--------|--------|------------|------------13------13--|
F#|--------------------|-3------|-3------|-3------|-3------3---|-15---15----------------|
C#|--------------------|-3------|-3------|-3------|-3------3---|------------------------|
G#|--------------------|--------|--------|--------|------------|------------------------|
C#|--------------------|--------|--------|--------|------------|------------------------|


D#|-----------13------------|-13-----------13----------13--|------------------------|
A#|-16---16-------16---16---|-----16---16------16--16------|-16-16-16-16-16---------|
F#|-------------------------|------------------------------|------------------------|
C#|-------------------------|------------------------------|------------------------|
G#|-------------------------|------------------------------|------------------------|
C#|-------------------------|------------------------------|-------------------0----|


D#|-16--17--16--13------16------13--16--|-17-16-13----16------13--16--17-16-13----|
A#|-----------------15------15----------|----------15-----15-------------------15-|
F#|-------------------------------------|-----------------------------------------|
C#|-------------------------------------|-----------------------------------------|
G#|-------------------------------------|-----------------------------------------|
C#|-------------------------------------|-----------------------------------------|


D#|-16------13---------------16-------------|-16------------------------|------------------------------|
A#|-----15------16--------------16----------|----16---------------------|------------------------------|
F#|-----------------15-15-13-------15-15-13-|-------15-15--15-13--------|-10-----------10----------10--|
C#|-----------------------------------------|---------------------15----|------12--10--10--12--10--10--|
G#|-----------------------------------------|---------------------------|------------------------------|
C#|-----------------------------------------|---------------------------|------------------------------|


D#|---------------------------------|---------------------------------|--------|-------------------------------------------------|
A#|---------------------------------|---------------------------------|--------|-13-10-9--10-12-10-9--10-11-10-9--10-12-10-9--10-|
F#|---------------------------------|---------------------------------|--------|-------------------------------------------------|
C#|-12--10----------10--------------|---------------------------------|--------|-------------------------------------------------|
G#|---------12--11------12--11--10--|---------15----------15----------|-17-----|-------------------------------------------------|
C#|---------------------------------|-12--14------14--15------15--16--|-16-----|-------------------------------------------------|


D#|-------------------------------------------------|-----------17--20----------|-20--20-----|
A#|-13-10-9--10-12-10-9--10-11-10-9--10-12-10-9--10-|-20---20------------20-20--|------------|
F#|-------------------------------------------------|---------------------------|------------|
C#|-------------------------------------------------|---------------------------|------------|
G#|-------------------------------------------------|---------------------------|------------|
C#|-------------------------------------------------|---------------------------|------------|


D#|---------------------------------|------------------------------|---------------------------------|
A#|---------------------------------|------------------------------|---------------------------------|
F#|---------------------------------|------------------------------|---------------------------------|
C#|-0---1---------------------------|-----------------3---4----4---|-0---1---------------------------|
G#|-0---1---1---1---1---1---1---1---|-1---1---1---1---3---4----4---|-0---1---1---1---1---1---1---1---|
C#|-0---1---1---1---1---1---1---1---|-1---1---1---1---3---4----4---|-0---1---1---1---1---1---1---1---|


D#|------------------------------|---------------------------------|------------------------------|
A#|------------------------------|---------------------------------|------------------------------|
F#|------------------------------|---------------------------------|------------------------------|
C#|-----------------3---4----4---|-0---1---------------------------|-----------------3---4----4---|
G#|-1---1---1---1---3---4----4---|-0---1---1---1---1---1---1---1---|-1---1---1---1---3---4----4---|
C#|-1---1---1---1---3---4----4---|-0---1---1---1---1---1---1---1---|-1---1---1---1---3---4----4---|


D#|---------------------------|---------------------------------|------------------------------|
A#|---------------------------|---------------------------------|------------------------------|
F#|---------------------------|---------------------------------|------------------------------|
C#|-1---1-------1---1---------|-0---1---------------------------|-----------------3---4----4---|
G#|-1---1-------1---1---------|-0---1---1---1---1---1---1---1---|-1---1---1---1---3---4----4---|
C#|-1---1-------1---1---------|-0---1---1---1---1---1---1---1---|-1---1---1---1---3---4----4---|


D#|---------------------------------|------------------------------|---------------------------------|
A#|---------------------------------|------------------------------|---------------------------------|
F#|---------------------------------|------------------------------|---------------------------------|
C#|-0---1---------------------------|-----------------3---4----4---|-0---1---------------------------|
G#|-0---1---1---1---1---1---1---1---|-1---1---1---1---3---4----4---|-0---1---1---1---1---1---1---1---|
C#|-0---1---1---1---1---1---1---1---|-1---1---1---1---3---4----4---|-0---1---1---1---1---1---1---1---|


D#|------------------------------|---------------------------|-----------------------|
A#|------------------------------|---------------------------|-----------------------|
F#|------------------------------|---------------------------|-----------------------|
C#|-----------------3---4----4---|-1---1-------1---1---------|-----------------------|
G#|-1---1---1---1---3---4----4---|-1---1-------1---1---------|-------3---5---3---1---|
C#|-1---1---1---1---3---4----4---|-1---1-------1---1---------|-------3---5---3---1---|


D#|------------------------------|-------------------------------------|------------------------------|
A#|------------------------------|-------------------------------------|------------------------------|
F#|------------------------------|-------------------------------------|------------------------------|
C#|------------------------------|-------------------------------------|------------------------------|
G#|------------------------------|-----------------3--3--5---3--3--5---|------------------------------|
C#|-0---3---5---3---3---0----5---|-3---3---3---0-----------------------|-0---3---5---3---3---0----5---|


D#|------------------------------|------------------------------|------------------------------|
A#|------------------------------|------------------------------|------------------------------|
F#|------------------------------|------------------------------|------------------------------|
C#|------------------------------|------------------------------|-------------------------3----|
G#|------------------------------|------------------------------|---------2---3---4---5--------|
C#|-3---3---3---0---5---5---3----|-0---3---5---3---3---0----3---|-2---3------------------------|


D#|------------------------------|------------------------------|------------------------------|
A#|------------------------------|------------------------------|------------------------------|
F#|------------------------------|------------------------------|------------------------------|
C#|------------------------------|------------------------------|------------------------------|
G#|------------------------------|------------------------------|------------------------------|
C#|-0---3---5---3---3---0----5---|-3---3---3---0---5---5---5----|-0---3---5---3---3---0----5---|


D#|-------------------------------------|------------------------------|------------------------------|
A#|-------------------------------------|------------------------------|------------------------------|
F#|-------------------------------------|------------------------------|------------------------------|
C#|-------------------------------------|------------------------------|------------------------------|
G#|-----------------3--3--5---3--3--5---|------------------------------|------------------------------|
C#|-3---3---3---0-----------------------|-0---3---5---3---3---0----5---|-3---3---3---0---5---5---3----|


D#|------------------------------|------------------------------|------------------------------|
A#|------------------------------|------------------------------|------------------------------|
F#|------------------------------|------------------------------|------------------------------|
C#|------------------------------|-------------------------3----|------------------------------|
G#|------------------------------|---------2---3---4---5--------|------------------------------|
C#|-0---3---5---3---3---0----3---|-2---3------------------------|-0---3---5---3---3---0----5---|


D#|--------------------|---------------------------------|------------------------------|
A#|--------------------|---------------------------------|------------------------------|
F#|--------------------|---------------------------------|------------------------------|
C#|--------------------|-0---1---------------------------|-----------------3---4----4---|
G#|--------------------|-0---1---1---1---1---1---1---1---|-1---1---1---1---3---4----4---|
C#|-3---5---5----5-----|-0---1---1---1---1---1---1---1---|-1---1---1---1---3---4----4---|


D#|---------------------------------|------------------------------|---------------------------------|
A#|---------------------------------|------------------------------|---------------------------------|
F#|---------------------------------|------------------------------|---------------------------------|
C#|-0---1---------------------------|-----------------3---4----4---|-0---1---------------------------|
G#|-0---1---1---1---1---1---1---1---|-1---1---1---1---3---4----4---|-0---1---1---1---1---1---1---1---|
C#|-0---1---1---1---1---1---1---1---|-1---1---1---1---3---4----4---|-0---1---1---1---1---1---1---1---|


D#|------------------------------|---------------------------|---------------------------------|
A#|------------------------------|---------------------------|---------------------------------|
F#|------------------------------|---------------------------|---------------------------------|
C#|-----------------3---4----4---|-1---1-------1---1---------|-0---1---------------------------|
G#|-1---1---1---1---3---4----4---|-1---1-------1---1---------|-0---1---1---1---1---1---1---1---|
C#|-1---1---1---1---3---4----4---|-1---1-------1---1---------|-0---1---1---1---1---1---1---1---|


D#|------------------------------|---------------------------------|------------------------------|
A#|------------------------------|---------------------------------|------------------------------|
F#|------------------------------|---------------------------------|------------------------------|
C#|-----------------3---4----4---|-0---1---------------------------|-----------------3---4----4---|
G#|-1---1---1---1---3---4----4---|-0---1---1---1---1---1---1---1---|-1---1---1---1---3---4----4---|
C#|-1---1---1---1---3---4----4---|-0---1---1---1---1---1---1---1---|-1---1---1---1---3---4----4---|


D#|---------------------------------|------------------------------|---------------------------------|
A#|---------------------------------|------------------------------|---------------------------------|
F#|---------------------------------|------------------------------|---------------------------------|
C#|-0---1---------------------------|-----------------3---4----4---|-0---1---------------------------|
G#|-0---1---1---1---1---1---1---1---|-1---1---1---1---3---4----4---|-0---1---1---1---1---1---1---1---|
C#|-0---1---1---1---1---1---1---1---|-1---1---1---1---3---4----4---|-0---1---1---1---1---1---1---1---|


D#|------------------------------|---------------------------------|------------------------------|
A#|------------------------------|---------------------------------|------------------------------|
F#|------------------------------|---------------------------------|------------------------------|
C#|-----------------3---4----4---|-0---1---------------------------|-----------------3---4----4---|
G#|-1---1---1---1---3---4----4---|-0---1---1---1---1---1---1---1---|-1---1---1---1---3---4----4---|
C#|-1---1---1---1---3---4----4---|-0---1---1---1---1---1---1---1---|-1---1---1---1---3---4----4---|


D#|---------------------------------|------------------------------|---------------------------------|
A#|---------------------------------|------------------------------|---------------------------------|
F#|---------------------------------|------------------------------|---------------------------------|
C#|-0---1---------------------------|-----------------3---4----4---|-0---1---------------------------|
G#|-0---1---1---1---1---1---1---1---|-1---1---1---1---3---4----4---|-0---1---1---1---1---1---1---1---|
C#|-0---1---1---1---1---1---1---1---|-1---1---1---1---3---4----4---|-0---1---1---1---1---1---1---1---|


D#|------------------------------|---------------------------------|------------------------------|
A#|------------------------------|---------------------------------|------------------------------|
F#|------------------------------|---------------------------------|------------------------------|
C#|-----------------3---4----4---|-0---1---------------------------|-----------------3---4----4---|
G#|-1---1---1---1---3---4----4---|-0---1---1---1---1---1---1---1---|-1---1---1---1---3---4----4---|
C#|-1---1---1---1---3---4----4---|-0---1---1---1---1---1---1---1---|-1---1---1---1---3---4----4---|


D#|---------------------------------|------------------------------|---------------------------------|
A#|---------------------------------|------------------------------|---------------------------------|
F#|---------------------------------|------------------------------|---------------------------------|
C#|-0---1---------------------------|-----------------3---4----4---|-0---1---------------------------|
G#|-0---1---1---1---1---1---1---1---|-1---1---1---1---3---4----4---|-0---1---1---1---1---1---1---1---|
C#|-0---1---1---1---1---1---1---1---|-1---1---1---1---3---4----4---|-0---1---1---1---1---1---1---1---|


D#|------------------------------|---------------------------------|------------------------------|
A#|------------------------------|---------------------------------|------------------------------|
F#|------------------------------|---------------------------------|------------------------------|
C#|-----------------3---4----4---|-0---1---------------------------|-----------------3---4----4---|
G#|-1---1---1---1---3---4----4---|-0---1---1---1---1---1---1---1---|-1---1---1---1---3---4----4---|
C#|-1---1---1---1---3---4----4---|-0---1---1---1---1---1---1---1---|-1---1---1---1---3---4----4---|


D#|---------------------------------|------------------------------|---------------------------------|
A#|---------------------------------|------------------------------|---------------------------------|
F#|---------------------------------|------------------------------|---------------------------------|
C#|-0---1---------------------------|-----------------3---4----4---|-0---1---------------------------|
G#|-0---1---1---1---1---1---1---1---|-1---1---1---1---3---4----4---|-0---1---1---1---1---1---1---1---|
C#|-0---1---1---1---1---1---1---1---|-1---1---1---1---3---4----4---|-0---1---1---1---1---1---1---1---|


D#|------------------------------|---------------------------------|------------------------------|
A#|------------------------------|---------------------------------|------------------------------|
F#|------------------------------|---------------------------------|------------------------------|
C#|-----------------3---4----4---|-0---1---------------------------|-----------------3---4----4---|
G#|-1---1---1---1---3---4----4---|-0---1---1---1---1---1---1---1---|-1---1---1---1---3---4----4---|
C#|-1---1---1---1---3---4----4---|-0---1---1---1---1---1---1---1---|-1---1---1---1---3---4----4---|


D#|---------------------------------|------------------------------|---------------------------------|
A#|---------------------------------|------------------------------|---------------------------------|
F#|---------------------------------|------------------------------|---------------------------------|
C#|-0---1---------------------------|-----------------3---4----4---|-0---1---------------------------|
G#|-0---1---1---1---1---1---1---1---|-1---1---1---1---3---4----4---|-0---1---1---1---1---1---1---1---|
C#|-0---1---1---1---1---1---1---1---|-1---1---1---1---3---4----4---|-0---1---1---1---1---1---1---1---|


D#|------------------------------|---------------------------------|------------------------------|
A#|------------------------------|---------------------------------|------------------------------|
F#|------------------------------|---------------------------------|------------------------------|
C#|-----------------3---4----4---|-0---1---------------------------|-----------------3---4----4---|
G#|-1---1---1---1---3---4----4---|-0---1---1---1---1---1---1---1---|-1---1---1---1---3---4----4---|
C#|-1---1---1---1---3---4----4---|-0---1---1---1---1---1---1---1---|-1---1---1---1---3---4----4---|


D#|---------------------------------|------------------------------|---------------------------------|
A#|---------------------------------|------------------------------|---------------------------------|
F#|---------------------------------|------------------------------|---------------------------------|
C#|-0---1---------------------------|-----------------3---4----4---|-0---1---------------------------|
G#|-0---1---1---1---1---1---1---1---|-1---1---1---1---3---4----4---|-0---1---1---1---1---1---1---1---|
C#|-0---1---1---1---1---1---1---1---|-1---1---1---1---3---4----4---|-0---1---1---1---1---1---1---1---|


D#|------------------------------|---------------------------------|------------------------------|
A#|------------------------------|---------------------------------|------------------------------|
F#|------------------------------|---------------------------------|------------------------------|
C#|-----------------3---4----4---|-0---1---------------------------|-----------------3---4----4---|
G#|-1---1---1---1---3---4----4---|-0---1---1---1---1---1---1---1---|-1---1---1---1---3---4----4---|
C#|-1---1---1---1---3---4----4---|-0---1---1---1---1---1---1---1---|-1---1---1---1---3---4----4---|





Track 2: Extra dubbed rhythm guitar

D#|----------------|----------------|----------------|---------------------|--------|
A#|----------------|----------------|----------------|---------------------|--------|
F#|----------------|----------------|----------------|---------------------|--------|
C#|----------------|-----0---3------|----------------|-----0---3-----------|--------|
G#|------------2---|-3--------------|------------2---|-3-------------------|--------|
C#|--------3-------|----------------|--------3-------|---------------15----|--------|


D#|--------|--------|--------|--------|--------|--------|--------|--------|--------|
A#|--------|--------|--------|--------|--------|--------|--------|--------|--------|
F#|--------|--------|--------|--------|--------|--------|--------|--------|--------|
C#|--------|--------|--------|--------|--------|--------|--------|--------|--------|
G#|--------|--------|--------|--------|--------|--------|--------|--------|--------|
C#|--------|--------|--------|--------|--------|--------|--------|--------|--------|


D#|--------|--------|--------|--------|--------|--------|--------|--------|--------|
A#|--------|--------|--------|--------|--------|--------|--------|--------|--------|
F#|--------|--------|--------|--------|--------|--------|--------|--------|--------|
C#|--------|--------|--------|--------|--------|--------|--------|--------|--------|
G#|--------|--------|--------|--------|--------|--------|--------|--------|--------|
C#|--------|--------|--------|--------|--------|--------|--------|--------|--------|


D#|--------|--------|--------|--------|--------|--------|--------|--------|--------|
A#|--------|--------|--------|--------|--------|--------|--------|--------|--------|
F#|--------|--------|--------|--------|--------|--------|--------|--------|--------|
C#|--------|--------|--------|--------|--------|--------|--------|--------|--------|
G#|--------|--------|--------|--------|--------|--------|--------|--------|--------|
C#|--------|--------|--------|--------|--------|--------|--------|--------|--------|


D#|--------|--------|--------|--------|--------|--------|--------|--------|--------|
A#|--------|--------|--------|--------|--------|--------|--------|--------|--------|
F#|--------|--------|--------|--------|--------|--------|--------|--------|--------|
C#|--------|--------|--------|--------|--------|--------|--------|--------|--------|
G#|--------|--------|--------|--------|--------|--------|--------|--------|--------|
C#|--------|--------|--------|--------|--------|--------|--------|--------|--------|


D#|--------|--------|--------|--------|--------|--------|--------|--------|--------|
A#|--------|--------|--------|--------|--------|--------|--------|--------|--------|
F#|--------|--------|--------|--------|--------|--------|--------|--------|--------|
C#|--------|--------|--------|--------|--------|--------|--------|--------|--------|
G#|--------|--------|--------|--------|--------|--------|--------|--------|--------|
C#|--------|--------|--------|--------|--------|--------|--------|--------|--------|


D#|--------|--------|--------|--------|--------|--------|--------|--------|--------|
A#|--------|--------|--------|--------|--------|--------|--------|--------|--------|
F#|--------|--------|--------|--------|--------|--------|--------|--------|--------|
C#|--------|--------|--------|--------|--------|--------|--------|--------|--------|
G#|--------|--------|--------|--------|--------|--------|--------|--------|--------|
C#|--------|--------|--------|--------|--------|--------|--------|--------|--------|


D#|--------|--------|--------|--------|--------|--------|--------|--------|--------|
A#|--------|--------|--------|--------|--------|--------|--------|--------|--------|
F#|--------|--------|--------|--------|--------|--------|--------|--------|--------|
C#|--------|--------|--------|--------|--------|--------|--------|--------|--------|
G#|--------|--------|--------|--------|--------|--------|--------|--------|--------|
C#|--------|--------|--------|--------|--------|--------|--------|--------|--------|


D#|--------|--------|--------|--------|--------|--------|--------|--------|--------|
A#|--------|--------|--------|--------|--------|--------|--------|--------|--------|
F#|--------|--------|--------|--------|--------|--------|--------|--------|--------|
C#|--------|--------|--------|--------|--------|--------|--------|--------|--------|
G#|--------|--------|--------|--------|--------|--------|--------|--------|--------|
C#|--------|--------|--------|--------|--------|--------|--------|--------|--------|


D#|--------|--------|--------|--------|--------|--------|--------|--------|--------|
A#|--------|--------|--------|--------|--------|--------|--------|--------|--------|
F#|--------|--------|--------|--------|--------|--------|--------|--------|--------|
C#|--------|--------|--------|--------|--------|--------|--------|--------|--------|
G#|--------|--------|--------|--------|--------|--------|--------|--------|--------|
C#|--------|--------|--------|--------|--------|--------|--------|--------|--------|


D#|--------|--------|--------|--------|--------|--------|--------|--------|--------|
A#|--------|--------|--------|--------|--------|--------|--------|--------|--------|
F#|--------|--------|--------|--------|--------|--------|--------|--------|--------|
C#|--------|--------|--------|--------|--------|--------|--------|--------|--------|
G#|--------|--------|--------|--------|--------|--------|--------|--------|--------|
C#|--------|--------|--------|--------|--------|--------|--------|--------|--------|


D#|--------|--------|--------|--------|--------|--------|--------|--------|--------|
A#|--------|--------|--------|--------|--------|--------|--------|--------|--------|
F#|--------|--------|--------|--------|--------|--------|--------|--------|--------|
C#|--------|--------|--------|--------|--------|--------|--------|--------|--------|
G#|--------|--------|--------|--------|--------|--------|--------|--------|--------|
C#|--------|--------|--------|--------|--------|--------|--------|--------|--------|


D#|--------|--------|--------|--------|--------|--------|--------|--------|--------|
A#|--------|--------|--------|--------|--------|--------|--------|--------|--------|
F#|--------|--------|--------|--------|--------|--------|--------|--------|--------|
C#|--------|--------|--------|--------|--------|--------|--------|--------|--------|
G#|--------|--------|--------|--------|--------|--------|--------|--------|--------|
C#|--------|--------|--------|--------|--------|--------|--------|--------|--------|


D#|--------|--------|--------|--------|--------|--------|--------|--------|--------|
A#|--------|--------|--------|--------|--------|--------|--------|--------|--------|
F#|--------|--------|--------|--------|--------|--------|--------|--------|--------|
C#|--------|--------|--------|--------|--------|--------|--------|--------|--------|
G#|--------|--------|--------|--------|--------|--------|--------|--------|--------|
C#|--------|--------|--------|--------|--------|--------|--------|--------|--------|


D#|--------|--------|--------|--------|--------|--------|--------|--------|--------|
A#|--------|--------|--------|--------|--------|--------|--------|--------|--------|
F#|--------|--------|--------|--------|--------|--------|--------|--------|--------|
C#|--------|--------|--------|--------|--------|--------|--------|--------|--------|
G#|--------|--------|--------|--------|--------|--------|--------|--------|--------|
C#|--------|--------|--------|--------|--------|--------|--------|--------|--------|


D#|--------|----------------|----------------|----------------|----------------|--------|
A#|--------|----------------|----------------|----------------|----------------|--------|
F#|--------|----------------|----------------|----------------|----------------|--------|
C#|--------|----------------|-----0---3------|----------------|-----0---3------|--------|
G#|--------|------------2---|-3--------------|------------2---|-3--------------|--------|
C#|--------|--------3-------|----------------|--------3-------|----------------|--------|


D#|--------|--------|--------|--------|--------|--------|--------|--------|--------|
A#|--------|--------|--------|--------|--------|--------|--------|--------|--------|
F#|--------|--------|--------|--------|--------|--------|--------|--------|--------|
C#|--------|--------|--------|--------|--------|--------|--------|--------|--------|
G#|--------|--------|--------|--------|--------|--------|--------|--------|--------|
C#|--------|--------|--------|--------|--------|--------|--------|--------|--------|


D#|--------|--------|--------|--------|--------|--------|--------|--------|--------|
A#|--------|--------|--------|--------|--------|--------|--------|--------|--------|
F#|--------|--------|--------|--------|--------|--------|--------|--------|--------|
C#|--------|--------|--------|--------|--------|--------|--------|--------|--------|
G#|--------|--------|--------|--------|--------|--------|--------|--------|--------|
C#|--------|--------|--------|--------|--------|--------|--------|--------|--------|


D#|--------|--------|--------|---------------------------|------------|--------|--------|
A#|--------|--------|--------|-----------10--13----------|-13--13-----|--------|--------|
F#|--------|--------|--------|-12---12------------12-12--|------------|--------|--------|
C#|--------|--------|--------|---------------------------|------------|--------|--------|
G#|--------|--------|--------|---------------------------|------------|--------|--------|
C#|--------|--------|--------|---------------------------|------------|--------|--------|


D#|--------|--------|--------|--------|--------|--------|--------|--------|--------|
A#|--------|--------|--------|--------|--------|--------|--------|--------|--------|
F#|--------|--------|--------|--------|--------|--------|--------|--------|--------|
C#|--------|--------|--------|--------|--------|--------|--------|--------|--------|
G#|--------|--------|--------|--------|--------|--------|--------|--------|--------|
C#|--------|--------|--------|--------|--------|--------|--------|--------|--------|


D#|--------|--------|--------|--------|--------|--------|--------|--------|--------|
A#|--------|--------|--------|--------|--------|--------|--------|--------|--------|
F#|--------|--------|--------|--------|--------|--------|--------|--------|--------|
C#|--------|--------|--------|--------|--------|--------|--------|--------|--------|
G#|--------|--------|--------|--------|--------|--------|--------|--------|--------|
C#|--------|--------|--------|--------|--------|--------|--------|--------|--------|


D#|--------|--------|--------|--------|--------|--------|--------|--------|--------|
A#|--------|--------|--------|--------|--------|--------|--------|--------|--------|
F#|--------|--------|--------|--------|--------|--------|--------|--------|--------|
C#|--------|--------|--------|--------|--------|--------|--------|--------|--------|
G#|--------|--------|--------|--------|--------|--------|--------|--------|--------|
C#|--------|--------|--------|--------|--------|--------|--------|--------|--------|


D#|--------|--------|--------|--------|--------|--------|--------|--------|--------|
A#|--------|--------|--------|--------|--------|--------|--------|--------|--------|
F#|--------|--------|--------|--------|--------|--------|--------|--------|--------|
C#|--------|--------|--------|--------|--------|--------|--------|--------|--------|
G#|--------|--------|--------|--------|--------|--------|--------|--------|--------|
C#|--------|--------|--------|--------|--------|--------|--------|--------|--------|


D#|--------|--------|--------|--------|--------|--------|--------|--------|--------|
A#|--------|--------|--------|--------|--------|--------|--------|--------|--------|
F#|--------|--------|--------|--------|--------|--------|--------|--------|--------|
C#|--------|--------|--------|--------|--------|--------|--------|--------|--------|
G#|--------|--------|--------|--------|--------|--------|--------|--------|--------|
C#|--------|--------|--------|--------|--------|--------|--------|--------|--------|


D#|--------|--------|--------|--------|--------|--------|--------|--------|--------|
A#|--------|--------|--------|--------|--------|--------|--------|--------|--------|
F#|--------|--------|--------|--------|--------|--------|--------|--------|--------|
C#|--------|--------|--------|--------|--------|--------|--------|--------|--------|
G#|--------|--------|--------|--------|--------|--------|--------|--------|--------|
C#|--------|--------|--------|--------|--------|--------|--------|--------|--------|


D#|--------|--------|--------|--------|--------|--------|--------|--------|--------|
A#|--------|--------|--------|--------|--------|--------|--------|--------|--------|
F#|--------|--------|--------|--------|--------|--------|--------|--------|--------|
C#|--------|--------|--------|--------|--------|--------|--------|--------|--------|
G#|--------|--------|--------|--------|--------|--------|--------|--------|--------|
C#|--------|--------|--------|--------|--------|--------|--------|--------|--------|


D#|--------|--------|--------|--------|--------|--------|--------|--------|--------|
A#|--------|--------|--------|--------|--------|--------|--------|--------|--------|
F#|--------|--------|--------|--------|--------|--------|--------|--------|--------|
C#|--------|--------|--------|--------|--------|--------|--------|--------|--------|
G#|--------|--------|--------|--------|--------|--------|--------|--------|--------|
C#|--------|--------|--------|--------|--------|--------|--------|--------|--------|


D#|--------|--------|--------|--------|
A#|--------|--------|--------|--------|
F#|--------|--------|--------|--------|
C#|--------|--------|--------|--------|
G#|--------|--------|--------|--------|
C#|--------|--------|--------|--------|





Track 3: Rex

F#|------------------------------|--------|------------------------------|-------------|
C#|---------------------0---3----|-3------|---------------------0---3----|-3-----------|
G#|-------------2---3------------|--------|-------------2---3------------|-------5-----|
C#|-0---2---3--------------------|--------|-0---2---3--------------------|-------------|


F#|------------------------------|---------------------------------|------------------------------|
C#|------------------------------|---------------------------------|------------------------------|
G#|------------------------------|-----------------3---5---3---5---|------------------------------|
C#|-0---3---5---3---3---0----5---|-3---3---3---0-------------------|-0---3---5---3---3---0----5---|


F#|------------------------------|------------------------------|------------------------------|
C#|------------------------------|------------------------------|---------------------0---3----|
G#|------------------------------|------------------------------|---------2---3---4------------|
C#|-3---3---3---0---5---5---3----|-0---3---5---3---3---0----3---|-2---3------------------------|


F#|------------------------------|------------------------------|------------------------------|
C#|------------------------------|------------------------------|------------------------------|
G#|------------------------------|------------------------------|------------------------------|
C#|-0---3---5---3---3---0----5---|-3---3---3---0---5---5---3----|-0---3---5---3---3---0----5---|


F#|---------------------------------|------------------------------|------------------------------|
C#|---------------------------------|------------------------------|------------------------------|
G#|-----------------3---5---3---5---|------------------------------|------------------------------|
C#|-3---3---3---0-------------------|-0---3---5---3---3---0----5---|-3---3---3---0---5---5---3----|


F#|------------------------------|------------------------------|------------------------------|
C#|------------------------------|---------------------0---3----|------------------------------|
G#|------------------------------|---------2---3---4------------|------------------------------|
C#|-0---3---5---3---3---0----3---|-2---3------------------------|-0---3---5---3---3---0----5---|


F#|------------------------------|---------------------------------|---------------------------------|
C#|------------------------------|---------------------------------|---------------------------------|
G#|------------------------------|---------------------------------|---------------------------------|
C#|-3---3---3---0---5---5---3----|-1---1-------1---1-------1---1---|-----1---1-------3---4---3---2---|


F#|---------------------------------|------------------------------|---------------------------------|
C#|---------------------------------|------------------------------|---------------------------------|
G#|---------------------------------|------------------------------|---------------------------------|
C#|-1---1-------1---1-------1---1---|-----1---1---1---6---7---3----|-1---1-------1---1-------1---1---|


F#|---------------------------------|---------------------------------|------------------------------|
C#|---------------------------------|---------------------------------|------------------------------|
G#|---------------------------------|---------------------------------|------------------------------|
C#|-----1---1-------3---4---3---2---|-1---1-------1---1-------1---1---|-----1---1---1---6---7---3----|


F#|---------------------------------|---------------------------------|---------------------------------|
C#|---------------------------------|---------------------------------|---------------------------------|
G#|---------------------------------|---------------------------------|---------------------------------|
C#|-1---1-------1---1-------1---1---|-----1---1-------3---4---3---2---|-1---1-------1---1-------1---1---|


F#|--------------------|---------------------------------|---------------------------------|
C#|--------------------|---------------------------------|---------------------------------|
G#|--------------------|---------------------------------|---------------------------------|
C#|-----1---5-----6----|-1---1-------1---1-------1---1---|-----1---1-------3---4---3---2---|


F#|---------------------------------|--------------------|---------------------------------|
C#|---------------------------------|--------------------|---------------------------------|
G#|---------------------------------|--------------------|---------------------------------|
C#|-1---1-------1---1-------1---1---|-----1---5-----6----|-1---1-------1---1-------1---1---|


F#|---------------------------------|---------------------------------|--------------------|
C#|---------------------------------|---------------------------------|--------------------|
G#|---------------------------------|---------------------------------|--------------------|
C#|-----1---1-------3---4---3---2---|-1---1-------1---1-------1---1---|-----1---5-----6----|


F#|---------------------------------|---------------------------------|---------------------------------|
C#|---------------------------------|---------------------------------|---------------------------------|
G#|---------------------------------|---------------------------------|---------------------------------|
C#|-1---1-------1---1-------1---1---|-----1---1-------3---4---3---2---|-1---1-------1---1-------1---1---|


F#|------------------------------|---------------------------------|---------------------------------|
C#|------------------------------|---------------------------------|---------------------------------|
G#|------------------------------|---------------------------------|---------------------------------|
C#|-----1---1-------6---7---3----|-6---7-------7-------6-------6---|-6---7-------7-------6-------6---|


F#|---------------------------------|-----------------|---------------------------------|
C#|---------------------------------|-----------------|---------------------------------|
G#|---------------------------------|-----------------|---------------------------------|
C#|-6---7-------7-------6-------6---|-10---10---6-----|-6---7-------7-------6-------6---|


F#|---------------------------------|---------------------------|------------------|
C#|---------------------------------|---------------------------|------------------|
G#|---------------------------------|---------------------------|------------------|
C#|-6---7-------7-------6-------6---|-6---7-------7-------6-----|-6----3-----6-----|


F#|---------------------------------|---------------------------------|---------------------------------|
C#|---------------------------------|---------------------------------|---------------------------------|
G#|---------------------------------|---------------------------------|---------------------------------|
C#|-6---7-------7-------6-------6---|-6---7-------7-------6-------6---|-6---7-------7-------6-------6---|


F#|-----------------|---------------------------------|---------------------------------|
C#|-----------------|---------------------------------|---------------------------------|
G#|-----------------|---------------------------------|---------------------------------|
C#|-10---10---6-----|-6---7-------7-------6-------6---|-6---7-------7-------6-------6---|


F#|---------------------------|------------------|------------------------------|---------------------------------|
C#|---------------------------|------------------|------------------------------|---------------------------------|
G#|---------------------------|------3-----4-----|------------------------------|-----------------3---5---3---5---|
C#|-6---7-------7-------6-----|-6----------------|-0---3---5---3---3---0----5---|-3---3---3---0-------------------|


F#|------------------------------|------------------------------|------------------------------|
C#|------------------------------|------------------------------|------------------------------|
G#|------------------------------|------------------------------|------------------------------|
C#|-0---3---5---3---3---0----5---|-3---3---3---0---5---5---3----|-0---3---5---3---3---0----3---|


F#|------------------------------|------------------------------|------------------------------|
C#|---------------------0---3----|------------------------------|------------------------------|
G#|---------2---3---4------------|------------------------------|------------------------------|
C#|-2---3------------------------|-0---3---5---3---3---0----5---|-3---3---3---0---5---5---3----|


F#|------------------------------|---------------------------------|------------------------------|
C#|------------------------------|---------------------------------|------------------------------|
G#|------------------------------|-----------------3---5---3---5---|------------------------------|
C#|-0---3---5---3---3---0----5---|-3---3---3---0-------------------|-0---3---5---3---3---0----5---|


F#|------------------------------|------------------------------|------------------------------|
C#|------------------------------|------------------------------|---------------------0---3----|
G#|------------------------------|------------------------------|---------2---3---4------------|
C#|-3---3---3---0---5---5---3----|-0---3---5---3---3---0----3---|-2---3------------------------|


F#|------------------------------|------------------------------|---------------------------------|
C#|------------------------------|------------------------------|---------------------------------|
G#|------------------------------|------------------------------|---------------------------------|
C#|-0---3---5---3---3---0----5---|-3---3---3---0---5---5---3----|-1---1-------1---1-------1---1---|


F#|---------------------------------|---------------------------------|------------------------------|
C#|---------------------------------|---------------------------------|------------------------------|
G#|---------------------------------|---------------------------------|------------------------------|
C#|-----1---1-------3---4---3---2---|-1---1-------1---1-------1---1---|-----1---1---1---6---7---3----|


F#|---------------------------------|---------------------------------|---------------------------------|
C#|---------------------------------|---------------------------------|---------------------------------|
G#|---------------------------------|---------------------------------|---------------------------------|
C#|-1---1-------1---1-------1---1---|-----1---1-------3---4---3---2---|-1---1-------1---1-------1---1---|


F#|------------------------------|---------------------------------|---------------------------------|
C#|------------------------------|---------------------------------|---------------------------------|
G#|------------------------------|---------------------------------|---------------------------------|
C#|-----1---1---1---6---7---3----|-1---1-------1---1-------1---1---|-----1---1-------3---4---3---2---|


F#|---------------------------------|--------------------|---------------------------------|
C#|---------------------------------|--------------------|---------------------------------|
G#|---------------------------------|--------------------|---------------------------------|
C#|-1---1-------1---1-------1---1---|-----1---5-----6----|-1---1-------1---1-------1---1---|


F#|---------------------------------|---------------------------------|--------------------|
C#|---------------------------------|---------------------------------|--------------------|
G#|---------------------------------|---------------------------------|--------------------|
C#|-----1---1-------3---4---3---2---|-1---1-------1---1-------1---1---|-----1---5-----6----|


F#|---------------------------------|---------------------------------|---------------------------------|
C#|---------------------------------|---------------------------------|---------------------------------|
G#|---------------------------------|---------------------------------|---------------------------------|
C#|-1---1-------1---1-------1---1---|-----1---1-------3---4---3---2---|-1---1-------1---1-------1---1---|


F#|--------------------|---------------------------------|---------------------------------|
C#|--------------------|---------------------------------|---------------------------------|
G#|--------------------|---------------------------------|---------------------------------|
C#|-----1---5-----6----|-1---1-------1---1-------1---1---|-----1---1-------3---4---3---2---|


F#|---------------------------------|------------------------------|---------------------------------|
C#|---------------------------------|------------------------------|---------------------------------|
G#|---------------------------------|------------------------------|---------------------------------|
C#|-1---1-------1---1-------1---1---|-----1---1-------6---7---3----|-6---7-------7-------6-------6---|


F#|---------------------------------|---------------------------------|-----------------|
C#|---------------------------------|---------------------------------|-----------------|
G#|---------------------------------|---------------------------------|-----------------|
C#|-6---7-------7-------6-------6---|-6---7-------7-------6-------6---|-10---10---6-----|


F#|---------------------------------|---------------------------------|---------------------------|
C#|---------------------------------|---------------------------------|---------------------------|
G#|---------------------------------|---------------------------------|---------------------------|
C#|-6---7-------7-------6-------6---|-6---7-------7-------6-------6---|-6---7-------7-------6-----|


F#|------------------|---------------------------------|---------------------------------|
C#|------------------|---------------------------------|---------------------------------|
G#|------------------|---------------------------------|---------------------------------|
C#|-6----3-----6-----|-6---7-------7-------6-------6---|-6---7-------7-------6-------6---|


F#|---------------------------------|-----------------|---------------------------------|
C#|---------------------------------|-----------------|---------------------------------|
G#|---------------------------------|-----------------|---------------------------------|
C#|-6---7-------7-------6-------6---|-10---10---6-----|-6---7-------7-------6-------6---|


F#|---------------------------------|---------------------------|------------------|
C#|---------------------------------|---------------------------|------------------|
G#|---------------------------------|---------------------------|------3-----4-----|
C#|-6---7-------7-------6-------6---|-6---7-------7-------6-----|-6----------------|


F#|------------------------------|---------------------------------|------------------------------|
C#|------------------------------|---------------------------------|------------------------------|
G#|------------------------------|-----------------3---5---3---5---|------------------------------|
C#|-0---3---5---3---3---0----5---|-3---3---3---0-------------------|-0---3---5---3---3---0----5---|


F#|------------------------------|------------------------------|------------------------------|
C#|------------------------------|------------------------------|---------------------0---3----|
G#|------------------------------|------------------------------|---------2---3---4------------|
C#|-3---3---3---0---5---5---3----|-0---3---5---3---3---0----3---|-2---3------------------------|


F#|------------------------------|------------------------------|------------------------------|
C#|------------------------------|------------------------------|------------------------------|
G#|------------------------------|------------------------------|------------------------------|
C#|-0---3---5---3---3---0----5---|-3---3---3---0---5---5---3----|-0---3---5---3---3---0----5---|


F#|---------------------------------|------------------------------|------------------------------|
C#|---------------------------------|------------------------------|------------------------------|
G#|-----------------3---5---3---5---|------------------------------|------------------------------|
C#|-3---3---3---0-------------------|-0---3---5---3---3---0----5---|-3---3---3---0---5---5---3----|


F#|------------------------------|------------------------------|------------------------------|
C#|------------------------------|---------------------0---3----|------------------------------|
G#|------------------------------|---------2---3---4------------|------------------------------|
C#|-0---3---5---3---3---0----3---|-2---3------------------------|-0---3---5---3---3---0----5---|


F#|------------------------------|------------------------------|--------|------------------------------|
C#|------------------------------|---------------------0---3----|-3------|---------------------0---3----|
G#|------------------------------|-------------2---3------------|--------|-------------2---3------------|
C#|-3---3---3---0---5---5---3----|-0---2---3--------------------|--------|-0---2---3--------------------|


F#|--------|---------------------------------|---------------------------|---------------------------------|
C#|-3------|---------------------------------|---------------------------|---------------------------------|
G#|--------|---------------------------------|-----------------5----5----|---------------------------------|
C#|--------|-0---0-------0---0-------0---0---|-----0---0-----------------|-0---0-------0---0-------0---0---|


F#|------------------------------|---------------------------------|---------------------------|
C#|-------------------------4----|---------------------------------|---------------------------|
G#|-----------------3---5--------|---------------------------------|-----------------3----3----|
C#|-----0---0--------------------|-0---0-------0---0-------0---0---|-----0---0-----------------|


F#|---------------------------------|------------------------------|---------------------------------|
C#|---------------------------------|------------------------------|---------------------------------|
G#|---------------------------------|-----------------5------------|---------------------------------|
C#|-0---0-------0---0-------0---0---|-----0---0-----------0---0----|-3---3-------3---3-------3---3---|


F#|-------------------------------------|---------------------------------|-----------------------------|
C#|-------------------------------------|---------------------------------|-----------------------------|
G#|-------------------------------------|---------------------------------|-----------------------------|
C#|-----3---3-------6--6--4---6--6--4---|-3---3-------3---3-------3---3---|-----3---3----3--15----------|


F#|---------------------------------|-------------------------------------|---------------------------------|
C#|---------------------------------|-------------------------------------|---------------------------------|
G#|---------------------------------|-------------------------------------|---------------------------------|
C#|-3---3-------3---3-------3---3---|-----3---3-------6--6--4---6--6--4---|-3---3-------3---3-------3---3---|


F#|---------------------------------|---------------------------------|---------------------------------|
C#|---------------------------------|---------------------------------|---------------------------------|
G#|---------------------------------|---------------------------------|---------------------------------|
C#|-----3---3-------3---3---2---1---|-0---0-------0---0-------0---0---|-----0---0-------3---3---2---1---|


F#|---------------------------------|---------------------------------|---------------------------------|
C#|---------------------------------|---------------------------------|---------------------------------|
G#|---------------------------------|---------------------------------|---------------------------------|
C#|-0---0-------0---0-------0---0---|-----0---0-------3---3---2---1---|-0---0-------0---0-------0---0---|


F#|---------------------------------|---------------------------------|---------------------|
C#|---------------------------------|---------------------------------|---------------------|
G#|---------------------------------|---------------------------------|---------------------|
C#|-----0---0-------3---3---2---1---|-0---0-------0---0-------0---0---|-12---12---12--12----|


F#|---------------------------------|---------------------------|---------------------------------|
C#|---------------------------------|---------------------------|---------------------------------|
G#|---------------------------------|---------------------------|---------------------------------|
C#|-0---1---1---1---1---1---1---1---|-1---1---1---1---3---4-----|-0---1---1---1---1---1---1---1---|


F#|---------------------------|---------------------------------|---------------------------|
C#|---------------------------|---------------------------------|---------------------------|
G#|---------------------------|---------------------------------|---------------------------|
C#|-1---1---1---1---3---4-----|-0---1---1---1---1---1---1---1---|-1---1---1---1---3---4-----|


F#|---------------------------|---------------------------------|---------------------------|
C#|---------------------------|---------------------------------|---------------------------|
G#|---------------------------|---------------------------------|---------------------------|
C#|-1---1-------1---1---------|-0---1---1---1---1---1---1---1---|-1---1---1---1---3---4-----|


F#|---------------------------------|---------------------------|---------------------------------|
C#|---------------------------------|---------------------------|---------------------------------|
G#|---------------------------------|---------------------------|---------------------------------|
C#|-0---1---1---1---1---1---1---1---|-1---1---1---1---3---4-----|-0---1---1---1---1---1---1---1---|


F#|---------------------------|---------------------------|-----------------------|
C#|---------------------------|---------------------------|-----------------------|
G#|---------------------------|---------------------------|-----------------------|
C#|-1---1---1---1---3---4-----|-1---1-------1---1---------|-------3---5---3---1---|


F#|------------------------------|---------------------------------|------------------------------|
C#|------------------------------|---------------------------------|------------------------------|
G#|------------------------------|-----------------3---5---3---5---|------------------------------|
C#|-0---3---5---3---3---0----5---|-3---3---3---0-------------------|-0---3---5---3---3---0----5---|


F#|------------------------------|------------------------------|------------------------------|
C#|------------------------------|------------------------------|---------------------0---3----|
G#|------------------------------|------------------------------|---------2---3---4------------|
C#|-3---3---3---0---5---5---3----|-0---3---5---3---3---0----3---|-2---3------------------------|


F#|------------------------------|------------------------------|------------------------------|
C#|------------------------------|------------------------------|------------------------------|
G#|------------------------------|------------------------------|------------------------------|
C#|-0---3---5---3---3---0----5---|-3---3---3---0---5---5---3----|-0---3---5---3---3---0----5---|


F#|---------------------------------|------------------------------|------------------------------|
C#|---------------------------------|------------------------------|------------------------------|
G#|-----------------3---5---3---5---|------------------------------|------------------------------|
C#|-3---3---3---0-------------------|-0---3---5---3---3---0----5---|-3---3---3---0---5---5---3----|


F#|------------------------------|------------------------------|------------------------------|
C#|------------------------------|---------------------0---3----|------------------------------|
G#|------------------------------|---------2---3---4------------|------------------------------|
C#|-0---3---5---3---3---0----3---|-2---3------------------------|-0---3---5---3---3---0----5---|


F#|------------------------------|---------------------------------|---------------------------|
C#|------------------------------|---------------------------------|---------------------------|
G#|------------------------------|---------------------------------|---------------------------|
C#|-3---3---3---0---5---5---3----|-0---1---1---1---1---1---1---1---|-1---1---1---1---3---4-----|


F#|---------------------------------|---------------------------|---------------------------------|
C#|---------------------------------|---------------------------|---------------------------------|
G#|---------------------------------|---------------------------|---------------------------------|
C#|-0---1---1---1---1---1---1---1---|-1---1---1---1---3---4-----|-0---1---1---1---1---1---1---1---|


F#|---------------------------|---------------------------|---------------------------------|
C#|---------------------------|---------------------------|---------------------------------|
G#|---------------------------|---------------------------|---------------------------------|
C#|-1---1---1---1---3---4-----|-1---1-------1---1---------|-0---1---1---1---1---1---1---1---|


F#|---------------------------|---------------------------------|---------------------------|
C#|---------------------------|---------------------------------|---------------------------|
G#|---------------------------|---------------------------------|---------------------------|
C#|-1---1---1---1---3---4-----|-0---1---1---1---1---1---1---1---|-1---1---1---1---3---4-----|


F#|---------------------------------|---------------------------|---------------------------------|
C#|---------------------------------|---------------------------|---------------------------------|
G#|---------------------------------|---------------------------|---------------------------------|
C#|-0---1---1---1---1---1---1---1---|-1---1---1---1---3---4-----|-0---1---1---1---1---1---1---1---|


F#|---------------------------|---------------------------------|---------------------------|
C#|---------------------------|---------------------------------|---------------------------|
G#|---------------------------|---------------------------------|---------------------------|
C#|-1---1---1---1---3---4-----|-0---1---1---1---1---1---1---1---|-1---1---1---1---3---4-----|


F#|---------------------------------|---------------------------|---------------------------------|
C#|---------------------------------|---------------------------|---------------------------------|
G#|---------------------------------|---------------------------|---------------------------------|
C#|-0---1---1---1---1---1---1---1---|-1---1---1---1---3---4-----|-0---1---1---1---1---1---1---1---|


F#|---------------------------|---------------------------------|---------------------------|
C#|---------------------------|---------------------------------|---------------------------|
G#|---------------------------|---------------------------------|---------------------------|
C#|-1---1---1---1---3---4-----|-0---1---1---1---1---1---1---1---|-1---1---1---1---3---4-----|


F#|---------------------------------|---------------------------|---------------------------------|
C#|---------------------------------|---------------------------|---------------------------------|
G#|---------------------------------|---------------------------|---------------------------------|
C#|-0---1---1---1---1---1---1---1---|-1---1---1---1---3---4-----|-0---1---1---1---1---1---1---1---|


F#|---------------------------|---------------------------------|---------------------------|
C#|---------------------------|---------------------------------|---------------------------|
G#|---------------------------|---------------------------------|---------------------------|
C#|-1---1---1---1---3---4-----|-0---1---1---1---1---1---1---1---|-1---1---1---1---3---4-----|


F#|---------------------------------|---------------------------|---------------------------------|
C#|---------------------------------|---------------------------|---------------------------------|
G#|---------------------------------|---------------------------|---------------------------------|
C#|-0---1---1---1---1---1---1---1---|-1---1---1---1---3---4-----|-0---1---1---1---1---1---1---1---|


F#|---------------------------|---------------------------------|---------------------------|
C#|---------------------------|---------------------------------|---------------------------|
G#|---------------------------|---------------------------------|---------------------------|
C#|-1---1---1---1---3---4-----|-0---1---1---1---1---1---1---1---|-1---1---1---1---3---4-----|


F#|---------------------------------|---------------------------|---------------------------------|
C#|---------------------------------|---------------------------|---------------------------------|
G#|---------------------------------|---------------------------|---------------------------------|
C#|-0---1---1---1---1---1---1---1---|-1---1---1---1---3---4-----|-0---1---1---1---1---1---1---1---|


F#|---------------------------|---------------------------------|---------------------------|
C#|---------------------------|---------------------------------|---------------------------|
G#|---------------------------|---------------------------------|---------------------------|
C#|-1---1---1---1---3---4-----|-0---1---1---1---1---1---1---1---|-1---1---1---1---3---4-----|


F#|---------------------------------|---------------------------|---------------------------------|
C#|---------------------------------|---------------------------|---------------------------------|
G#|---------------------------------|---------------------------|---------------------------------|
C#|-0---1---1---1---1---1---1---1---|-1---1---1---1---3---4-----|-0---1---1---1---1---1---1---1---|


F#|---------------------------|---------------------------------|---------------------------|
C#|---------------------------|---------------------------------|---------------------------|
G#|---------------------------|---------------------------------|---------------------------|
C#|-1---1---1---1---3---4-----|-0---1---1---1---1---1---1---1---|-1---1---1---1---3---4-----|