Menu:

 

Search:

 

pantera - mouth for war:

 



Title: Mouth For War
Artist: 
Album: Vulgar Display of Power
Author: Vincent Paul Abbott, Darrell Lance Abbott, Rex Robert Brown and Philip Hansen Anselmo


Track 1: Distortion (L)

E|-----------------------------------|-----------------------------------|-----------------------------------|
B|-----------------------------------|-----------------------------------|-----------------------------------|
G|-------------------4---------------|---------------4-------4-------4---|-------------------4---------------|
D|-------------------4---------------|---------------4-------4-------4---|-------------------4---------------|
A|-0--1--2---2---2---2---2---2---2---|-0--1--2---2---2---2---2---2---2---|-0--1--2---2---2---2---2---2---2---|
E|-----------------------------------|-----------------------------------|-----------------------------------|


E|-----------------------------------|-----------------------------------|-----------------------------------|
B|-----------------------------------|-----------------------------------|-----------------------------------|
G|---------------4-------4-------4---|-------------------4---------------|---------------4-------4-------4---|
D|---------------4-------4-------4---|-------------------4---------------|---------------4-------4-------4---|
A|-0--1--2---2---2---2---2---2---2---|-0--1--2---2---2---2---2---2---2---|-0--1--2---2---2---2---2---2---2---|
E|-----------------------------------|-----------------------------------|-----------------------------------|


E|-----------------------------------|-----------------------------------|---------------------------|
B|-----------------------------------|-----------------------------------|---------------------------|
G|-------------------4---------------|---------------4-------4-------4---|---------------------------|
D|-------------------4---------------|---------------4-------4-------4---|---------------------------|
A|-0--1--2---2---2---2---2---2---2---|-0--1--2---2---2---2---2---2---2---|-2----5---9-------5--------|
E|-----------------------------------|-----------------------------------|-0----3---7---0---3----0---|


E|------------------------------|---------------------------|------------------------------|
B|------------------------------|---------------------------|------------------------------|
G|------------------------------|---------------------------|------------------------------|
D|------------------------------|---------------------------|------------------------------|
A|-5---9-------5---9-------5----|-2----5---9-------5--------|-5---9-------5---9-------5----|
E|-3---7---0---3---7---0---3----|-0----3---7---0---3----0---|-3---7---0---3---7---0---3----|


E|---------------------------|------------------------------|---------------------------|
B|---------------------------|------------------------------|---------------------------|
G|---------------------------|------------------------------|---------------------------|
D|---------------------------|------------------------------|---------------------------|
A|-2----5---9-------5--------|-5---9-------5---9-------5----|-2----5---9-------5--------|
E|-0----3---7---0---3----0---|-3---7---0---3---7---0---3----|-0----3---7---0---3----0---|


E|-----------------------|-------------------------------------------------|-------------------------------------------------|
B|-----------------------|-------------------------------------------------|-------------------------------------------------|
G|-------2---2---2-------|-------------------------------------------------|-------------------------------------2--2--2-----|
D|-9-----2---2---2-------|-------------------------------------------------|-------------------------------------2--2--2-----|
A|-------0---0---0---2---|-2-----8-----9--10----5--8-----5-----5--7-----4--|-5-----8-----9--10----7--8-----5-----0--0--0--2--|
E|-7-----------------0---|-0--0--6--0--7--8--0--3--6--0--3--0--3--5--0--2--|-3--0--6--0--7--8--0--5--6--0--3--0-----------0--|


E|-------------------------------------------------|-------------------------------------2--2------|
B|-------------------------------------------------|-------------------------------------2--2------|
G|-------------------------------------------------|-------------------------------------0--0------|
D|-------------------------------------------------|-----------------------------------------------|
A|-2-----8-----9--10----5--8-----5-----5--7-----4--|-5-----8-----9--10----7--8-----5---------------|
E|-0--0--6--0--7--8--0--3--6--0--3--0--3--5--0--2--|-3--0--6--0--7--8--0--5--6--0--3--0------------|


E|-------------------------------------------------|-------------------------------------------------|
B|-------------------------------------------------|-------------------------------------------------|
G|-------------------------------------------------|-------------------------------------------------|
D|-------------------------------------------------|-------------------------------------------------|
A|----2--2--2--2-----8-----9--10----5--8-----5-----|-5--7-----4--5-----8-----9--10----7--8-----5-----|
E|----0--0--0--0--0--6--0--7--8--0--3--6--0--3--0--|-3--5--0--2--3--0--6--0--7--8--0--5--6--0--3--0--|


E|-------------------------------------------------|-------------------------------------------------|
B|-2--2--7-----------------------------------------|-------------------------------------------------|
G|-2--2--2-----------------------------------------|-------------------------------------------------|
D|-2--2--2-----------------------------------------|-------------------------------------------------|
A|-0--0--0--2--2--2--8-----9--10----5--8-----5-----|-5--7-----4--5-----8-----9--10----7--8-----5-----|
E|----------0--0--0--6--0--7--8--0--3--6--0--3--0--|-3--5--0--2--3--0--6--0--7--8--0--5--6--0--3--0--|


E|-------------------------------------------------|-------------------------------------------------|
B|-2--2--2-----------------------------------------|-------------------------------------------------|
G|-2--2--2-----------------------------------------|-------------------------------------------------|
D|-2--2--2-----------------------------------------|-------------------------------------------------|
A|-0--0--0--2--2--2--8-----9--10----5--8-----5-----|-5--7-----4--5-----8-----9--10----7--8-----5-----|
E|----------0--0--0--6--0--7--8--0--3--6--0--3--0--|-3--5--0--2--3--0--6--0--7--8--0--5--6--0--3--0--|


E|-------------------------------------------------|-------------------------------------------------|
B|-2--2--2-----------------------------------------|-------------------------------------------------|
G|-2--2--2-----------------------------------------|-------------------------------------------------|
D|-2--2--2-----------------------------------------|-------------------------------------------------|
A|-0--0--0--2--2-----8-----9--10----5--8-----5-----|-5--7-----4--5-----8-----9--10----7--8-----5-----|
E|----------0--0--0--6--0--7--8--0--3--6--0--3--0--|-3--5--0--2--3--0--6--0--7--8--0--5--6--0--3--0--|


E|---------------------------------------|-----------------------------------|-----------------------------------|
B|-2--2--2--2----------------------------|-----------------------------------|-----------------------------------|
G|-2--2--2--2--------------------4-------|-----------------------4-------4---|-----4---------------------4-------|
D|-2--2--2--2--------------------4-------|-----------------------4-------4---|-----4---------------------4-------|
A|-0--0--0--0--0--1--2---2---2---2---2---|-2---2---0--1--2---2---2---2---2---|-2---2---0--1--2---2---2---2---2---|
E|---------------------------------------|-----------------------------------|-----------------------------------|


E|-----------------------------------|-----------------------------------|-----------------------------------|
B|-----------------------------------|-----------------------------------|-----------------------------------|
G|-----------------------4-------4---|-----4---------------------4-------|-----------------------4-------4---|
D|-----------------------4-------4---|-----4---------------------4-------|-----------------------4-------4---|
A|-2---2---0--1--2---2---2---2---2---|-2---2---0--1--2---2---2---2---2---|-2---2---0--1--2---2---2---2---2---|
E|-----------------------------------|-----------------------------------|-----------------------------------|


E|-----------------------------------|-----------------------------------|------------------------------|
B|-----------------------------------|-----------------------------------|------------------------------|
G|-----4---------------------4-------|-----------------------4-------4---|-----4------------------------|
D|-----4---------------------4-------|-----------------------4-------4---|-----4------------------------|
A|-2---2---0--1--2---2---2---2---2---|-2---2---0--1--2---2---2---2---2---|-2---2---2----5---9-------5---|
E|-----------------------------------|-----------------------------------|---------0----3---7---0---3---|


E|---------------------------------|---------------------------|---------------------------------|
B|---------------------------------|---------------------------|---------------------------------|
G|---------------------------------|---------------------------|---------------------------------|
D|---------------------------------|---------------------------|---------------------------------|
A|---------5---9-------5---9-------|-5----2----5---9-------5---|---------5---9-------5---9-------|
E|-----0---3---7---0---3---7---0---|-3----0----3---7---0---3---|-----0---3---7---0---3---7---0---|


E|---------------------------|---------------------------------|---------------------------|
B|---------------------------|---------------------------------|---------------------------|
G|---------------------------|---------------------------------|---------------------------|
D|---------------------------|---------------------------------|---------------------------|
A|-5----2----5---9-------5---|---------5---9-------5---9-------|-5----2----5---9-------5---|
E|-3----0----3---7---0---3---|-----0---3---7---0---3---7---0---|-3----0----3---7---0---3---|


E|-----------------------|---------------------------------------------|-------------------------------------------------|
B|-----------------------|---------------------------------------------|-------------------------------------------------|
G|---------------2---2---|-2-------------------------------------------|-------------------------------------------------|
D|---------9-----2---2---|-2-------------------------------------------|-------------------------------------------------|
A|---------------0---0---|-0---2---2-----8-----9--10----5--8-----5-----|-5--7-----4--5-----8-----9--10----7--8-----5-----|
E|-----0---7-------------|-----0---0--0--6--0--7--8--0--3--6--0--3--0--|-3--5--0--2--3--0--6--0--7--8--0--5--6--0--3--0--|


E|-------------------------------------------------|-------------------------------------------------|
B|-------------------------------------------------|-------------------------------------------------|
G|-2--2--2-----------------------------------------|-------------------------------------------------|
D|-2--2--2-----------------------------------------|-------------------------------------------------|
A|-0--0--0--2--2-----8-----9--10----5--8-----5-----|-5--7-----4--5-----8-----9--10----7--8-----5-----|
E|----------0--0--0--6--0--7--8--0--3--6--0--3--0--|-3--5--0--2--3--0--6--0--7--8--0--5--6--0--3--0--|


E|-2--2------------------------------------------|-------------------------------------------------|
B|-2--2------------------------------------------|-------------------------------------------------|
G|-0--0------------------------------------------|-------------------------------------------------|
D|-----------------------------------------------|-------------------------------------------------|
A|--------------2--2--2--2-----8-----9--10----5--|-8-----5-----5--7-----4--5-----8-----9--10----7--|
E|--------------0--0--0--0--0--6--0--7--8--0--3--|-6--0--3--0--3--5--0--2--3--0--6--0--7--8--0--5--|


E|-------------------------------------------------|-------------------------------------------------|
B|-------------2--2--7-----------------------------|-------------------------------------------------|
G|-------------2--2--2-----------------------------|-------------------------------------------------|
D|-------------2--2--2-----------------------------|-------------------------------------------------|
A|-8-----5-----0--0--0--2--2--2--8-----9--10----5--|-8-----5-----5--7-----4--5-----8-----9--10----7--|
E|-6--0--3--0-----------0--0--0--6--0--7--8--0--3--|-6--0--3--0--3--5--0--2--3--0--6--0--7--8--0--5--|


E|-------------------------------------------------|-------------------------------------------------|
B|-------------2--2--2-----------------------------|-------------------------------------------------|
G|-------------2--2--2-----------------------------|-------------------------------------------------|
D|-------------2--2--2-----------------------------|-------------------------------------------------|
A|-8-----5-----0--0--0--2--2--2--8-----9--10----5--|-8-----5-----5--7-----4--5-----8-----9--10----7--|
E|-6--0--3--0-----------0--0--0--6--0--7--8--0--3--|-6--0--3--0--3--5--0--2--3--0--6--0--7--8--0--5--|


E|-------------------------------------------------|-------------------------------------------------|
B|-------------2--2--2-----------------------------|-------------------------------------------------|
G|-------------2--2--2-----------------------------|-------------------------------------------------|
D|-------------2--2--2-----------------------------|-------------------------------------------------|
A|-8-----5-----0--0--0--2--2-----8-----9--10----5--|-8-----5-----5--7-----4--5-----8-----9--10----7--|
E|-6--0--3--0-----------0--0--0--6--0--7--8--0--3--|-6--0--3--0--3--5--0--2--3--0--6--0--7--8--0--5--|


E|-------------------------------------------|-----------------------------------|
B|-------------2--2--2--2--------------------|-----------------------------------|
G|-------------2--2--2--2--------------------|-4-----------------------------4---|
D|-------------2--2--2--2--------------------|-4-----------------------------4---|
A|-8-----5-----0--0--0--0--0--1--2---2---2---|-2---2---2---2---0--1--2---2---2---|
E|-6--0--3--0--------------------------------|-----------------------------------|


E|-----------------------------------|-----------------------------------|-----------------------------------|
B|-----------------------------------|-----------------------------------|-----------------------------------|
G|-----4-------4---------------------|-4-----------------------------4---|-----4-------4---------------------|
D|-----4-------4---------------------|-4-----------------------------4---|-----4-------4---------------------|
A|-2---2---2---2---0--1--2---2---2---|-2---2---2---2---0--1--2---2---2---|-2---2---2---2---0--1--2---2---2---|
E|-----------------------------------|-----------------------------------|-----------------------------------|


E|-----------------------------------|-----------------------------------|-----------------------------------|
B|-----------------------------------|-----------------------------------|-----------------------------------|
G|-4-----------------------------4---|-----4-------4---------------------|-4-----------------------------4---|
D|-4-----------------------------4---|-----4-------4---------------------|-4-----------------------------4---|
A|-2---2---2---2---0--1--2---2---2---|-2---2---2---2---0--1--2---2---2---|-2---2---2---2---0--1--2---2---2---|
E|-----------------------------------|-----------------------------------|-----------------------------------|


E|------------------------------|------------------------------|---------------------------|
B|------------------------------|------------------------------|---------------------------|
G|-----4-------4----------------|------------------------------|---------------------------|
D|-----4-------4----------------|------------------------------|---------------------------|
A|-2---2---2---2---2----5---9---|-----5--------5---9-------5---|-9-------5----2----5---9---|
E|-----------------0----3---7---|-0---3----0---3---7---0---3---|-7---0---3----0----3---7---|


E|------------------------------|---------------------------|------------------------------|
B|------------------------------|---------------------------|------------------------------|
G|------------------------------|---------------------------|------------------------------|
D|------------------------------|---------------------------|------------------------------|
A|-----5--------5---9-------5---|-9-------5----2----5---9---|-----5--------5---9-------5---|
E|-0---3----0---3---7---0---3---|-7---0---3----0----3---7---|-0---3----0---3---7---0---3---|


E|---------------------------|------------------------------|------------------------------------|
B|---------------------------|------------------------------|------------------------------------|
G|---------------------------|------------------------------|------------------------------------|
D|---------------------------|------------------------------|------------------------------------|
A|-9-------5----2----5---9---|-----5--------5---9-------5---|-9-------5----------------2---------|
E|-7---0---3----0----3---7---|-0---3----0---3---7---0---3---|-7---0---3----2--4--4--4-----4---4--|


E|------------------------------------------|-----------------------------|------------------------------------------|
B|------------------------------------------|-----------------------------|------------------------------------------|
G|---------------------------------9--8--7--|-7---------------------------|---------------------------------9--8--7--|
D|-------------------------2----2-----------|-----------------------------|-------------------------2----2-----------|
A|-6--5--4--2-----2--------2----2--7--6--5--|-5-----------------2---------|-6--5--4--2-----2--------2----2--7--6--5--|
E|----------------------2--0----0-----------|-------2--4--4--4-----4---4--|----------------------2--0----0-----------|


E|-----------------------------|------------------------------------------|-----------------------------|
B|-----------------------------|------------------------------------------|-----------------------------|
G|-7---------------------------|---------------------------------9--8--7--|-7---------------------------|
D|-----------------------------|-------------------------2----2-----------|-----------------------------|
A|-5-----------------2---------|-6--5--4--2-----2--------2----2--7--6--5--|-5-----------------2---------|
E|-------2--4--4--4-----4---4--|----------------------2--0----0-----------|-------2--4--4--4-----4---4--|


E|------------------------------------------|-------------|------------------------------------------|
B|------------------------------------------|-------------|------------------------------------------|
G|---------------------------------------2--|-2-----------|------------------------------------------|
D|-------------------------2----2--------0--|-0-----------|-8--7--6--4-----4----------------------7--|
A|-6--5--4--2-----2--------2----2-----------|-------------|-6--5--4--2-----2-----4--2----2--7--6--5--|
E|----------------------2--0----0--0--0-----|-------------|----------------------2--0----0-----------|


E|---------------------------------------|------------------------------------------|
B|-----7---7---7-------------------------|------------------------------------------|
G|-----0---0---0-------------------------|------------------------------------------|
D|-7-------------------------------------|-8--7--6--4-----4----------------------7--|
A|-5---------------4--6--6--6--9--6---6--|-6--5--4--2-----2-----4--2----2--7--6--5--|
E|-----------------2--4--4--4--7--4---4--|----------------------2--0----0-----------|


E|-------------------------------|-------------------------------------------------|
B|-------------------------------|-------------------------------------------------|
G|-------------------------------|-------------------------------------------------|
D|-7-----------------------------|-------------------------------------------------|
A|-5-----6--6-----6--6-----6--4--|-6--6-----6--6-----6--4--6--6-----6--6-----6--4--|
E|-------4--4-----4--4-----4--2--|-4--4-----4--4-----4--2--4--4-----4--4-----4--2--|


E|-------------------------------------------------|-------------------------------------------------|
B|-------------------------------------------------|-------------------------------------------------|
G|-------------------------------------------------|-------------------------------------------------|
D|-------------------------------------------------|-------------------------------------------------|
A|-6--6-----6--6-----6--4--6--6-----6--6-----6--4--|-6--6-----6--6-----6--4--6--6-----6--6-----6--4--|
E|-4--4-----4--4-----4--2--4--4-----4--4-----4--2--|-4--4-----4--4-----4--2--4--4-----4--4-----4--2--|


E|-------------------------------------------------|-------------------------------------------------|
B|-------------------------------------------------|-------------------------------------------------|
G|-------------------------------------------------|-------------------------------------------------|
D|-------------------------------------------------|-------------------------------------------------|
A|-6--6-----6--6-----6--4--6--6-----6--6-----6--4--|-6--6-----6--6-----6--4--6--6-----6--6-----6--4--|
E|-4--4-----4--4-----4--2--4--4-----4--4-----4--2--|-4--4-----4--4-----4--2--4--4-----4--4-----4--2--|


E|-----------------------------------------------|-------------------------------|
B|-----------------------------------------------|-------------------------------|
G|-----------------------------------------------|-------------------------------|
D|-----------------------------------------------|-------------------------0-----|
A|-6--6-----6--6-----6--4--6---------------------|-------------------------5-----|
E|-4--4-----4--4-----4--2--4---4--4--4--4--4--4--|-4--4--4--4--4--4--4--4--7-----|


E|-------------------------------|-------------------------------|-----------------------------|
B|-------------------------------|-------------------------------|-----------------------------|
G|-------------------------------|-------------------------------|-----------------------------|
D|-------------------------------|-------------------------------|-----------------------------|
A|-------4--6--------------------|-------------------------3-----|-------4---6-----------------|
E|-------2--4--4--4--4--4--4--4--|-4--4--4--4--4--4--4--4--5-----|-------2---4--4--4--4--4--4--|


E|-------------------------------|-------------------------------|-------------------------------|
B|-------------------------------|-------------------------------|-------------------------------|
G|-------------------------------|-------------------------------|-------------------------------|
D|-------------------------0-----|-------------------------------|-------------------------------|
A|-------------------------5-----|-------4--6--------------------|-------------------------3-----|
E|-4--4--4--4--4--4--4--4--7-----|-------2--4--4--4--4--4--4--4--|-4--4--4--4--4--4--4--4--5-----|


E|-------------------------------|-----------------------------------------------|
B|-------------------------------|-----------------------------------------------|
G|-------------------------------|-----------------------------------------------|
D|-------------------------------|-----------------------------------------------|
A|-------6--6-----6--6-----6--4--|-6--6-----6--6-----6--4--6---------------------|
E|-------4--4-----4--4-----4--2--|-4--4-----4--4-----4--2--4---4--4--4--4--4--4--|


E|-------------------------------|-------------------------------|-------------------------------|
B|-------------------------------|-------------------------------|-------------------------------|
G|-------------------------------|-------------------------------|-------------------------------|
D|-------------------------0-----|-------------------------------|-------------------------------|
A|-------------------------5-----|-------4--6--------------------|-------------------------3-----|
E|-4--4--4--4--4--4--4--4--7-----|-------2--4--4--4--4--4--4--4--|-4--4--4--4--4--4--4--4--5-----|


E|-----------------------------|-------------------------------|-------------------------------|
B|-----------------------------|-------------------------------|-------------------------------|
G|-----------------------------|-------------------------------|-------------------------------|
D|-----------------------------|-------------------------0-----|-------------------------------|
A|-------4---6-----------------|-------------------------5-----|-------4--6--------------------|
E|-------2---4--4--4--4--4--4--|-4--4--4--4--4--4--4--4--7-----|-------2--4--4--4--4--4--4--4--|


E|-------------------------------|-------------------------------|-------------------------------------------------|
B|-------------------------------|-------------------------------|-------------------------------------------------|
G|-------------------------2-----|-------------------------------|-------------------------------------------------|
D|-------------------------0-----|-------------------------------|-------------------------------------------------|
A|-------------------------0-----|-------6--6-----6--6-----6--4--|-6--6-----6--6-----6--4--6--6-----6--6-----6--4--|
E|-4--4--4--4--4--4--4--4--1-----|-------4--4-----4--4-----4--2--|-4--4-----4--4-----4--2--4--4-----4--4-----4--2--|


E|-------------------------------------------------|-------------------------------------------------|
B|-------------------------------------------------|-------------------------------------------------|
G|-------------------------------------------------|-------------------------------------------------|
D|-------------------------------------------------|-------------------------------------------------|
A|-6--6-----6--6-----6--4--6--6-----6--6-----6--4--|-6--6-----6--6-----6--4--6--6-----6--6-----6--4--|
E|-4--4-----4--4-----4--2--4--4-----4--4-----4--2--|-4--4-----4--4-----4--2--4--4-----4--4-----4--2--|


E|-------------------------------------------------|-------------------------------------------------|
B|-------------------------------------------------|-------------------------------------------------|
G|-------------------------------------------------|-------------------------------------------------|
D|-------------------------------------------------|-------------------------------------------------|
A|-6--6-----6--6-----6--4--6--6-----6--6-----6--4--|-6--6-----6--6-----6--4--6--6-----6--6-----6--4--|
E|-4--4-----4--4-----4--2--4--4-----4--4-----4--2--|-4--4-----4--4-----4--2--4--4-----4--4-----4--2--|


E|-------------------------------------------------|-------------------------------------------------|
B|-------------------------------------------------|-------------------------------------------------|
G|-------------------------------------------------|-------------------------------------------------|
D|-------------------------------------------------|-------------------------------------------------|
A|-6--6-----6--6-----6--4--6--6-----6--6-----6--4--|-6--6-----6--6-----6--4--6--6-----6--6-----6--4--|
E|-4--4-----4--4-----4--2--4--4-----4--4-----4--2--|-4--4-----4--4-----4--2--4--4-----4--4-----4--2--|


E|-------------------------------------------------|--------------------|
B|-------------------------------------------------|--------------------|
G|-------------------------------------------------|--------------------|
D|-------------------------------------------------|--------------------|
A|-6--6-----6--6-----6--4--6--6-----6--6-----6--4--|-6------------------|
E|-4--4-----4--4-----4--2--4--4-----4--4-----4--2--|-4------------------|





Track 2: Lead Guitar

E|--------|--------|--------|--------|--------|--------|--------|--------|--------|
B|--------|--------|--------|--------|--------|--------|--------|--------|--------|
G|--------|--------|--------|--------|--------|--------|--------|--------|--------|
D|--------|--------|--------|--------|--------|--------|--------|--------|--------|
A|--------|--------|--------|--------|--------|--------|--------|--------|--------|
E|--------|--------|--------|--------|--------|--------|--------|--------|--------|


E|--------|--------|--------|--------|--------|--------|--------|--------|--------|
B|--------|--------|--------|--------|--------|--------|--------|--------|--------|
G|--------|--------|--------|--------|--------|--------|--------|--------|--------|
D|--------|--------|--------|--------|--------|--------|--------|--------|--------|
A|--------|--------|--------|--------|--------|--------|--------|--------|--------|
E|--------|--------|--------|--------|--------|--------|--------|--------|--------|


E|--------|--------|--------|--------|--------|--------|--------|--------|--------|
B|--------|--------|--------|--------|--------|--------|--------|--------|--------|
G|--------|--------|--------|--------|--------|--------|--------|--------|--------|
D|--------|--------|--------|--------|--------|--------|--------|--------|--------|
A|--------|--------|--------|--------|--------|--------|--------|--------|--------|
E|--------|--------|--------|--------|--------|--------|--------|--------|--------|


E|--------|--------|--------|--------|--------|--------|--------|--------|--------|
B|--------|--------|--------|--------|--------|--------|--------|--------|--------|
G|--------|--------|--------|--------|--------|--------|--------|--------|--------|
D|--------|--------|--------|--------|--------|--------|--------|--------|--------|
A|--------|--------|--------|--------|--------|--------|--------|--------|--------|
E|--------|--------|--------|--------|--------|--------|--------|--------|--------|


E|--------|--------|--------|--------|--------|--------|--------|--------|--------|
B|--------|--------|--------|--------|--------|--------|--------|--------|--------|
G|--------|--------|--------|--------|--------|--------|--------|--------|--------|
D|--------|--------|--------|--------|--------|--------|--------|--------|--------|
A|--------|--------|--------|--------|--------|--------|--------|--------|--------|
E|--------|--------|--------|--------|--------|--------|--------|--------|--------|


E|--------|--------|--------|--------|--------|--------|--------|--------|--------|
B|--------|--------|--------|--------|--------|--------|--------|--------|--------|
G|--------|--------|--------|--------|--------|--------|--------|--------|--------|
D|--------|--------|--------|--------|--------|--------|--------|--------|--------|
A|--------|--------|--------|--------|--------|--------|--------|--------|--------|
E|--------|--------|--------|--------|--------|--------|--------|--------|--------|


E|--------|--------|--------|--------|--------|--------|--------|--------|--------|
B|--------|--------|--------|--------|--------|--------|--------|--------|--------|
G|--------|--------|--------|--------|--------|--------|--------|--------|--------|
D|--------|--------|--------|--------|--------|--------|--------|--------|--------|
A|--------|--------|--------|--------|--------|--------|--------|--------|--------|
E|--------|--------|--------|--------|--------|--------|--------|--------|--------|


E|--------|--------|--------|--------|--------|--------|--------|--------|--------|
B|--------|--------|--------|--------|--------|--------|--------|--------|--------|
G|--------|--------|--------|--------|--------|--------|--------|--------|--------|
D|--------|--------|--------|--------|--------|--------|--------|--------|--------|
A|--------|--------|--------|--------|--------|--------|--------|--------|--------|
E|--------|--------|--------|--------|--------|--------|--------|--------|--------|


E|-----------------------------|-----------------------------------|----------------7--7--7--7--7--7--7--7--7--|
B|-----------------------------|-----------------------------------|----------------------------------4--4-----|
G|--------------------------13-|-13---13---------1316-16---16---16-|-16-13---13-13--4--4--4--4--4--4--4--4--4--|
D|--------------------13-------|------------9--14------------------|-------------------------------------------|
A|-------9--11-11--11----11----|-----------------------------------|-------------------------------------------|
E|-----------------------------|-----------------------------------|-------------------------------------------|


E|-7--7--7--9--------16-19-19---19-19-19---|-19----21--21-21-21--21--|-21-21---21--21-21-21--21--21-21--21-|
B|----------------17-----------------------|-------------------------|-----------------------21--21-21--21-|
G|-4--4--4--6------------------------------|-------------------------|-------------------------------------|
D|-----------------------------------------|-------------------------|-------------------------------------|
A|-----------------------------------------|-------------------------|-------------------------------------|
E|-----------------------------------------|-------------------------|-------------------------------------|


E|-21----2121------------------------------------|-------------------------------------------16--------------16----|
B|-21----2121------------------------------------|-----------------------------------16191619--1916--16191619--1916|
G|-----------------------------------------------|-----------------------------151618--------------18--------------|
D|-----------------------------------------------|-------------16----1618--1618------------------------------------|
A|---------------------------14--------------16--|-161819161819--1819----19----------------------------------------|
E|-----------1214141416131416--14161819161819--19|-----------------------------------------------------------------|


E|-----------16----19---1916----------------|-------------|--------|--------|--------|
B|---16191619--1916---------19--19--19--19--|-------------|--------|--------|--------|
G|-18---------------------------------------|-------------|--------|--------|--------|
D|------------------------------------------|-------------|--------|--------|--------|
A|------------------------------------------|-------------|--------|--------|--------|
E|------------------------------------------|-------------|--------|--------|--------|


E|--------|--------|--------|--------|--------|--------|--------|--------|--------|
B|--------|--------|--------|--------|--------|--------|--------|--------|--------|
G|--------|--------|--------|--------|--------|--------|--------|--------|--------|
D|--------|--------|--------|--------|--------|--------|--------|--------|--------|
A|--------|--------|--------|--------|--------|--------|--------|--------|--------|
E|--------|--------|--------|--------|--------|--------|--------|--------|--------|


E|--------|--------|--------|--------|--------|--------|--------|--------|--------|
B|--------|--------|--------|--------|--------|--------|--------|--------|--------|
G|--------|--------|--------|--------|--------|--------|--------|--------|--------|
D|--------|--------|--------|--------|--------|--------|--------|--------|--------|
A|--------|--------|--------|--------|--------|--------|--------|--------|--------|
E|--------|--------|--------|--------|--------|--------|--------|--------|--------|


E|--------|--------|--------|--------|--------|--------|--------|--------|--------|
B|--------|--------|--------|--------|--------|--------|--------|--------|--------|
G|--------|--------|--------|--------|--------|--------|--------|--------|--------|
D|--------|--------|--------|--------|--------|--------|--------|--------|--------|
A|--------|--------|--------|--------|--------|--------|--------|--------|--------|
E|--------|--------|--------|--------|--------|--------|--------|--------|--------|


E|--------|--------|--------|--------|--------|
B|--------|--------|--------|--------|--------|
G|--------|--------|--------|--------|--------|
D|--------|--------|--------|--------|--------|
A|--------|--------|--------|--------|--------|
E|--------|--------|--------|--------|--------|





Track 3: Distortion (R)

E|--------|--------|--------|--------|--------|--------|--------|--------|--------|
B|--------|--------|--------|--------|--------|--------|--------|--------|--------|
G|--------|--------|--------|--------|--------|--------|--------|--------|--------|
D|--------|--------|--------|--------|--------|--------|--------|--------|--------|
A|--------|--------|--------|--------|--------|--------|--------|--------|--------|
E|--------|--------|--------|--------|--------|--------|--------|--------|--------|


E|--------|--------|--------|--------|--------|--------|--------|--------|--------|
B|--------|--------|--------|--------|--------|--------|--------|--------|--------|
G|--------|--------|--------|--------|--------|--------|--------|--------|--------|
D|--------|--------|--------|--------|--------|--------|--------|--------|--------|
A|--------|--------|--------|--------|--------|--------|--------|--------|--------|
E|--------|--------|--------|--------|--------|--------|--------|--------|--------|


E|--------|--------|--------|--------|--------|--------|--------|--------|--------|
B|--------|--------|--------|--------|--------|--------|--------|--------|--------|
G|--------|--------|--------|--------|--------|--------|--------|--------|--------|
D|--------|--------|--------|--------|--------|--------|--------|--------|--------|
A|--------|--------|--------|--------|--------|--------|--------|--------|--------|
E|--------|--------|--------|--------|--------|--------|--------|--------|--------|


E|--------|--------|--------|--------|--------|--------|--------|--------|--------|
B|--------|--------|--------|--------|--------|--------|--------|--------|--------|
G|--------|--------|--------|--------|--------|--------|--------|--------|--------|
D|--------|--------|--------|--------|--------|--------|--------|--------|--------|
A|--------|--------|--------|--------|--------|--------|--------|--------|--------|
E|--------|--------|--------|--------|--------|--------|--------|--------|--------|


E|--------|--------|--------|--------|--------|--------|--------|--------|--------|
B|--------|--------|--------|--------|--------|--------|--------|--------|--------|
G|--------|--------|--------|--------|--------|--------|--------|--------|--------|
D|--------|--------|--------|--------|--------|--------|--------|--------|--------|
A|--------|--------|--------|--------|--------|--------|--------|--------|--------|
E|--------|--------|--------|--------|--------|--------|--------|--------|--------|


E|--------|--------|--------|--------|--------|--------|--------|--------|--------|
B|--------|--------|--------|--------|--------|--------|--------|--------|--------|
G|--------|--------|--------|--------|--------|--------|--------|--------|--------|
D|--------|--------|--------|--------|--------|--------|--------|--------|--------|
A|--------|--------|--------|--------|--------|--------|--------|--------|--------|
E|--------|--------|--------|--------|--------|--------|--------|--------|--------|


E|--------|--------|--------|--------|--------|--------|--------|--------|--------|
B|--------|--------|--------|--------|--------|--------|--------|--------|--------|
G|--------|--------|--------|--------|--------|--------|--------|--------|--------|
D|--------|--------|--------|--------|--------|--------|--------|--------|--------|
A|--------|--------|--------|--------|--------|--------|--------|--------|--------|
E|--------|--------|--------|--------|--------|--------|--------|--------|--------|


E|--------|--------|--------|--------|--------|--------|--------|--------|--------|
B|--------|--------|--------|--------|--------|--------|--------|--------|--------|
G|--------|--------|--------|--------|--------|--------|--------|--------|--------|
D|--------|--------|--------|--------|--------|--------|--------|--------|--------|
A|--------|--------|--------|--------|--------|--------|--------|--------|--------|
E|--------|--------|--------|--------|--------|--------|--------|--------|--------|


E|--------|--------|--------|--------|--------|--------|--------|------------------------|
B|--------|--------|--------|--------|--------|--------|--------|------------------------|
G|--------|--------|--------|--------|--------|--------|--------|---------------------2--|
D|--------|--------|--------|--------|--------|--------|--------|-------2----2--------0--|
A|--------|--------|--------|--------|--------|--------|--------|-------2----2-----------|
E|--------|--------|--------|--------|--------|--------|--------|-------0----0--0--0-----|


E|-------------|--------|--------|--------|--------|--------|--------|--------|--------|
B|-------------|--------|--------|--------|--------|--------|--------|--------|--------|
G|-2-----------|--------|--------|--------|--------|--------|--------|--------|--------|
D|-0-----------|--------|--------|--------|--------|--------|--------|--------|--------|
A|-------------|--------|--------|--------|--------|--------|--------|--------|--------|
E|-------------|--------|--------|--------|--------|--------|--------|--------|--------|


E|--------|--------|--------|--------|--------|--------|--------|--------|--------|
B|--------|--------|--------|--------|--------|--------|--------|--------|--------|
G|--------|--------|--------|--------|--------|--------|--------|--------|--------|
D|--------|--------|--------|--------|--------|--------|--------|--------|--------|
A|--------|--------|--------|--------|--------|--------|--------|--------|--------|
E|--------|--------|--------|--------|--------|--------|--------|--------|--------|


E|--------|--------|--------|--------|--------|--------|--------|--------|--------|
B|--------|--------|--------|--------|--------|--------|--------|--------|--------|
G|--------|--------|--------|--------|--------|--------|--------|--------|--------|
D|--------|--------|--------|--------|--------|--------|--------|--------|--------|
A|--------|--------|--------|--------|--------|--------|--------|--------|--------|
E|--------|--------|--------|--------|--------|--------|--------|--------|--------|


E|--------|--------|--------|--------|--------|--------|--------|--------|--------|
B|--------|--------|--------|--------|--------|--------|--------|--------|--------|
G|--------|--------|--------|--------|--------|--------|--------|--------|--------|
D|--------|--------|--------|--------|--------|--------|--------|--------|--------|
A|--------|--------|--------|--------|--------|--------|--------|--------|--------|
E|--------|--------|--------|--------|--------|--------|--------|--------|--------|


E|--------|
B|--------|
G|--------|
D|--------|
A|--------|
E|--------|





Track 4: Distortion (L)

E|--------|--------|--------|--------|--------|--------|--------|--------|--------|
B|--------|--------|--------|--------|--------|--------|--------|--------|--------|
G|--------|--------|--------|--------|--------|--------|--------|--------|--------|
D|--------|--------|--------|--------|--------|--------|--------|--------|--------|
A|--------|--------|--------|--------|--------|--------|--------|--------|--------|
E|--------|--------|--------|--------|--------|--------|--------|--------|--------|


E|--------|--------|--------|--------|--------|--------|--------|--------|--------|
B|--------|--------|--------|--------|--------|--------|--------|--------|--------|
G|--------|--------|--------|--------|--------|--------|--------|--------|--------|
D|--------|--------|--------|--------|--------|--------|--------|--------|--------|
A|--------|--------|--------|--------|--------|--------|--------|--------|--------|
E|--------|--------|--------|--------|--------|--------|--------|--------|--------|


E|--------|--------|--------|--------|--------|--------|--------|--------|--------|
B|--------|--------|--------|--------|--------|--------|--------|--------|--------|
G|--------|--------|--------|--------|--------|--------|--------|--------|--------|
D|--------|--------|--------|--------|--------|--------|--------|--------|--------|
A|--------|--------|--------|--------|--------|--------|--------|--------|--------|
E|--------|--------|--------|--------|--------|--------|--------|--------|--------|


E|--------|--------|--------|--------|--------|--------|--------|--------|--------|
B|--------|--------|--------|--------|--------|--------|--------|--------|--------|
G|--------|--------|--------|--------|--------|--------|--------|--------|--------|
D|--------|--------|--------|--------|--------|--------|--------|--------|--------|
A|--------|--------|--------|--------|--------|--------|--------|--------|--------|
E|--------|--------|--------|--------|--------|--------|--------|--------|--------|


E|--------|--------|--------|--------|--------|--------|--------|--------|--------|
B|--------|--------|--------|--------|--------|--------|--------|--------|--------|
G|--------|--------|--------|--------|--------|--------|--------|--------|--------|
D|--------|--------|--------|--------|--------|--------|--------|--------|--------|
A|--------|--------|--------|--------|--------|--------|--------|--------|--------|
E|--------|--------|--------|--------|--------|--------|--------|--------|--------|


E|--------|--------|--------|--------|--------|--------|--------|--------|--------|
B|--------|--------|--------|--------|--------|--------|--------|--------|--------|
G|--------|--------|--------|--------|--------|--------|--------|--------|--------|
D|--------|--------|--------|--------|--------|--------|--------|--------|--------|
A|--------|--------|--------|--------|--------|--------|--------|--------|--------|
E|--------|--------|--------|--------|--------|--------|--------|--------|--------|


E|--------|--------|--------|--------|--------|--------|--------|--------|--------|
B|--------|--------|--------|--------|--------|--------|--------|--------|--------|
G|--------|--------|--------|--------|--------|--------|--------|--------|--------|
D|--------|--------|--------|--------|--------|--------|--------|--------|--------|
A|--------|--------|--------|--------|--------|--------|--------|--------|--------|
E|--------|--------|--------|--------|--------|--------|--------|--------|--------|


E|--------|--------|--------|--------|--------|--------|--------|--------|--------|
B|--------|--------|--------|--------|--------|--------|--------|--------|--------|
G|--------|--------|--------|--------|--------|--------|--------|--------|--------|
D|--------|--------|--------|--------|--------|--------|--------|--------|--------|
A|--------|--------|--------|--------|--------|--------|--------|--------|--------|
E|--------|--------|--------|--------|--------|--------|--------|--------|--------|


E|--------|--------|--------|--------|--------|--------|--------|--------|-----------------------------|
B|--------|--------|--------|--------|--------|--------|--------|--------|-----------------------------|
G|--------|--------|--------|--------|--------|--------|--------|--------|-----------------------------|
D|--------|--------|--------|--------|--------|--------|--------|--------|-----------------------------|
A|--------|--------|--------|--------|--------|--------|--------|--------|-------4--6--6--6--9--6---6--|
E|--------|--------|--------|--------|--------|--------|--------|--------|-------2--4--4--4--7--4---4--|


E|--------|--------|--------|--------|--------|--------|--------|--------|--------|
B|--------|--------|--------|--------|--------|--------|--------|--------|--------|
G|--------|--------|--------|--------|--------|--------|--------|--------|--------|
D|--------|--------|--------|--------|--------|--------|--------|--------|--------|
A|--------|--------|--------|--------|--------|--------|--------|--------|--------|
E|--------|--------|--------|--------|--------|--------|--------|--------|--------|


E|--------|--------|--------|--------|--------|--------|--------|--------|--------|
B|--------|--------|--------|--------|--------|--------|--------|--------|--------|
G|--------|--------|--------|--------|--------|--------|--------|--------|--------|
D|--------|--------|--------|--------|--------|--------|--------|--------|--------|
A|--------|--------|--------|--------|--------|--------|--------|--------|--------|
E|--------|--------|--------|--------|--------|--------|--------|--------|--------|


E|--------|--------|--------|--------|--------|--------|--------|--------|--------|
B|--------|--------|--------|--------|--------|--------|--------|--------|--------|
G|--------|--------|--------|--------|--------|--------|--------|--------|--------|
D|--------|--------|--------|--------|--------|--------|--------|--------|--------|
A|--------|--------|--------|--------|--------|--------|--------|--------|--------|
E|--------|--------|--------|--------|--------|--------|--------|--------|--------|


E|--------|--------|--------|--------|--------|--------|--------|--------|--------|
B|--------|--------|--------|--------|--------|--------|--------|--------|--------|
G|--------|--------|--------|--------|--------|--------|--------|--------|--------|
D|--------|--------|--------|--------|--------|--------|--------|--------|--------|
A|--------|--------|--------|--------|--------|--------|--------|--------|--------|
E|--------|--------|--------|--------|--------|--------|--------|--------|--------|





Track 5: Untitled

G|-----------------------------------|-----------------------------------|-----------------------------------|
D|-----------------------------------|-----------------------------------|-----------------------------------|
A|-0--1--2---2---2---2---2---2---2---|-0--1--2---2---2---2---2---2---2---|-0--1--2---2---2---2---2---2---2---|
E|-----------------------------------|-----------------------------------|-----------------------------------|


G|-----------------------------------|-----------------------------------|-----------------------------------|
D|-----------------------------------|-----------------------------------|-----------------------------------|
A|-0--1--2---2---2---2---2---2---2---|-0--1--2---2---2---2---2---2---2---|-0--1--2---2---2---2---2---2---2---|
E|-----------------------------------|-----------------------------------|-----------------------------------|


G|-----------------------------------|-----------------------------------|------------------------------|
D|-----------------------------------|-----------------------------------|------------------------------|
A|-0--1--2---2---2---2---2---2---2---|-0--1--2---2---2---2---2---2---2---|------------------------------|
E|-----------------------------------|-----------------------------------|-0---0---3---7---0---3----0---|


G|------------------------------|------------------------------|------------------------------|
D|------------------------------|------------------------------|------------------------------|
A|------------------------------|------------------------------|------------------------------|
E|-3---7---0---3---7---0---3----|-0---0---3---7---0---3----0---|-3---7---0---3---7---0---3----|


G|------------------------------|------------------------------|------------------------------|
D|------------------------------|------------------------------|------------------------------|
A|------------------------------|------------------------------|------------------------------|
E|-0---0---3---7---0---3----0---|-3---7---0---3---7---0---3----|-0---0---3---7---0---3----0---|


G|--------------------|-------------------------------------------------|-----------------------------------------------|
D|--------------------|-------------------------------------------------|-----------------------------------------------|
A|--------------------|-------------------------------------------------|-----------------------------------------------|
E|-7--------------0---|-0--0--6--0--7--8--0--5--6--0--3--0--3--5--0--2--|-4--0--6--0--7--8--0--5--6--0--3--0---------0--|


G|-------------------------------------------------|------------------------------------------|
D|-------------------------------------------------|------------------------------------------|
A|-------------------------------------------------|------------------------------------------|
E|-0--0--6--0--7--8--0--5--6--0--3--0--3--5--0--2--|-4--0--6--0--7--8--0--5--6--0--3--0-------|


G|-------------------------------------------------|-------------------------------------------------|
D|-------------------------------------------------|-------------------------------------------------|
A|-------------------------------------------------|-------------------------------------------------|
E|----0--0--0--0--0--6--0--7--8--0--5--6--0--3--0--|-3--5--0--2--4--0--6--0--7--8--0--5--6--0--3--0--|


G|-----------------------------------------------|-------------------------------------------------|
D|-----------------------------------------------|-------------------------------------------------|
A|-----------------------------------------------|-------------------------------------------------|
E|--------0--0--0--6--0--7--8--0--5--6--0--3--0--|-3--5--0--2--4--0--6--0--7--8--0--5--6--0--3--0--|


G|-----------------------------------------------|-------------------------------------------------|
D|-----------------------------------------------|-------------------------------------------------|
A|-----------------------------------------------|-------------------------------------------------|
E|--------0--0--0--6--0--7--8--0--5--6--0--3--0--|-3--5--0--2--4--0--6--0--7--8--0--5--6--0--3--0--|


G|-----------------------------------------------|-------------------------------------------------|
D|-----------------------------------------------|-------------------------------------------------|
A|-----------------------------------------------|-------------------------------------------------|
E|--------0--0--0--6--0--7--8--0--5--6--0--3--0--|-3--5--0--2--4--0--6--0--7--8--0--5--6--0--3--0--|


G|--------------------------------|-----------------------------------|-----------------------------------|
D|--------------------------------|-----------------------------------|-----------------------------------|
A|------0--1--2---2---2---2---2---|-2---2---0--1--2---2---2---2---2---|-2---2---0--1--2---2---2---2---2---|
E|--------------------------------|-----------------------------------|-----------------------------------|


G|-----------------------------------|-----------------------------------|-----------------------------------|
D|-----------------------------------|-----------------------------------|-----------------------------------|
A|-2---2---0--1--2---2---2---2---2---|-2---2---0--1--2---2---2---2---2---|-2---2---0--1--2---2---2---2---2---|
E|-----------------------------------|-----------------------------------|-----------------------------------|


G|-----------------------------------|-----------------------------------|---------------------------------|
D|-----------------------------------|-----------------------------------|---------------------------------|
A|-2---2---0--1--2---2---2---2---2---|-2---2---0--1--2---2---2---2---2---|-2---2---------------------------|
E|-----------------------------------|-----------------------------------|---------0---0---3---7---0---3---|


G|---------------------------------|------------------------------|---------------------------------|
D|---------------------------------|------------------------------|---------------------------------|
A|---------------------------------|------------------------------|---------------------------------|
E|-----0---3---7---0---3---7---0---|-3----0---0---3---7---0---3---|-----0---3---7---0---3---7---0---|


G|------------------------------|---------------------------------|------------------------------|
D|------------------------------|---------------------------------|------------------------------|
A|------------------------------|---------------------------------|------------------------------|
E|-3----0---0---3---7---0---3---|-----0---3---7---0---3---7---0---|-3----0---0---3---7---0---3---|


G|--------------------|---------------------------------------------|-------------------------------------------------|
D|--------------------|---------------------------------------------|-------------------------------------------------|
A|--------------------|---------------------------------------------|-------------------------------------------------|
E|-----0---7----------|-----0---0--0--6--0--7--8--0--5--6--0--3--0--|-3--5--0--2--4--0--6--0--7--8--0--5--6--0--3--0--|


G|-----------------------------------------------|-------------------------------------------------|
D|-----------------------------------------------|-------------------------------------------------|
A|-----------------------------------------------|-------------------------------------------------|
E|--------0--0--0--6--0--7--8--0--5--6--0--3--0--|-3--5--0--2--4--0--6--0--7--8--0--5--6--0--3--0--|


G|------------------------------------------|-------------------------------------------------|
D|------------------------------------------|-------------------------------------------------|
A|------------------------------------------|-------------------------------------------------|
E|---------0--0--0--0--0--6--0--7--8--0--5--|-6--0--3--0--3--5--0--2--4--0--6--0--7--8--0--5--|


G|-----------------------------------------------|-------------------------------------------------|
D|-----------------------------------------------|-------------------------------------------------|
A|-----------------------------------------------|-------------------------------------------------|
E|-6--0--3--0---------0--0--0--6--0--7--8--0--5--|-6--0--3--0--3--5--0--2--4--0--6--0--7--8--0--5--|


G|-----------------------------------------------|-------------------------------------------------|
D|-----------------------------------------------|-------------------------------------------------|
A|-----------------------------------------------|-------------------------------------------------|
E|-6--0--3--0---------0--0--0--6--0--7--8--0--5--|-6--0--3--0--3--5--0--2--4--0--6--0--7--8--0--5--|


G|-----------------------------------------------|-------------------------------------------------|
D|-----------------------------------------------|-------------------------------------------------|
A|-----------------------------------------------|-------------------------------------------------|
E|-6--0--3--0---------0--0--0--6--0--7--8--0--5--|-6--0--3--0--3--5--0--2--4--0--6--0--7--8--0--5--|


G|------------------------------------|-----------------------------------|-----------------------------------|
D|------------------------------------|-----------------------------------|-----------------------------------|
A|------------------0--1--2---2---2---|-2---2---2---2---0--1--2---2---2---|-2---2---2---2---0--1--2---2---2---|
E|-6--0--3--0-------------------------|-----------------------------------|-----------------------------------|


G|-----------------------------------|-----------------------------------|-----------------------------------|
D|-----------------------------------|-----------------------------------|-----------------------------------|
A|-2---2---2---2---0--1--2---2---2---|-2---2---2---2---0--1--2---2---2---|-2---2---2---2---0--1--2---2---2---|
E|-----------------------------------|-----------------------------------|-----------------------------------|


G|-----------------------------------|-----------------------------------|---------------------------------|
D|-----------------------------------|-----------------------------------|---------------------------------|
A|-2---2---2---2---0--1--2---2---2---|-2---2---2---2---0--1--2---2---2---|-2---2---2---2-------------------|
E|-----------------------------------|-----------------------------------|-----------------0---0---3---7---|


G|------------------------------|------------------------------|------------------------------|
D|------------------------------|------------------------------|------------------------------|
A|------------------------------|------------------------------|------------------------------|
E|-0---3----0---3---7---0---3---|-7---0---3----0---0---3---7---|-0---3----0---3---7---0---3---|


G|------------------------------|------------------------------|------------------------------|
D|------------------------------|------------------------------|------------------------------|
A|------------------------------|------------------------------|------------------------------|
E|-7---0---3----0---0---3---7---|-0---3----0---3---7---0---3---|-7---0---3----0---0---3---7---|


G|------------------------------|--------------------------------------|------------------------------------------|
D|------------------------------|--------------------------------------|-1--0----------------------------2--1--0--|
A|------------------------------|--------------------------2-----------|-------4--2-----2-------------------------|
E|-0---3----0---3---7---0---3---|-7---0---3----2--4--4--4-----4--4--4--|----------------------2--0----0-----------|


G|------2-------------------------------|------------------------------------------|
D|-0------------------------------------|-1--0----------------------------2--1--0--|
A|--------------------------2-----------|-------4--2-----2-------------------------|
E|-----------0--2--4--4--4-----4--4--4--|----------------------2--0----0-----------|


G|------2-------------------------------|------------------------------------------|
D|-0------------------------------------|-1--0----------------------------2--1--0--|
A|--------------------------2-----------|-------4--2-----2-------------------------|
E|-----------0--2--4--4--4-----4--4--4--|----------------------2--0----0-----------|


G|------2-------------------------------|------------------------------------------|
D|-0------------------------------------|-1--0----------------------------2--1--0--|
A|--------------------------2-----------|-------4--2-----2-------------------------|
E|-----------0--2--4--4--4-----4--4--4--|----------------------2--0----0-----------|


G|-----------------------------------|------------------------------------------|-------------2-----2-----------------------------|
D|-0---------------------------------|-1--0----------------------------2--1--0--|-0--0--0--0-----0-----0--------------------------|
A|-----------------------2-----------|-------4--2-----2-------------------------|-------------------------------------2-----------|
E|-----------2--4--4--4-----4--4--4--|----------------------2--0----0-----------|-------------------------2--4--4--4-----4--4--4--|


G|---------------------------------------2--|-2-----------|-------------|-------------------------|
D|-1--0----------------------------2--1--0--|-0-----------|-------------|-------------------------|
A|-------4--2-----2-------------------------|-------------|-------------|-------------------------|
E|----------------------2--0----0-----------|-------------|-------------|-------4----4--4---4--2--|


G|-------------------------------------|-------------------------------------|-------------------------------------|
D|-------------------------------------|-------------------------------------|-------------------------------------|
A|-------------------------------------|-------------------------------------|-------------------------------------|
E|-4----4--4---4--2--4----4--4---4--2--|-4----4--4---4--2--4----4--4---4--2--|-4----4--4---4--2--4----4--4---4--2--|


G|-------------------------------------------|-----------------------------------------|
D|-------------------------------------------|-----------------------------------------|
A|-------------------------------------------|-------------------------2----2--2---2---|
E|-4----4--4---4--2--2--4--4--4--4--4--4--4--|-4--4--4--4--4--4--4--4------------------|


G|-----------------------------------------|-----------------------------------------|
D|-----------------------------------------|-----------------------------------------|
A|-2----2--2---2---------------------------|-------------------------0----0--0---0---|
E|-----------------2--4--4--4--4--4--4--4--|-4--4--4--4--4--4--4--4------------------|


G|-----------------------------------------|-----------------------------------------|
D|-----------------------------------------|-----------------------------------------|
A|-0----0--0---0---------------------------|-------------------------2----2--2---2---|
E|-----------------2--4--4--4--4--4--4--4--|-4--4--4--4--4--4--4--4------------------|


G|-----------------------------------------|-----------------------------------------|
D|-----------------------------------------|-----------------------------------------|
A|-2----2--2---2---------------------------|-------------------------0----0--0---0---|
E|-----------------2--4--4--4--4--4--4--4--|-4--4--4--4--4--4--4--4------------------|


G|---------------------------|-----------------------------------|-----------------------------------------|
D|---------------------------|-----------------------------------|-----------------------------------------|
A|-0----0--0---0-------------|-----------------------------------|-------------------------2----2--2---2---|
E|-----------------4---------|-----------2--4--4--4--4--4--4--4--|-4--4--4--4--4--4--4--4------------------|


G|-----------------------------------------|-----------------------------------------|
D|-----------------------------------------|-----------------------------------------|
A|-2----2--2---2---------------------------|-------------------------0----0--0---0---|
E|-----------------2--4--4--4--4--4--4--4--|-4--4--4--4--4--4--4--4------------------|


G|-----------------------------------------|-----------------------------------------|
D|-----------------------------------------|-----------------------------------------|
A|-0----0--0---0---------------------------|-------------------------2----2--2---2---|
E|-----------------2--4--4--4--4--4--4--4--|-4--4--4--4--4--4--4--4------------------|


G|-----------------------------------------|-------------------------------|-----------------|
D|-----------------------------------------|-------------------------0-----|-----------------|
A|-2----2--2---2---------------------------|-------------------------------|-----------------|
E|-----------------2--4--4--4--4--4--4--4--|-4--4--4--4--4--4--4--4--------|-------4---------|


G|-------------------------|-------------------------------------|-------------------------------------|
D|-------------------------|-------------------------------------|-------------------------------------|
A|-------------------------|-------------------------------------|-------------------------------------|
E|-------4----4--4---4--2--|-4----4--4---4--2--4----4--4---4--2--|-4----4--4---4--2--4----4--4---4--2--|


G|-------------------------------------|-------------------------------------|-------------------------------------|
D|-------------------------------------|-------------------------------------|-------------------------------------|
A|-------------------------------------|-------------------------------------|-------------------------------------|
E|-4----4--4---4--2--4----4--4---4--2--|-4----4--4---4--2--4----4--4---4--2--|-4----4--4---4--2--4----4--4---4--2--|


G|-------------------------------------|--------------------|--------|
D|-------------------------------------|--------------------|--------|
A|-------------------------------------|--------------------|--------|
E|-4----4--4---4--2--4----4--4---4--2--|-4----4-------------|--------|