Menu:

 

Search:

 

pantera - mouth for war:

 



Title: Mouth For War
Artist: 
Album: Vulgar Display Of Power
Author: Vincent Paul Abbott and Darrell Lance Abbott and Philip Hansen Anselmo and Rex Robert Brown


Track 1: Guitar 1

E|---------------------------------------------------|---------------------------------------------------|
B|---------------------------------------------------|---------------------------------------------------|
G|--------------4---------------------4-----4-----4--|--------------4---------------------4-----4-----4--|
D|--------------4---------------------4-----4-----4--|--------------4---------------------4-----4-----4--|
A|-0-1-2--2--2--2--2--2--2--0-1-2--2--2--2--2--2--2--|-0-1-2--2--2--2--2--2--2--0-1-2--2--2--2--2--2--2--|
E|---------------------------------------------------|---------------------------------------------------|


E|---------------------------------------------------|-------------------------------------------------|
B|---------------------------------------------------|-------------------------------------------------|
G|--------------4---------------------4-----4-----4--|--------------4---------------------4-----4------|
D|--------------4---------------------4-----4-----4--|--------------4--4--4--4------------4--4--4------|
A|-0-1-2--2--2--2--2--2--2--0-1-2--2--2--2--2--2--2--|-0-1-2--2--2--2--2--2--2--0-1-2--2--2--2--2------|
E|---------------------------------------------------|---------------------------------------------12--|


E|---------------------------|------------------------------|---------------------------|
B|---------------------------|------------------------------|---------------------------|
G|---------------------------|------------------------------|---------------------------|
D|---------------------------|------------------------------|---------------------------|
A|-2----5---9-------5--------|-5---9-------5---9-------5----|-2----5---9-------5--------|
E|-0----3---7---0---3----0---|-3---7---0---3---7---0---3----|-0----3---7---0---3----0---|


E|------------------------------|---------------------------|------------------------------|
B|------------------------------|---------------------------|------------------------------|
G|------------------------------|---------------------------|------------------------------|
D|------------------------------|---------------------------|------------------------------|
A|-5---9-------5---9-------5----|-2----5---9-------5--------|-5---9-------5---9-------5----|
E|-3---7---0---3---7---0---3----|-0----3---7---0---3----0---|-3---7---0---3---7---0---3----|


E|---------------------------|-----------28--28--28------|-------------------------------------------------|
B|-----------------------7---|-----------27--27--27------|-------------------------------------------------|
G|-----------------------7---|---------------------------|-------------------------------------------------|
D|-----------------------7---|-9----9--------------------|-------------------------------------------------|
A|-2----5---9-------5--------|-9----9----------------2---|-2-----8-----9--10----7--8-----5-----5--7-----4--|
E|-0----3---7---0---3--------|-7----7----------------0---|-0--0--6--0--7--8--0--5--6--0--3--0--3--5--0--2--|


E|-------------------------------------28-28-28----|-------------------------------------------------|
B|-------------------------------------27-27-27----|-------------------------------------------------|
G|-------------------------------------------------|-------------------------------------------------|
D|-------------------------------------------------|-------------------------------------------------|
A|-5-----8-----9--10----7--8-----5--------------2--|-2-----8-----9--10----7--8-----5-----5--7-----4--|
E|-3--0--6--0--7--8--0--5--6--0--3--0-----------0--|-0--0--6--0--7--8--0--5--6--0--3--0--3--5--0--2--|


E|-------------------------------------28-28-----|-------------------------------------------------|
B|-------------------------------------27-27-----|-------------------------------------------------|
G|-----------------------------------------------|-------------------------------------------------|
D|-----------------------------------------------|-------------------------------------------------|
A|-5-----8-----9--10----7--8-----5---------------|-2-----2--2-----8-----9--10----7--8-----5-----5--|
E|-3--0--6--0--7--8--0--5--6--0--3--0------------|-0-----0--0--0--6--0--7--8--0--5--6--0--3--0--3--|


E|----------------------------------------------28-|-28-28-------------------------------------------|
B|----------------------------------------------27-|-27-27-------------------------------------------|
G|-------------------------------------------------|-------------------------------------------------|
D|-------------------------------------------------|-------------------------------------------------|
A|-7-----4--5-----8-----9--10----7--8-----5--------|-------2--2-----8-----9--10----7--8-----5-----5--|
E|-5--0--2--3--0--6--0--7--8--0--5--6--0--3--0-----|-------0--0--0--6--0--7--8--0--5--6--0--3--0--3--|


E|----------------------------------------------28-|-28-28-------------------------------------------|
B|----------------------------------------------27-|-27-27-------------------------------------------|
G|-------------------------------------------------|-------------------------------------------------|
D|-------------------------------------------------|-------------------------------------------------|
A|-7-----4--5-----8-----9--10----7--8-----5--------|-------2--2-----8-----9--10----7--8-----5-----5--|
E|-5--0--2--3--0--6--0--7--8--0--5--6--0--3--0-----|-------0--0--0--6--0--7--8--0--5--6--0--3--0--3--|


E|----------------------------------------------28-|-28-28-------------------------------------------|
B|----------------------------------------------27-|-27-27-------------------------------------------|
G|-------------------------------------------------|-------------------------------------------------|
D|-------------------------------------------------|-------------------------------------------------|
A|-7-----4--5-----8-----9--10----7--8-----5--------|-------2--2-----8-----9--10----7--8-----5-----5--|
E|-5--0--2--3--0--6--0--7--8--0--5--6--0--3--0-----|-------0--0--0--6--0--7--8--0--5--6--0--3--0--3--|


E|----------------------------------------------28-|-28-28-28------------------------------------------|
B|----------------------------------------------27-|-27-27-27------------------------------------------|
G|-------------------------------------------------|-----------------------4---------------------4-----|
D|-------------------------------------------------|-----------------------4---------------------4-----|
A|-7-----4--5-----8-----9--10----7--8-----5--------|----------0-1-2--2--2--2--2--2--2--0-1-2--2--2--2--|
E|-5--0--2--3--0--6--0--7--8--0--5--6--0--3--0-----|---------------------------------------------------|


E|---------------------------------------------------|---------------------------------------------------|
B|---------------------------------------------------|---------------------------------------------------|
G|-4-----4---------------4---------------------4-----|-4-----4---------------4---------------------4-----|
D|-4-----4---------------4---------------------4-----|-4-----4---------------4---------------------4-----|
A|-2--2--2--0-1-2--2--2--2--2--2--2--0-1-2--2--2--2--|-2--2--2--0-1-2--2--2--2--2--2--2--0-1-2--2--2--2--|
E|---------------------------------------------------|---------------------------------------------------|


E|---------------------------------------------------|------------------------------|
B|---------------------------------------------------|------------------------------|
G|-4-----4---------------4---------------------4-----|-4----------------------------|
D|-4-----4---------------4--4--4--4------------4--4--|-4----------------------------|
A|-2--2--2--0-1-2--2--2--2--2--2--2--0-1-2--2--2--2--|-2------2----5---9-------5----|
E|---------------------------------------------------|----12--0----3---7---0---3----|


E|-----------------------------------|----------------------------|-----------------------------------|
B|-----------------------------------|----------------------------|-----------------------------------|
G|-----------------------------------|----------------------------|-----------------------------------|
D|-----------------------------------|----------------------------|-----------------------------------|
A|--------5---9-------5---9-------5--|------2----5---9-------5----|--------5---9-------5---9-------5--|
E|----0---3---7---0---3---7---0---3--|------0----3---7---0---3----|----0---3---7---0---3---7---0---3--|


E|----------------------------|-----------------------------------|----------------------------|
B|----------------------------|-----------------------------------|----------------------------|
G|----------------------------|-----------------------------------|----------------------------|
D|----------------------------|-----------------------------------|----------------------------|
A|------2----5---9-------5----|--------5---9-------5---9-------5--|------2----5---9-------5----|
E|------0----3---7---0---3----|----0---3---7---0---3---7---0---3--|------0----3---7---0---3----|


E|------------------28--28--28-|-----------------------------------------------|----------------------------------------------28-|
B|----7-------------27--27--27-|-----------------------------------------------|----------------------------------------------27-|
G|----7------------------------|-----------------------------------------------|-------------------------------------------------|
D|----7---9----9---------------|-----------------------------------------------|-------------------------------------------------|
A|--------9----9---------------|----2---2-----8-----9--10----7--8-----5-----5--|-7-----4--5-----8-----9--10----7--8-----5--------|
E|--------7----7---------------|----0---0--0--6--0--7--8--0--5--6--0--3--0--3--|-5--0--2--3--0--6--0--7--8--0--5--6--0--3--0-----|


E|-28-28-------------------------------------------|----------------------------------------------28-|
B|-27-27-------------------------------------------|----------------------------------------------27-|
G|-------------------------------------------------|-------------------------------------------------|
D|-------------------------------------------------|-------------------------------------------------|
A|-------2--2-----8-----9--10----7--8-----5-----5--|-7-----4--5-----8-----9--10----7--8-----5--------|
E|-------0--0--0--6--0--7--8--0--5--6--0--3--0--3--|-5--0--2--3--0--6--0--7--8--0--5--6--0--3--0-----|


E|-28--------------------------------------------|-------------------------------------------------|
B|-27--------------------------------------------|-------------------------------------------------|
G|-----------------------------------------------|-------------------------------------------------|
D|-----------------------------------------------|-------------------------------------------------|
A|--------2-----2--2-----8-----9--10----7--8-----|-5-----5--7-----4--5-----8-----9--10----7--8-----|
E|--------0-----0--0--0--6--0--7--8--0--5--6--0--|-3--0--3--5--0--2--3--0--6--0--7--8--0--5--6--0--|


E|-------28-28-28----------------------------------|-------------------------------------------------|
B|-------27-27-27----------------------------------|-------------------------------------------------|
G|-------------------------------------------------|-------------------------------------------------|
D|-------------------------------------------------|-------------------------------------------------|
A|-5--------------2--2-----8-----9--10----7--8-----|-5-----5--7-----4--5-----8-----9--10----7--8-----|
E|-3--0-----------0--0--0--6--0--7--8--0--5--6--0--|-3--0--3--5--0--2--3--0--6--0--7--8--0--5--6--0--|


E|-------28-28-28----------------------------------|-------------------------------------------------|
B|-------27-27-27----------------------------------|-------------------------------------------------|
G|-------------------------------------------------|-------------------------------------------------|
D|-------------------------------------------------|-------------------------------------------------|
A|-5--------------2--2-----8-----9--10----7--8-----|-5-----5--7-----4--5-----8-----9--10----7--8-----|
E|-3--0-----------0--0--0--6--0--7--8--0--5--6--0--|-3--0--3--5--0--2--3--0--6--0--7--8--0--5--6--0--|


E|-------28-28-28----------------------------------|-------------------------------------------------|
B|-------27-27-27----------------------------------|-------------------------------------------------|
G|-------------------------------------------------|-------------------------------------------------|
D|-------------------------------------------------|-------------------------------------------------|
A|-5--------------2--2-----8-----9--10----7--8-----|-5-----5--7-----4--5-----8-----9--10----7--8-----|
E|-3--0-----------0--0--0--6--0--7--8--0--5--6--0--|-3--0--3--5--0--2--3--0--6--0--7--8--0--5--6--0--|


E|-------28-28-28-28---------------------------------|---------------------------------------------------|
B|-------27-27-27-27---------------------------------|---------------------------------------------------|
G|--------------------------------4------------------|----4-----4-----4---------------4------------------|
D|--------------------------------4------------------|----4-----4-----4---------------4------------------|
A|-5-----------------0-1-2--2--2--2--2--2--2--0-1-2--|-2--2--2--2--2--2--0-1-2--2--2--2--2--2--2--0-1-2--|
E|-3--0----------------------------------------------|---------------------------------------------------|


E|---------------------------------------------------|---------------------------------------------------|
B|---------------------------------------------------|---------------------------------------------------|
G|----4-----4-----4---------------4------------------|----4-----4-----4---------------4------------------|
D|----4-----4-----4---------------4------------------|----4-----4-----4---------------4--4--4--4---------|
A|-2--2--2--2--2--2--0-1-2--2--2--2--2--2--2--0-1-2--|-2--2--2--2--2--2--0-1-2--2--2--2--2--2--2--0-1-2--|
E|---------------------------------------------------|---------------------------------------------------|


E|----------------------------------|------------------------------|---------------------------|
B|----------------------------------|------------------------------|---------------------------|
G|----4-----4-----------------------|------------------------------|---------------------------|
D|----4--4--4-----------------------|------------------------------|---------------------------|
A|-2--2--2--2------2----5---9-------|-5--------5---9-------5---9---|-----5----2----5---9-------|
E|-------------12--0----3---7---0---|-3----0---3---7---0---3---7---|-0---3----0----3---7---0---|


E|------------------------------|---------------------------|------------------------------|
B|------------------------------|---------------------------|------------------------------|
G|------------------------------|---------------------------|------------------------------|
D|------------------------------|---------------------------|------------------------------|
A|-5--------5---9-------5---9---|-----5----2----5---9-------|-5--------5---9-------5---9---|
E|-3----0---3---7---0---3---7---|-0---3----0----3---7---0---|-3----0---3---7---0---3---7---|


E|---------------------------|------------------------------|--------------------------------------|
B|---------------------------|------------------------------|--------------------------------------|
G|---------------------------|------------------------------|--------------------------------------|
D|---------------------------|------------------------------|--------------------------------------|
A|-----5----2----5---9-------|-5--------5---9-------5---9---|-----5----------------2---------6--5--|
E|-0---3----0----3---7---0---|-3----0---3---7---0---3---7---|-0---3----2--4--4--4-----4---4--------|


E|----------------------------------------|-----------------------------------|----------------------------------------|
B|----------------------------------------|-----------------------------------|----------------------------------------|
G|----------------------------------------|-----------------------------------|----------------------------------------|
D|----4-----4--------2----2---------------|-----------------------------------|----4-----4--------2----2---------------|
A|-4--2-----2--------2----2--7--6--5--5---|-------------------2---------6--5--|-4--2-----2--------2----2--7--6--5--5---|
E|----------------2--0----0---------------|-------2--4--4--4-----4---4--------|----------------2--0----0---------------|


E|-----------------------------------|----------------------------------------|-----------------------------------|
B|-----------------------------------|----------------------------------------|-----------------------------------|
G|-----------------------------------|----------------------------------------|-----------------------------------|
D|-----------------------------------|----4-----4--------2----2---------------|-----------------------------------|
A|-------------------2---------6--5--|-4--2-----2--------2----2--7--6--5--5---|-------------------2---------6--5--|
E|-------2--4--4--4-----4---4--------|----------------2--0----0---------------|-------2--4--4--4-----4---4--------|


E|----------------------------------------|-----------------------------------|----------------------------------------|
B|----------------------------------------|-----------------------------------|----------------------------------------|
G|----------------------------------------|-----------------------------------|----------------------------------------|
D|----4-----4--------2----2---------------|-------------------4---------8--7--|-6--4-----4--------2----2--9--8--7--7---|
A|-4--2-----2--------2----2--7--6--5--5---|-------4--6--6--6--2--6---6--6--5--|-4--2-----2-----4--2----2--7--6--5--5---|
E|----------------2--0----0---------------|-------2--4--4--4-----4---4--------|----------------2--0----0---------------|


E|-------------------------------------------|----------------------------------------|
B|-3---3--3--3-------------------------------|----------------------------------------|
G|-3---3--3--3-------------------------------|----------------------------------------|
D|---------------------------4---------8--7--|-6--4-----4--------2----2--------7--7---|
A|---------------4--6--6--6--2--6---6--6--5--|-4--2-----2-----4--2----2--7--6--5--5---|
E|---------------2--4--4--4-----4---4--------|----------------2--0----0---------------|


E|------------------------|------------------------------|------------------------------|
B|------------------------|------------------------------|------------------------------|
G|------------------------|------------------------------|------------------------------|
D|------------------------|------------------------------|------------------------------|
A|-------6--------6-------|-----6---4---6--------6-------|-----6---4---6--------6-------|
E|-------4--------4-------|-----4---2---4--------4-------|-----4---2---4--------4-------|


E|------------------------------|------------------------------|------------------------------|
B|------------------------------|------------------------------|------------------------------|
G|------------------------------|------------------------------|------------------------------|
D|------------------------------|------------------------------|------------------------------|
A|-----6---4---6--------6-------|-----6---4---6--------6-------|-----6---4---6--------6-------|
E|-----4---2---4--------4-------|-----4---2---4--------4-------|-----4---2---4--------4-------|


E|------------------------------|------------------------------|------------------------------|
B|------------------------------|------------------------------|------------------------------|
G|------------------------------|------------------------------|------------------------------|
D|------------------------------|------------------------------|------------------------------|
A|-----6---4---6--------6-------|-----6---4---6--------6-------|-----6---4---6----------------|
E|-----4---2---4--------4-------|-----4---2---4--------4-------|-----4---2---4----4---4---4---|


E|---------------------------------|--------------------|--------------|---------------------------|
B|---------------------------------|--------------------|--------------|---------------------------|
G|---------------------------------|--------------------|--------------|---------------------------|
D|---------------------------------|-------------9------|-------9------|---------------------------|
A|---------------------------------|-------------9------|-------9------|---------------------------|
E|-4---4---4---4---4---4---4---4---|-4---4---4---10-----|-------10-----|-------2---4---4---4---4---|


E|---------------------------------|--------------------|--------------|---------------------------|
B|---------------------------------|--------------------|--------------|---------------------------|
G|---------------------------------|--------------------|--------------|---------------------------|
D|---------------------------------|-------------7------|-------7------|---------------------------|
A|---------------------------------|-------------7------|-------7------|---------------------------|
E|-4---4---4---4---4---4---4---4---|-4---4---4---8------|-------8------|-------2---4---4---4---4---|


E|---------------------------------|--------------------|--------------|---------------------------|
B|---------------------------------|--------------------|--------------|---------------------------|
G|---------------------------------|--------------------|--------------|---------------------------|
D|---------------------------------|-------------9------|-------9------|---------------------------|
A|---------------------------------|-------------9------|-------9------|---------------------------|
E|-4---4---4---4---4---4---4---4---|-4---4---4---10-----|-------10-----|-------2---4---4---4---4---|


E|---------------------------------|--------------------|--------------|------------------------|
B|---------------------------------|--------------------|--------------|------------------------|
G|---------------------------------|--------------------|--------------|------------------------|
D|---------------------------------|-------------7------|-------7------|------------------------|
A|---------------------------------|-------------7------|-------7------|-------6--------6-------|
E|-4---4---4---4---4---4---4---4---|-4---4---4---8------|-------8------|-------4--------4-------|


E|------------------------------|------------------------------|---------------------------------|
B|------------------------------|------------------------------|---------------------------------|
G|------------------------------|------------------------------|---------------------------------|
D|------------------------------|------------------------------|---------------------------------|
A|-----6---4---6--------6-------|-----6---4---6----------------|---------------------------------|
E|-----4---2---4--------4-------|-----4---2---4----4---4---4---|-4---4---4---4---4---4---4---4---|


E|--------------------|--------------|---------------------------|---------------------------------|
B|--------------------|--------------|---------------------------|---------------------------------|
G|--------------------|--------------|---------------------------|---------------------------------|
D|-------------9------|-------9------|---------------------------|---------------------------------|
A|-------------9------|-------9------|---------------------------|---------------------------------|
E|-4---4---4---10-----|-------10-----|-------2---4---4---4---4---|-4---4---4---4---4---4---4---4---|


E|--------------------|--------------|---------------------------|---------------------------------|
B|--------------------|--------------|---------------------------|---------------------------------|
G|--------------------|--------------|---------------------------|---------------------------------|
D|-------------7------|-------7------|---------------------------|---------------------------------|
A|-------------7------|-------7------|---------------------------|---------------------------------|
E|-4---4---4---8------|-------8------|-------2---4---4---4---4---|-4---4---4---4---4---4---4---4---|


E|--------------------|--------------|---------------------------|---------------------------------|
B|--------------------|--------------|---------------------------|---------------------------------|
G|--------------------|--------------|---------------------------|---------------------------------|
D|-------------9------|-------9------|---------------------------|---------------------------------|
A|-------------9------|-------9------|---------------------------|---------------------------------|
E|-4---4---4---10-----|-------10-----|-------2---4---4---4---4---|-4---4---4---4---4---4---4---4---|


E|--------------------|--------------|------------------------|------------------------------|
B|--------------------|--------------|------------------------|------------------------------|
G|-------------7------|-------7------|------------------------|------------------------------|
D|-------------7------|-------7------|------------------------|------------------------------|
A|-------------8------|-------8------|-------6--------6-------|-----6---4---6--------6-------|
E|-4---4---4----------|--------------|-------4--------4-------|-----4---2---4--------4-------|


E|------------------------------|------------------------------|------------------------------|
B|------------------------------|------------------------------|------------------------------|
G|------------------------------|------------------------------|------------------------------|
D|------------------------------|------------------------------|------------------------------|
A|-----6---4---6--------6-------|-----6---4---6--------6-------|-----6---4---6--------6-------|
E|-----4---2---4--------4-------|-----4---2---4--------4-------|-----4---2---4--------4-------|


E|------------------------------|------------------------------|------------------------------|
B|------------------------------|------------------------------|------------------------------|
G|------------------------------|------------------------------|------------------------------|
D|------------------------------|------------------------------|------------------------------|
A|-----6---4---6--------6-------|-----6---4---6--------6-------|-----6---4---6--------6-------|
E|-----4---2---4--------4-------|-----4---2---4--------4-------|-----4---2---4--------4-------|


E|------------------------------|------------------------------|------------------------------|
B|------------------------------|------------------------------|------------------------------|
G|------------------------------|------------------------------|------------------------------|
D|------------------------------|------------------------------|------------------------------|
A|-----6---4---6--------6-------|-----6---4---6--------6-------|-----6---4---6--------6-------|
E|-----4---2---4--------4-------|-----4---2---4--------4-------|-----4---2---4--------4-------|


E|------------------------------|------------------------------|------------------------------|
B|------------------------------|------------------------------|------------------------------|
G|------------------------------|------------------------------|------------------------------|
D|------------------------------|------------------------------|------------------------------|
A|-----6---4---6--------6-------|-----6---4---6--------6-------|-----6---4---6--------6-------|
E|-----4---2---4--------4-------|-----4---2---4--------4-------|-----4---2---4--------4-------|


E|------------------------------|------------------------------|---------------------------|
B|------------------------------|------------------------------|---------------------------|
G|------------------------------|------------------------------|---------------------------|
D|------------------------------|------------------------------|---------------------------|
A|-----6---4---6--------6-------|-----6---4---6--------6-------|-----6---4---6-------------|
E|-----4---2---4--------4-------|-----4---2---4--------4-------|-----4---2---4-------------|





Track 2: Guitar 3

E|--------|--------|--------|--------|--------|--------|--------|--------|--------|
B|--------|--------|--------|--------|--------|--------|--------|--------|--------|
G|--------|--------|--------|--------|--------|--------|--------|--------|--------|
D|--------|--------|--------|--------|--------|--------|--------|--------|--------|
A|--------|--------|--------|--------|--------|--------|--------|--------|--------|
E|--------|--------|--------|--------|--------|--------|--------|--------|--------|


E|--------|--------|--------|--------|--------|--------|--------|--------|--------|
B|--------|--------|--------|--------|--------|--------|--------|--------|--------|
G|--------|--------|--------|--------|--------|--------|--------|--------|--------|
D|--------|--------|--------|--------|--------|--------|--------|--------|--------|
A|--------|--------|--------|--------|--------|--------|--------|--------|--------|
E|--------|--------|--------|--------|--------|--------|--------|--------|--------|


E|--------|--------|--------|--------|--------|--------|--------|--------|--------|
B|--------|--------|--------|--------|--------|--------|--------|--------|--------|
G|--------|--------|--------|--------|--------|--------|--------|--------|--------|
D|--------|--------|--------|--------|--------|--------|--------|--------|--------|
A|--------|--------|--------|--------|--------|--------|--------|--------|--------|
E|--------|--------|--------|--------|--------|--------|--------|--------|--------|


E|--------|--------|--------|--------|--------|--------|--------|--------|--------|
B|--------|--------|--------|--------|--------|--------|--------|--------|--------|
G|--------|--------|--------|--------|--------|--------|--------|--------|--------|
D|--------|--------|--------|--------|--------|--------|--------|--------|--------|
A|--------|--------|--------|--------|--------|--------|--------|--------|--------|
E|--------|--------|--------|--------|--------|--------|--------|--------|--------|


E|--------|--------|--------|--------|--------|--------|--------|--------|--------|
B|--------|--------|--------|--------|--------|--------|--------|--------|--------|
G|--------|--------|--------|--------|--------|--------|--------|--------|--------|
D|--------|--------|--------|--------|--------|--------|--------|--------|--------|
A|--------|--------|--------|--------|--------|--------|--------|--------|--------|
E|--------|--------|--------|--------|--------|--------|--------|--------|--------|


E|--------|--------|--------|--------|--------|--------|--------|--------|--------|
B|--------|--------|--------|--------|--------|--------|--------|--------|--------|
G|--------|--------|--------|--------|--------|--------|--------|--------|--------|
D|--------|--------|--------|--------|--------|--------|--------|--------|--------|
A|--------|--------|--------|--------|--------|--------|--------|--------|--------|
E|--------|--------|--------|--------|--------|--------|--------|--------|--------|


E|--------|--------|--------|--------|--------|--------|-------------------------------|
B|--------|--------|--------|--------|--------|--------|------------------------9--9---|
G|--------|--------|--------|--------|--------|--------|------------------8------------|
D|--------|--------|--------|--------|--------|--------|-------4--6----6-----6---------|
A|--------|--------|--------|--------|--------|--------|-------------------------------|
E|--------|--------|--------|--------|--------|--------|-------------------------------|


E|-------------------------------------|------------7--7--7--7--7--7--7--7--7--7--7--|
B|-9----------9-12--12---12---12-12-9--|-----9--9---7--7--7--7--7--7--7--7--7--7--7--|
G|-------7--9--------------------------|------------4--4--4--4--4--4--4--4--4--4--4--|
D|-------------------------------------|---------------------------------------------|
A|-------------------------------------|---------------------------------------------|
E|-------------------------------------|---------------------------------------------|


E|-7--9--------16-19-19---19-19-19---19--|-------21--21-21-21--21--21-21-|-----21--21-21-21--21--21-21--21-21--|
B|-7--------17---------------------------|-------------------------------|-------------------21--21-21--21-21--|
G|-4--6----------------------------------|-------------------------------|-------------------------------------|
D|---------------------------------------|-------------------------------|-------------------------------------|
A|---------------------------------------|-------------------------------|-------------------------------------|
E|---------------------------------------|-------------------------------|-------------------------------------|


E|-----------------------------------------------------|-----------------------------------16--------------16------------|
B|-----------------------------------------------------|---------------------------16191619--1916--16191619--1916--161916|
G|-----------------------------------------------------|---------------------151618--------------18--------------18------|
D|-----------------------------------------------------|-----16----1618--1618--------------------------------------------|
A|-------------------------14--------------16--16181916|-1819--1819----19------------------------------------------------|
E|---------1214141416131416--14161819161819--19--------|-----------------------------------------------------------------|


E|---16----19---1916--------------|--------------|--------|--------|--------|--------|
B|-19--1916---------19----19------|--------------|--------|--------|--------|--------|
G|--------------------------------|--------------|--------|--------|--------|--------|
D|--------------------------------|--------------|--------|--------|--------|--------|
A|--------------------------------|--------------|--------|--------|--------|--------|
E|--------------------------------|--------------|--------|--------|--------|--------|


E|--------|--------|--------|--------|--------|--------|--------|--------|--------|
B|--------|--------|--------|--------|--------|--------|--------|--------|--------|
G|--------|--------|--------|--------|--------|--------|--------|--------|--------|
D|--------|--------|--------|--------|--------|--------|--------|--------|--------|
A|--------|--------|--------|--------|--------|--------|--------|--------|--------|
E|--------|--------|--------|--------|--------|--------|--------|--------|--------|


E|--------|--------|--------|--------|--------|--------|--------|--------|--------|
B|--------|--------|--------|--------|--------|--------|--------|--------|--------|
G|--------|--------|--------|--------|--------|--------|--------|--------|--------|
D|--------|--------|--------|--------|--------|--------|--------|--------|--------|
A|--------|--------|--------|--------|--------|--------|--------|--------|--------|
E|--------|--------|--------|--------|--------|--------|--------|--------|--------|


E|--------|--------|--------|--------|--------|--------|--------|--------|--------|
B|--------|--------|--------|--------|--------|--------|--------|--------|--------|
G|--------|--------|--------|--------|--------|--------|--------|--------|--------|
D|--------|--------|--------|--------|--------|--------|--------|--------|--------|
A|--------|--------|--------|--------|--------|--------|--------|--------|--------|
E|--------|--------|--------|--------|--------|--------|--------|--------|--------|


E|--------|--------|--------|--------|--------|--------|--------|--------|--------|
B|--------|--------|--------|--------|--------|--------|--------|--------|--------|
G|--------|--------|--------|--------|--------|--------|--------|--------|--------|
D|--------|--------|--------|--------|--------|--------|--------|--------|--------|
A|--------|--------|--------|--------|--------|--------|--------|--------|--------|
E|--------|--------|--------|--------|--------|--------|--------|--------|--------|


E|--------|--------|--------|--------|--------|--------|--------|--------|--------|
B|--------|--------|--------|--------|--------|--------|--------|--------|--------|
G|--------|--------|--------|--------|--------|--------|--------|--------|--------|
D|--------|--------|--------|--------|--------|--------|--------|--------|--------|
A|--------|--------|--------|--------|--------|--------|--------|--------|--------|
E|--------|--------|--------|--------|--------|--------|--------|--------|--------|


E|--------|--------|--------|--------|--------|--------|--------|--------|--------|
B|--------|--------|--------|--------|--------|--------|--------|--------|--------|
G|--------|--------|--------|--------|--------|--------|--------|--------|--------|
D|--------|--------|--------|--------|--------|--------|--------|--------|--------|
A|--------|--------|--------|--------|--------|--------|--------|--------|--------|
E|--------|--------|--------|--------|--------|--------|--------|--------|--------|


E|--------|--------|--------|
B|--------|--------|--------|
G|--------|--------|--------|
D|--------|--------|--------|
A|--------|--------|--------|
E|--------|--------|--------|





Track 3: Bass 1

G|---------------------------------------------------|---------------------------------------------------|
D|---------------------------------------------------|---------------------------------------------------|
A|-0-1-2--2--2--2--2--2--2--0-1-2--2--2--2--2--2--2--|-0-1-2--2--2--2--2--2--2--0-1-2--2--2--2--2--2--2--|
E|---------------------------------------------------|---------------------------------------------------|
B|---------------------------------------------------|---------------------------------------------------|


G|---------------------------------------------------|--------------------------------------------------|
D|---------------------------------------------------|--------------------------------------------------|
A|-0-1-2--2--2--2--2--2--2--0-1-2--2--2--2--2--2--2--|-0-1-2--2--2--2--2--2--2--14-14-14-14-14-14-14-14-|
E|---------------------------------------------------|--------------------------------------------------|
B|---------------------------------------------------|--------------------------------------------------|


G|---------------------------|------------------------------|---------------------------|
D|---------------------------|------------------------------|---------------------------|
A|---------------------------|------------------------------|---------------------------|
E|-0----3---7---0---3----0---|-3---7---0---3---7---0---3----|-0----3---7---0---3----0---|
B|---------------------------|------------------------------|---------------------------|


G|------------------------------|------------------------|-------------------------------------------------|
D|------------------------------|------------------------|-------------------------------------------------|
A|------------------------------|------------------------|-------------------------------------------------|
E|-3---7---0---3---7---0---3----|-7----7-------------0---|-0--0--6--0--7--8--0--5--6--0--3--0--3--5--0--2--|
B|------------------------------|------------------------|-------------------------------------------------|


G|---------------------------------------------|-------------------------------------------------|
D|---------------------------------------------|-------------------------------------------------|
A|---------------------------------------------|-------------------------------------------------|
E|-3--0--6--0--7--8--0--5--6--0--3--0-------0--|-0--0--6--0--7--8--0--5--6--0--3--0--3--5--0--2--|
B|---------------------------------------------|-------------------------------------------------|


G|------------------------------------------|-------------------------------------------------|
D|------------------------------------------|-------------------------------------------------|
A|------------------------------------------|-------------------------------------------------|
E|-3--0--6--0--7--8--0--5--6--0--3--0-------|-0-----0--0--0--6--0--7--8--0--5--6--0--3--0--3--|
B|------------------------------------------|-------------------------------------------------|


G|-------------------------------------------------|-----------------------------------------------|
D|-------------------------------------------------|-----------------------------------------------|
A|-------------------------------------------------|-----------------------------------------------|
E|-5--0--2--3--0--6--0--7--8--0--5--6--0--3--0-----|-----0--0--0--6--0--7--8--0--5--6--0--3--0--3--|
B|-------------------------------------------------|-----------------------------------------------|


G|-------------------------------------------------|-----------------------------------------------|
D|-------------------------------------------------|-----------------------------------------------|
A|-------------------------------------------------|-----------------------------------------------|
E|-5--0--2--3--0--6--0--7--8--0--5--6--0--3--0-----|-----0--0--0--6--0--7--8--0--5--6--0--3--0--3--|
B|-------------------------------------------------|-----------------------------------------------|


G|-------------------------------------------------|-----------------------------------------------|
D|-------------------------------------------------|-----------------------------------------------|
A|-------------------------------------------------|-----------------------------------------------|
E|-5--0--2--3--0--6--0--7--8--0--5--6--0--3--0-----|-----0--0--0--6--0--7--8--0--5--6--0--3--0--3--|
B|-------------------------------------------------|-----------------------------------------------|


G|-------------------------------------------------|-----------------------------------------------|
D|-------------------------------------------------|-----------------------------------------------|
A|-------------------------------------------------|------0-1-2--2--2--2--2--2--2--0-1-2--2--2--2--|
E|-5--0--2--3--0--6--0--7--8--0--5--6--0--3--0-----|-----------------------------------------------|
B|-------------------------------------------------|-----------------------------------------------|


G|---------------------------------------------------|---------------------------------------------------|
D|---------------------------------------------------|---------------------------------------------------|
A|-2--2--2--0-1-2--2--2--2--2--2--2--0-1-2--2--2--2--|-2--2--2--0-1-2--2--2--2--2--2--2--0-1-2--2--2--2--|
E|---------------------------------------------------|---------------------------------------------------|
B|---------------------------------------------------|---------------------------------------------------|


G|--------------------------------------------------|--------------------------------|
D|--------------------------------------------------|--------------------------------|
A|-2--2--2--0-1-2--2--2--2--2--2--2--14-14-14-14-14-|-14-14-14-----------------------|
E|--------------------------------------------------|----------0----3---7---0---3----|
B|--------------------------------------------------|--------------------------------|


G|-----------------------------------|----------------------------|-----------------------------------|
D|-----------------------------------|----------------------------|-----------------------------------|
A|-----------------------------------|----------------------------|-----------------------------------|
E|----0---3---7---0---3---7---0---3--|------0----3---7---0---3----|----0---3---7---0---3---7---0---3--|
B|-----------------------------------|----------------------------|-----------------------------------|


G|----------------------------|-----------------------------------|----------------------------|
D|----------------------------|-----------------------------------|----------------------------|
A|----------------------------|-----------------------------------|----------------------------|
E|------0----3---7---0---3----|----0---3---7---0---3---7---0---3--|------0----3---7---0---3----|
B|----------------------------|-----------------------------------|----------------------------|


G|--------------------------|-----------------------------------------------|-------------------------------------------------|
D|--------------------------|-----------------------------------------------|-------------------------------------------------|
A|--------------------------|-----------------------------------------------|-------------------------------------------------|
E|----0---7----7------------|----0---0--0--6--0--7--8--0--5--6--0--3--0--3--|-5--0--2--3--0--6--0--7--8--0--5--6--0--3--0-----|
B|--------------------------|-----------------------------------------------|-------------------------------------------------|


G|-----------------------------------------------|-------------------------------------------------|
D|-----------------------------------------------|-------------------------------------------------|
A|-----------------------------------------------|-------------------------------------------------|
E|-----0--0--0--6--0--7--8--0--5--6--0--3--0--3--|-5--0--2--3--0--6--0--7--8--0--5--6--0--3--0-----|
B|-----------------------------------------------|-------------------------------------------------|


G|---------------------------------------------|-------------------------------------------------|
D|---------------------------------------------|-------------------------------------------------|
A|---------------------------------------------|-------------------------------------------------|
E|------0-----0--0--0--6--0--7--8--0--5--6--0--|-3--0--3--5--0--2--3--0--6--0--7--8--0--5--6--0--|
B|---------------------------------------------|-------------------------------------------------|


G|---------------------------------------------|-------------------------------------------------|
D|---------------------------------------------|-------------------------------------------------|
A|---------------------------------------------|-------------------------------------------------|
E|-3--0-------0--0--0--6--0--7--8--0--5--6--0--|-3--0--3--5--0--2--3--0--6--0--7--8--0--5--6--0--|
B|---------------------------------------------|-------------------------------------------------|


G|---------------------------------------------|-------------------------------------------------|
D|---------------------------------------------|-------------------------------------------------|
A|---------------------------------------------|-------------------------------------------------|
E|-3--0-------0--0--0--6--0--7--8--0--5--6--0--|-3--0--3--5--0--2--3--0--6--0--7--8--0--5--6--0--|
B|---------------------------------------------|-------------------------------------------------|


G|---------------------------------------------|-------------------------------------------------|
D|---------------------------------------------|-------------------------------------------------|
A|---------------------------------------------|-------------------------------------------------|
E|-3--0-------0--0--0--6--0--7--8--0--5--6--0--|-3--0--3--5--0--2--3--0--6--0--7--8--0--5--6--0--|
B|---------------------------------------------|-------------------------------------------------|


G|--------------------------------------------|---------------------------------------------------|
D|--------------------------------------------|---------------------------------------------------|
A|------------0-1-2--2--2--2--2--2--2--0-1-2--|-2--2--2--2--2--2--0-1-2--2--2--2--2--2--2--0-1-2--|
E|-3--0---------------------------------------|---------------------------------------------------|
B|--------------------------------------------|---------------------------------------------------|


G|---------------------------------------------------|--------------------------------------------------|
D|---------------------------------------------------|--------------------------------------------------|
A|-2--2--2--2--2--2--0-1-2--2--2--2--2--2--2--0-1-2--|-2--2--2--2--2--2--0-1-2--2--2--2--2--2--2--14-14-|
E|---------------------------------------------------|--------------------------------------------------|
B|---------------------------------------------------|--------------------------------------------------|


G|------------------------------------|------------------------------|---------------------------|
D|------------------------------------|------------------------------|---------------------------|
A|-14-14-14-14-14-14------------------|------------------------------|---------------------------|
E|-------------------0----3---7---0---|-3----0---3---7---0---3---7---|-0---3----0----3---7---0---|
B|------------------------------------|------------------------------|---------------------------|


G|------------------------------|---------------------------|------------------------------|
D|------------------------------|---------------------------|------------------------------|
A|------------------------------|---------------------------|------------------------------|
E|-3----0---3---7---0---3---7---|-0---3----0----3---7---0---|-3----0---3---7---0---3---7---|
B|------------------------------|---------------------------|------------------------------|


G|---------------------------|------------------------------|------------------------------------|
D|---------------------------|------------------------------|------------------------------------|
A|---------------------------|------------------------------|----------------------2-------6--5--|
E|-0---3----0----3---7---0---|-3----0---3---7---0---3---7---|-0---3----2--4--4--4-----4----------|
B|---------------------------|------------------------------|------------------------------------|


G|----------------------------------------|---------------------------------------|
D|----------------------------------------|-----7---------------------------------|
A|-4--2-----2----------------7--6--5--5---|-------------------------2-------6--5--|
E|----------------2--0----0---------------|-------------2--4--4--4-----4----------|
B|----------------------------------------|----------4----------------------------|


G|----------------------------------------|-------------------------------------------|
D|----------------------------------------|-4--0--7--0--12----------------------------|
A|-4--2-----2----------------7--6--5--5---|-----------------------------2-------6--5--|
E|----------------2--0----0---------------|-----------------2--4--4--4-----4----------|
B|----------------------------------------|-------------------------------------------|


G|----------------------------------------|---------------------------------------|
D|----------------------------------------|-----7---------------------------------|
A|-4--2-----2----------------7--6--5--5---|-------------------------2-------6--5--|
E|----------------2--0----0---------------|-------------2--4--4--4-----4----------|
B|----------------------------------------|----------4----------------------------|


G|----------------------------------------|------------------------------------|----------------------------------------|
D|----------------------------------------|------------------------------------|----------------------------------------|
A|-4--2-----2----------------7--6--5--5---|-----17---------------2-------6--5--|-4--2-----2----------------7--6--5--5---|
E|----------------2--0----0---------------|----------2--4--4--4-----4----------|----------------2--0----0---------------|
B|----------------------------------------|------------------------------------|----------------------------------------|


G|---------------------------------------------|----------------------------------------|
D|-----7-----7---------------------------------|---------------------------------7--7---|
A|--------5--------------------2---------6--5--|-4--2-----2----------------7--6--5--5---|
E|--------------0--2--4--4--4-----4---4--------|----------------2--0----0---------------|
B|---------------------------------------------|----------------------------------------|


G|------------------------|-----------------------|--------|--------|------------------------|
D|------------------------|-----------------------|--------|--------|------------------------|
A|------------------------|-----------------------|--------|--------|------------------------|
E|-------4--------4-------|-----4---2-------------|--------|--------|-------4--------4-------|
B|------------------------|-----------------------|--------|--------|------------------------|


G|------------------------------|------------------------------|------------------------------|
D|------------------------------|------------------------------|------------------------------|
A|------------------------------|------------------------------|------------------------------|
E|-----4---2---4--------4-------|-----4---2---4--------4-------|-----4---2---4--------4-------|
B|------------------------------|------------------------------|------------------------------|


G|------------------------------|---------------------------------|--------------------|
D|------------------------------|---------------------------------|--------------------|
A|------------------------------|---------------------------------|--------------------|
E|-----4---2---4----4---4---4---|-4---4---4---4---4---4---4---4---|-4---4---4---7------|
B|------------------------------|---------------------------------|--------------------|


G|--------------|---------------------------|---------------------------------|--------------------|
D|--------------|---------------------------|---------------------------------|--------------------|
A|--------------|---------------------------|---------------------------------|--------------------|
E|-------7------|-------2---4---4---4---4---|-4---4---4---4---4---4---4---4---|-4---4---4---5------|
B|--------------|---------------------------|---------------------------------|--------------------|


G|--------------|---------------------------|---------------------------------|------------------------------|
D|--------------|---------------------------|---------------------------------|------------------------------|
A|--------------|---------------------------|---------------------------------|------------------------------|
E|-------5------|-------2---4---4---4---4---|-4---4---4---4---4---4---4---4---|-4---4---4---7----7---7---7---|
B|--------------|---------------------------|---------------------------------|------------------------------|


G|------------------------------|------------------------------|---------------------------------|
D|------------------------------|------------------------------|---------------------------------|
A|------------------------------|------------------------------|---------------------------------|
E|-7---7----5---7---7---7---7---|-7---7----2---4---4---4---4---|-4---4---4---4---4---4---4---4---|
B|------------------------------|------------------------------|---------------------------------|


G|--------------------|--------------|-----------------|--------------|------------------------|
D|--------------------|--------------|-----------------|--------------|------------------------|
A|--------------------|--------------|-----------------|--------------|------------------------|
E|-4---4---4---5------|-------5------|-------4---------|--------------|-------4----4---4---4---|
B|--------------------|--------------|-----------------|--------------|------------------------|


G|---------------------------------|--------------------|--------------|---------------------------|
D|---------------------------------|--------------------|--------------|---------------------------|
A|---------------------------------|--------------------|--------------|---------------------------|
E|-4---4---4---4---4---4---4---4---|-4---4---4---7------|-------7------|-------2---4---4---4---4---|
B|---------------------------------|--------------------|--------------|---------------------------|


G|---------------------------------|--------------------|--------------|---------------------------|
D|---------------------------------|--------------------|--------------|---------------------------|
A|---------------------------------|--------------------|--------------|---------------------------|
E|-4---4---4---4---4---4---4---4---|-4---4---4---5------|-------5------|-------2---4---4---4---4---|
B|---------------------------------|--------------------|--------------|---------------------------|


G|---------------------------------|------------------------------|------------------------------|
D|---------------------------------|------------------------------|------------------------------|
A|---------------------------------|------------------------------|------------------------------|
E|-4---4---4---4---4---4---4---4---|-4---4---4---7----7---7---7---|-7---7----5---7---7---7---7---|
B|---------------------------------|------------------------------|------------------------------|


G|------------------------------|---------------------------------|--------------------|
D|------------------------------|---------------------------------|--------------------|
A|------------------------------|---------------------------------|--------------------|
E|-7---7----2---4---4---4---4---|-4---4---4---4---4---4---4---4---|-4---4---4---10-----|
B|------------------------------|---------------------------------|--------------------|


G|--------------|-----------------|--------------|------------------------|------------------------------|
D|--------------|-----------------|--------------|------------------------|------------------------------|
A|--------------|-----------------|--------------|------------------------|------------------------------|
E|-------10-----|-------4---------|--------------|-------4--------4-------|-----4---2---4--------4-------|
B|--------------|-----------------|--------------|------------------------|------------------------------|


G|------------------------------|------------------------------|------------------------------|
D|------------------------------|------------------------------|------------------------------|
A|------------------------------|------------------------------|------------------------------|
E|-----4---2---4--------4-------|-----4---2---4--------4-------|-----4---2---4--------4-------|
B|------------------------------|------------------------------|------------------------------|


G|------------------------------|------------------------------|------------------------------|
D|------------------------------|------------------------------|------------------------------|
A|------------------------------|------------------------------|------------------------------|
E|-----4---2---4--------4-------|-----4---2---4--------4-------|-----4---2---4--------4-------|
B|------------------------------|------------------------------|------------------------------|


G|------------------------------|------------------------------|------------------------------|
D|------------------------------|------------------------------|------------------------------|
A|------------------------------|------------------------------|------------------------------|
E|-----4---2---4--------4-------|-----4---2---4--------4-------|-----4---2---4--------4-------|
B|------------------------------|------------------------------|------------------------------|


G|------------------------------|------------------------------|------------------------------|
D|------------------------------|------------------------------|------------------------------|
A|------------------------------|------------------------------|------------------------------|
E|-----4---2---4--------4-------|-----4---2---4--------4-------|-----4---2---4--------4-------|
B|------------------------------|------------------------------|------------------------------|


G|---------------------------|--------|--------|--------|
D|---------------------------|--------|--------|--------|
A|---------------------------|--------|--------|--------|
E|-----4---2---4-------------|--------|--------|--------|
B|---------------------------|--------|--------|--------|