Menu:

 

Search:

 

pantera - ill cast a shadow:

 



Title: I'll Cast A Shadow
Artist: 
Album: Reinventing The Steel
Author: Pantera


Track 1: Dime1

D|-----------------------|--------------------------------------------------|----------------------------------------------|
A|-----------------------|--------------------------------------------------|----------------------------------------------|
F|-----------------------|--------------------------------------------------|----------------------------------------------|
C|--------------------10-|------------7------7---------------10----------7--|-------7---------------10----------7------7---|
G|--------------------8--|------------5------5---------------8-----------5--|-------5---------------8-----------5------5---|
C|--------0--0--0--0-----|----0--0--0-----0------0--0--0--0------0--0--0----|----0------0--0--0--0------0--0--0-----0------|


D|-------------------------------------|----------------------------------------------|
A|-------------------------------------|----------------------------------------------|
F|-------------------------------------|----------------------------------------------|
C|-------------8--------------------10-|----------------7---------------3-------------|
G|-------------6--------------------8--|----------------5-----------1-------1---------|
C|-0--0--0--0-----------0--0--0--0-----|----0--0--0--0------0---3---------------3---5-|


D|----------------------------------------------------|----------------------------------------------------|
A|----------------------------------------------------|----------------------------------------------------|
F|----------------------------------------------------|----------------------------------------------------|
C|----------------------------10--------------7-------|-----------------------------3-------------------10-|
G|----3--5--3--0--------------8---------------5-------|---------3--5--3--0------1-------1---------------8--|
C|----------------0--0--0--0------0--0--0--0------0---|-3---5---------------3---------------0--0--0--0-----|


D|----------------------------------------------|----------------------------------------------------|
A|----------------------------------------------|----------------------------------------------------|
F|----------------------------------------------|----------------------------------------------------|
C|----------------7---------------3-------------|----------------------------10--------------7-------|
G|----------------5-----------1-------1---------|----3--5--3--0--------------8---------------5-------|
C|----0--0--0--0------0---3---------------3---5-|----------------0--0--0--0------0--0--0--0------0---|


D|------------------------------------------|------------------------------|-------------|
A|------------------------------------------|------------------------------|-------------|
F|------------------------------------------|------------------------------|-------------|
C|-----------------------------3-------3----|-0---3----0---3---0---8---6---|--------3----|
G|---------3--5--3--0------1-------1---3----|-0---3----0---3---0---8---6---|--------3----|
C|-3---5---------------3---------------3----|-0---3----0---3---0---8---6---|--------3----|


D|------------------------------|-------------|------------------------------|-------------|
A|------------------------------|-------------|------------------------------|-------------|
F|------------------------------|-------------|------------------------------|-------------|
C|-0---3----0---3---0---8---6---|--------3----|-0---3----0---3---0---8---6---|--------3----|
G|-0---3----0---3---0---8---6---|--------3----|-0---3----0---3---0---8---6---|--------3----|
C|-0---3----0---3---0---8---6---|--------3----|-0---3----0---3---0---8---6---|--------3----|


D|------------------------------|------------------------------|------------------------------|
A|------------------------------|------------------------------|------------------------------|
F|------------------------------|------------------------------|------------------------------|
C|-0---3----0---3---0---8---6---|-----8---6-------8---6---3----|-0---3----0---3---0---8---6---|
G|-0---3----0---3---0---8---6---|-----8---6-------8---6---3----|-0---3----0---3---0---8---6---|
C|-0---3----0---3---0---8---6---|-----8---6-------8---6---3----|-0---3----0---3---0---8---6---|


D|-------------|------------------------------|-----------------|------------------------------|
A|-------------|------------------------------|-----------------|------------------------------|
F|-------------|------------------------------|-----------------|------------------------------|
C|--------3----|-0---3----0---3---0---8---6---|------9-----3----|-0---3----0---3---0---8---6---|
G|--------3----|-0---3----0---3---0---8---6---|------9-----3----|-0---3----0---3---0---8---6---|
C|--------3----|-0---3----0---3---0---8---6---|------9-----3----|-0---3----0---3---0---8---6---|


D|-------------|------------------------------|-----------------|-------------|------------------------------------------|
A|-------------|------------------------------|-----------------|-------------|------------------------------------------|
F|-------------|------------------------------|-----------------|-------------|------------------------------------------|
C|--------3----|-0---3----0---3---0---8---6---|------9-----0----|-------0-----|-0----------------10--------------7-------|
G|--------3----|-0---3----0---3---0---8---6---|------9-----0----|-------0-----|-0----------------8---------------5-------|
C|--------3----|-0---3----0---3---0---8---6---|------9-----0----|-------0-----|-0----0--0--0--0------0--0--0--0------0---|


D|----------------------------------------------------|--------------------------------------------------|
A|----------------------------------------------------|--------------------------------------------------|
F|----------------------------------------------------|--------------------------------------------------|
C|---------3---------------------------------------10-|----------------7---------------------------------|
G|-----1-------1-----------3--5--3--0--------------8--|----------------5---------------3--5--3--0------1-|
C|-3---------------3---5---------------0--0--0--0-----|----0--0--0--0------0---3---5---------------3-----|


D|------------------------------------------------|----------------------------------------------------|
A|------------------------------------------------|----------------------------------------------------|
F|------------------------------------------------|----------------------------------------------------|
C|----3-------------------10--------------7-------|---------3---------------------------------------10-|
G|--------1---------------8---------------5-------|-----1-------1-----------3--5--3--0--------------8--|
C|------------0--0--0--0------0--0--0--0------0---|-3---------------3---5---------------0--0--0--0-----|


D|--------------------------------------------------|------------------------------|
A|--------------------------------------------------|------------------------------|
F|--------------------------------------------------|------------------------------|
C|----------------7---------------------------------|----3-------3----0---3----0---|
G|----------------5---------------3--5--3--0------1-|--------1---3----0---3----0---|
C|----0--0--0--0------0---3---5---------------3-----|------------3----0---3----0---|


D|--------------------|------------------------|--------------------|------------------------|
A|--------------------|------------------------|--------------------|------------------------|
F|--------------------|------------------------|--------------------|------------------------|
C|-3---0---8---6------|------3----0---3----0---|-3---0---8---6------|------3----0---3----0---|
G|-3---0---8---6------|------3----0---3----0---|-3---0---8---6------|------3----0---3----0---|
C|-3---0---8---6------|------3----0---3----0---|-3---0---8---6------|------3----0---3----0---|


D|--------------------|------------------------|---------------------------------|
A|--------------------|------------------------|---------------------------------|
F|--------------------|------------------------|---------------------------------|
C|-3---0---8---6------|------3----0---3----0---|-3---0---8---6-------8---6-------|
G|-3---0---8---6------|------3----0---3----0---|-3---0---8---6-------8---6-------|
C|-3---0---8---6------|------3----0---3----0---|-3---0---8---6-------8---6-------|


D|---------------------------|--------------------|------------------------|------------------------|
A|---------------------------|--------------------|------------------------|------------------------|
F|---------------------------|--------------------|------------------------|------------------------|
C|-8---6---3----0---3----0---|-3---0---8---6------|------3----0---3----0---|-3---0---8---6-----9----|
G|-8---6---3----0---3----0---|-3---0---8---6------|------3----0---3----0---|-3---0---8---6-----9----|
C|-8---6---3----0---3----0---|-3---0---8---6------|------3----0---3----0---|-3---0---8---6-----9----|


D|------------------------|--------------------|------------------------|------------------------|
A|------------------------|--------------------|------------------------|------------------------|
F|------------------------|--------------------|------------------------|------------------------|
C|------3----0---3----0---|-3---0---8---6------|------3----0---3----0---|-3---0---8---6-----9----|
G|------3----0---3----0---|-3---0---8---6------|------3----0---3----0---|-3---0---8---6-----9----|
C|------3----0---3----0---|-3---0---8---6------|------3----0---3----0---|-3---0---8---6-----9----|


D|-------------|---------------------------|----------------------------------------------|
A|-------------|---------------------------|----------------------------------------------|
F|-------------|---------------------------|----------------------------------------------|
C|------0------|-0-----0----------------10-|----------------7---------------3-------------|
G|------0------|-0-----0----------------8--|----------------5-----------1-------1---------|
C|------0------|-0-----0----0--0--0--0-----|----0--0--0--0------0---3---------------3---5-|


D|----------------------------------------------------|----------------------------------------------------|
A|----------------------------------------------------|----------------------------------------------------|
F|----------------------------------------------------|----------------------------------------------------|
C|----------------------------10--------------7-------|-----------------------------3-------------------10-|
G|----3--5--3--0--------------8---------------5-------|---------3--5--3--0------1-------1---------------8--|
C|----------------0--0--0--0------0--0--0--0------0---|-3---5---------------3---------------0--0--0--0-----|


D|----------------------------------------------|----------------------------------------------------|
A|----------------------------------------------|----------------------------------------------------|
F|----------------------------------------------|----------------------------------------------------|
C|----------------7---------------3-------------|----------------------------10--------------7-------|
G|----------------5-----------1-------1---------|----3--5--3--0--------------8---------------5-------|
C|----0--0--0--0------0---3---------------3---5-|----------------0--0--0--0------0--0--0--0------0---|


D|----------------------------------------------------|--------------------------------------------------|
A|----------------------------------------------------|--------------------------------------------------|
F|----------------------------------------------------|--------------------------------------------------|
C|-----------------------------3-------------------10-|------------7------7---------------10----------7--|
G|---------3--5--3--0------1-------1---------------8--|------------5------5---------------8-----------5--|
C|-3---5---------------3---------------0--0--0--0-----|----0--0--0-----0------0--0--0--0------0--0--0----|


D|----------------------------------------------|------------------------------|---------------------------------|
A|----------------------------------------------|------------------------------|---------------------------------|
F|----------------------------------------------|------------------------------|---------------------------------|
C|-------7---------------10----------7------7---|-------------8----------------|---------------------------------|
G|-------5---------------8-----------5------5---|-------------6----------------|---------------------------------|
C|----0------0--0--0--0------0--0--0-----0------|-0--0--0--0-----------5---5---|-5---5---5---5---5---5---5---5---|


D|---------------------------------|---------------------------------|---------------------------------|
A|---------------------------------|---------------------------------|---------------------------------|
F|---------------------------------|---------------------------------|---------------------------------|
C|---------------------------------|---------------------------------|---------------------------------|
G|---------------------------------|---------------------------------|-------------------------5-------|
C|-5---5---5---5---5---5---5---5---|-5---5---5---5---5---5---5---5---|-5---5---5---5---5---5-------4---|


D|---------------------------------|---------------------------------|---------------------------------|
A|---------------------------------|---------------------------------|---------------------------------|
F|---------------------------------|---------------------------------|---------------------------------|
C|---------------------------------|-------------------------5-------|-5-------5-------5-------5-------|
G|-5-------5-------5-------5-------|-5-------5-------5-----------4---|-----4-------4-------4-------4---|
C|-----4-------4-------4-------4---|-----4-------4-------4-----------|---------------------------------|


D|---------------------------------|---------------------------------|---------------------------------|
A|---------------------------------|---------------------------------|---------------------------------|
F|---------------------------------|---------------------------------|---------------------------------|
C|-5-------5-------5-------0---3---|-5---6---5---0---3---5---0---1---|-3---0---0---3---5---6---5---0---|
G|-----4-------4-------4---0---3---|-5---6---5---0---3---5---0---1---|-3---0---0---3---5---6---5---0---|
C|-------------------------0---3---|-5---6---5---0---3---5---0---1---|-3---0---0---3---5---6---5---0---|


D|---------------------------------|---------------------------------|---------------------------------|
A|---------------------------------|---------------------------------|---------------------------------|
F|---------------------------------|---------------------------------|---------------------------------|
C|-3---5---0---1---3---0---0---3---|-5---6---5---0---3---5---0---1---|-3---0---0---3---5---6---5---0---|
G|-3---5---0---1---3---0---0---3---|-5---6---5---0---3---5---0---1---|-3---0---0---3---5---6---5---0---|
C|-3---5---0---1---3---0---0---3---|-5---6---5---0---3---5---0---1---|-3---0---0---3---5---6---5---0---|


D|---------------------------------|---------------------------------|---------------------------------|
A|---------------------------------|---------------------------------|---------------------------------|
F|---------------------------------|---------------------------------|---------------------------------|
C|-3---5---0---1---3---0---0---3---|-5---6---5---0---3---5---0---1---|-3---0---0---3---5---6---5---0---|
G|-3---5---0---1---3---0---0---3---|-5---6---5---0---3---5---0---1---|-3---0---0---3---5---6---5---0---|
C|-3---5---0---1---3---0---0---3---|-5---6---5---0---3---5---0---1---|-3---0---0---3---5---6---5---0---|


D|---------------------------------|---------------------------------|---------------------------------|
A|---------------------------------|---------------------------------|---------------------------------|
F|---------------------------------|---------------------------------|---------------------------------|
C|-3---5---0---1---3---0---0---3---|-5---6---5---0---3---5---0---1---|-3---0---0---3---5---6---5---0---|
G|-3---5---0---1---3---0---0---3---|-5---6---5---0---3---5---0---1---|-3---0---0---3---5---6---5---0---|
C|-3---5---0---1---3---0---0---3---|-5---6---5---0---3---5---0---1---|-3---0---0---3---5---6---5---0---|


D|---------------------------------|---------------------------------|---------------------------------|
A|---------------------------------|---------------------------------|---------------------------------|
F|---------------------------------|---------------------------------|---------------------------------|
C|-3---5---0---1---3---0-----------|---------------------------------|-------------------------5-------|
G|-3---5---0---1---3---0---5-------|-5-------5-------5-------5-------|-5-------5-------5-----------4---|
C|-3---5---0---1---3---0-------4---|-----4-------4-------4-------4---|-----4-------4-------4-----------|


D|---------------------------------|---------------------------------|---------------------------------|
A|---------------------------------|---------------------------------|---------------------------------|
F|---------------------------------|---------------------------------|---------------------------------|
C|-5-------5-------5-------5-------|-5-------5-------5-------0---3---|-5---6---5---0---3---5---0---1---|
G|-----4-------4-------4-------4---|-----4-------4-------4---0---3---|-5---6---5---0---3---5---0---1---|
C|---------------------------------|-------------------------0---3---|-5---6---5---0---3---5---0---1---|


D|---------------------------------|---------------------------------|---------------------------------|
A|---------------------------------|---------------------------------|---------------------------------|
F|---------------------------------|---------------------------------|---------------------------------|
C|-3---0---0---3---5---6---5---0---|-3---5---0---1---3---0---0---3---|-5---6---5---0---3---5---0---1---|
G|-3---0---0---3---5---6---5---0---|-3---5---0---1---3---0---0---3---|-5---6---5---0---3---5---0---1---|
C|-3---0---0---3---5---6---5---0---|-3---5---0---1---3---0---0---3---|-5---6---5---0---3---5---0---1---|


D|---------------------------------|---------------------------------|---------------------------------|
A|---------------------------------|---------------------------------|---------------------------------|
F|---------------------------------|---------------------------------|---------------------------------|
C|-3---0---0---3---5---6---5---0---|-3---5---0---1---3---0---0---3---|-5---6---5---0---3---5---0---1---|
G|-3---0---0---3---5---6---5---0---|-3---5---0---1---3---0---0---3---|-5---6---5---0---3---5---0---1---|
C|-3---0---0---3---5---6---5---0---|-3---5---0---1---3---0---0---3---|-5---6---5---0---3---5---0---1---|


D|---------------------------------|---------------------------------|---------------------------------|
A|---------------------------------|---------------------------------|---------------------------------|
F|---------------------------------|---------------------------------|---------------------------------|
C|-3---0---0---3---5---6---5---0---|-3---5---0---1---3---0---0---3---|-5---6---5---0---3---5---0---1---|
G|-3---0---0---3---5---6---5---0---|-3---5---0---1---3---0---0---3---|-5---6---5---0---3---5---0---1---|
C|-3---0---0---3---5---6---5---0---|-3---5---0---1---3---0---0---3---|-5---6---5---0---3---5---0---1---|


D|---------------------------------|----------------------------------------|--------------------------------------------|
A|---------------------------------|----------------------------------------|--------------------------------------------|
F|---------------------------------|----------------------------------------|--------------------------------------------|
C|-3---0---0---3---5---6---5---0---|-3---5---0---1---3---0---------------10-|----------------7-----7---------------8-----|
G|-3---0---0---3---5---6---5---0---|-3---5---0---1---3---0---------------8--|----------------5-----5---------------6-----|
C|-3---0---0---3---5---6---5---0---|-3---5---0---1---3---0---0--0--0--0-----|----0--0--0--0-----0------0--0--0--0--------|


D|---------------------------------------------|----------------------------------------------------|
A|---------------------------------------------|----------------------------------------------------|
F|---------------------------------------------|----------------------------------------------------|
C|---------------------10--------------7-------|---------3---------------------------------------10-|
G|---------------------8---------------5-------|-----1-------1-----------3--5--3--0--------------8--|
C|---------0--0--0--0------0--0--0--0------0---|-3---------------3---5---------------0--0--0--0-----|


D|--------------------------------------------------|------------------------------------------------|
A|--------------------------------------------------|------------------------------------------------|
F|--------------------------------------------------|------------------------------------------------|
C|----------------7---------------------------------|----3-------------------10--------------7-------|
G|----------------5---------------3--5--3--0------1-|--------1---------------8---------------5-------|
C|----0--0--0--0------0---3---5---------------3-----|------------0--0--0--0------0--0--0--0------0---|


D|----------------------------------------------------|------------------------------------------------|
A|----------------------------------------------------|------------------------------------------------|
F|----------------------------------------------------|------------------------------------------------|
C|---------3---------------------------------------10-|----------------7----------9--8--7--6--5--4--3--|
G|-----1-------1-----------3--5--3--0--------------8--|----------------5----------9--8--7--6--5--4--3--|
C|-3---------------3---5---------------0--0--0--0-----|----0--0--0--0------0---0--9--8--7--6--5--4--3--|


D|------------------|--------------------|--------------------|-------------|----------------------------|
A|------------------|--------------------|--------------------|-------------|----------------------------|
F|------------------|------7-------------|---------7---7------|-------------|----------------------------|
C|-2--1--0----------|------7-------------|---------7---7------|-------------|----------------------------|
G|-2--1--0----------|------5-------------|---------5---5------|-------------|-----------5----8--5-----8--|
C|-2--1--0----------|------0-------------|---------0---0------|------7------|------0---------------7-----|


D|----------------------------------|----------------------------------|----------------|
A|----------------------------------|----------------------------------|----------------|
F|----------------------------------|----------------------------------|----------------|
C|----------------------------------|----------------------------------|----------------|
G|------8----------5----8--5-----8--|------8----------5----8--5-----8--|------8---------|
C|---------0----0-------------7-----|---------0----0-------------7-----|---------7------|


D|----------------------------|----------------------------------|----------------------------------|
A|----------------------------|----------------------------------|----------------------------------|
F|----------------------------|----------------------------------|----------------------------------|
C|----------------------------|----------------------------------|----------------------------------|
G|-----------5----8--5-----8--|------8----------5----8--5-----8--|------8----------5----8--5-----8--|
C|------0---------------7-----|---------0----0-------------7-----|---------0----0-------------7-----|


D|----------------|----------------------------|----------------------------------|
A|----------------|----------------------------|----------------------------------|
F|----------------|----------------------------|----------------------------------|
C|----------------|----------------------------|----------------------------------|
G|------8---------|-----------5----8--5-----8--|------8----------5----8--5-----8--|
C|---------7------|------0---------------7-----|---------0----0-------------7-----|


D|----------------------------------|----------------|----------------------------|
A|----------------------------------|----------------|----------------------------|
F|----------------------------------|----------------|----------------------------|
C|----------------------------------|----------------|----------------------------|
G|------8----------5----8--5-----8--|------8---------|-----------5----8--5-----8--|
C|---------0----0-------------7-----|---------7------|------0---------------7-----|


D|----------------------------------|----------------------------------|----------------|
A|----------------------------------|----------------------------------|----------------|
F|----------------------------------|----------------------------------|----------------|
C|----------------------------------|----------------------------------|----------------|
G|------8----------5----8--5-----8--|------8----------5----8--5-----8--|------8---------|
C|---------0----0-------------7-----|---------0----0-------------7-----|---------7------|


D|----------------------------|----------------------------------|----------------------------------|
A|----------------------------|----------------------------------|----------------------------------|
F|----------------------------|----------------------------------|----------------------------------|
C|----------------------------|----------------------------------|----------------------------------|
G|-----------5----8--5-----8--|------8----------5----8--5-----8--|------8----------5----8--5-----8--|
C|------0---------------7-----|---------0----0-------------7-----|---------0----0-------------7-----|


D|----------------|----------------------------|----------------------------------|
A|----------------|----------------------------|----------------------------------|
F|----------------|----------------------------|----------------------------------|
C|----------------|----------------------------|----------------------------------|
G|------8---------|-----------5----8--5-----8--|------8----------5----8--5-----8--|
C|---------7------|------0---------------7-----|---------0----0-------------7-----|


D|----------------------------------|----------------|----------------------------|
A|----------------------------------|----------------|----------------------------|
F|----------------------------------|----------------|----------------------------|
C|----------------------------------|----------------|----------------------------|
G|------8----------5----8--5-----8--|------8---------|-----------5----8--5-----8--|
C|---------0----0-------------7-----|---------7------|------0---------------7-----|


D|----------------------------------|----------------------------------|----------------|
A|----------------------------------|----------------------------------|----------------|
F|----------------------------------|----------------------------------|----------------|
C|----------------------------------|----------------------------------|----------------|
G|------8----------5----8--5-----8--|------8----------5----8--5-----8--|------8---------|
C|---------0----0-------------7-----|---------0----0-------------7-----|---------7------|


D|----------------------------|----------------------------------|----------------------------------|
A|----------------------------|----------------------------------|----------------------------------|
F|----------------------------|----------------------------------|----------------------------------|
C|----------------------------|----------------------------------|----------------------------------|
G|-----------5----8--5-----8--|------8----------5----8--5-----8--|------8----------5----8--5-----8--|
C|------0---------------7-----|---------0----0-------------7-----|---------0----0-------------7-----|


D|----------------|----------------------------|----------------------------------|
A|----------------|----------------------------|----------------------------------|
F|----------------|----------------------------|----------------------------------|
C|----------------|----------------------------|----------------------------------|
G|------8---------|-----------5----8--5-----8--|------8----------5----8--5-----8--|
C|---------7------|------0---------------7-----|---------0----0-------------7-----|


D|----------------------------------|----------------|---------------------|-------------|
A|----------------------------------|----------------|---------------------|-------------|
F|----------------------------------|----------------|------7--------------|-------------|
C|----------------------------------|----------------|---------------------|-------------|
G|------8----------5----8--5-----8--|------8---------|---------------------|-------------|
C|---------0----0-------------7-----|---------7------|---------------------|-------------|





Track 2: dime2

D|--------|--------|--------|--------|--------|--------|--------|--------|--------|
A|--------|--------|--------|--------|--------|--------|--------|--------|--------|
F|--------|--------|--------|--------|--------|--------|--------|--------|--------|
C|--------|--------|--------|--------|--------|--------|--------|--------|--------|
G|--------|--------|--------|--------|--------|--------|--------|--------|--------|
C|--------|--------|--------|--------|--------|--------|--------|--------|--------|


D|--------|--------|--------|--------|--------|--------|--------|--------|--------|
A|--------|--------|--------|--------|--------|--------|--------|--------|--------|
F|--------|--------|--------|--------|--------|--------|--------|--------|--------|
C|--------|--------|--------|--------|--------|--------|--------|--------|--------|
G|--------|--------|--------|--------|--------|--------|--------|--------|--------|
C|--------|--------|--------|--------|--------|--------|--------|--------|--------|


D|--------|--------|--------|--------|--------|--------|--------|--------|--------|
A|--------|--------|--------|--------|--------|--------|--------|--------|--------|
F|--------|--------|--------|--------|--------|--------|--------|--------|--------|
C|--------|--------|--------|--------|--------|--------|--------|--------|--------|
G|--------|--------|--------|--------|--------|--------|--------|--------|--------|
C|--------|--------|--------|--------|--------|--------|--------|--------|--------|


D|--------|--------|--------|--------|--------|--------|--------|--------|--------|
A|--------|--------|--------|--------|--------|--------|--------|--------|--------|
F|--------|--------|--------|--------|--------|--------|--------|--------|--------|
C|--------|--------|--------|--------|--------|--------|--------|--------|--------|
G|--------|--------|--------|--------|--------|--------|--------|--------|--------|
C|--------|--------|--------|--------|--------|--------|--------|--------|--------|


D|--------|--------|--------|--------|--------|--------|--------|--------|--------|
A|--------|--------|--------|--------|--------|--------|--------|--------|--------|
F|--------|--------|--------|--------|--------|--------|--------|--------|--------|
C|--------|--------|--------|--------|--------|--------|--------|--------|--------|
G|--------|--------|--------|--------|--------|--------|--------|--------|--------|
C|--------|--------|--------|--------|--------|--------|--------|--------|--------|


D|--------|--------|--------|--------|--------|--------|--------|--------|--------|
A|--------|--------|--------|--------|--------|--------|--------|--------|--------|
F|--------|--------|--------|--------|--------|--------|--------|--------|--------|
C|--------|--------|--------|--------|--------|--------|--------|--------|--------|
G|--------|--------|--------|--------|--------|--------|--------|--------|--------|
C|--------|--------|--------|--------|--------|--------|--------|--------|--------|


D|--------|--------|--------|--------|--------|--------|--------|--------|--------|
A|--------|--------|--------|--------|--------|--------|--------|--------|--------|
F|--------|--------|--------|--------|--------|--------|--------|--------|--------|
C|--------|--------|--------|--------|--------|--------|--------|--------|--------|
G|--------|--------|--------|--------|--------|--------|--------|--------|--------|
C|--------|--------|--------|--------|--------|--------|--------|--------|--------|


D|--------|--------|--------|--------|--------|--------|--------|--------|--------|
A|--------|--------|--------|--------|--------|--------|--------|--------|--------|
F|--------|--------|--------|--------|--------|--------|--------|--------|--------|
C|--------|--------|--------|--------|--------|--------|--------|--------|--------|
G|--------|--------|--------|--------|--------|--------|--------|--------|--------|
C|--------|--------|--------|--------|--------|--------|--------|--------|--------|


D|--------|--------|--------|--------|--------|--------|--------|--------|--------|
A|--------|--------|--------|--------|--------|--------|--------|--------|--------|
F|--------|--------|--------|--------|--------|--------|--------|--------|--------|
C|--------|--------|--------|--------|--------|--------|--------|--------|--------|
G|--------|--------|--------|--------|--------|--------|--------|--------|--------|
C|--------|--------|--------|--------|--------|--------|--------|--------|--------|


D|--------|--------|--------|--------|--------|--------|--------|--------|--------|
A|--------|--------|--------|--------|--------|--------|--------|--------|--------|
F|--------|--------|--------|--------|--------|--------|--------|--------|--------|
C|--------|--------|--------|--------|--------|--------|--------|--------|--------|
G|--------|--------|--------|--------|--------|--------|--------|--------|--------|
C|--------|--------|--------|--------|--------|--------|--------|--------|--------|


D|--------|--------|--------|--------|--------|--------|--------|--------|--------|
A|--------|--------|--------|--------|--------|--------|--------|--------|--------|
F|--------|--------|--------|--------|--------|--------|--------|--------|--------|
C|--------|--------|--------|--------|--------|--------|--------|--------|--------|
G|--------|--------|--------|--------|--------|--------|--------|--------|--------|
C|--------|--------|--------|--------|--------|--------|--------|--------|--------|


D|--------|--------|--------|--------|--------|--------|--------|--------|--------|
A|--------|--------|--------|--------|--------|--------|--------|--------|--------|
F|--------|--------|--------|--------|--------|--------|--------|--------|--------|
C|--------|--------|--------|--------|--------|--------|--------|--------|--------|
G|--------|--------|--------|--------|--------|--------|--------|--------|--------|
C|--------|--------|--------|--------|--------|--------|--------|--------|--------|


D|--------|--------|--------|--------|--------|--------|--------|--------|--------|
A|--------|--------|--------|--------|--------|--------|--------|--------|--------|
F|--------|--------|--------|--------|--------|--------|--------|--------|--------|
C|--------|--------|--------|--------|--------|--------|--------|--------|--------|
G|--------|--------|--------|--------|--------|--------|--------|--------|--------|
C|--------|--------|--------|--------|--------|--------|--------|--------|--------|


D|--------|--------|--------|--------|-------------|--------------------------------|
A|--------|--------|--------|--------|-------------|--------------------------------|
F|--------|--------|--------|--------|-------------|------3---3--3---3--3---3--3----|
C|--------|--------|--------|--------|-------------|--------------------------------|
G|--------|--------|--------|--------|-------------|--------------------------------|
C|--------|--------|--------|--------|-------------|--------------------------------|


D|---------22-----|------17----18---|--------|--------|--------|--------|--------|
A|----------------|-----------------|--------|--------|--------|--------|--------|
F|----3-----------|-----------------|--------|--------|--------|--------|--------|
C|----------------|-----------------|--------|--------|--------|--------|--------|
G|----------------|-----------------|--------|--------|--------|--------|--------|
C|----------------|-----------------|--------|--------|--------|--------|--------|


D|--------|--------|--------|--------|--------|--------|--------|--------|--------|
A|--------|--------|--------|--------|--------|--------|--------|--------|--------|
F|--------|--------|--------|--------|--------|--------|--------|--------|--------|
C|--------|--------|--------|--------|--------|--------|--------|--------|--------|
G|--------|--------|--------|--------|--------|--------|--------|--------|--------|
C|--------|--------|--------|--------|--------|--------|--------|--------|--------|


D|--------|--------|--------|--------|--------|--------|
A|--------|--------|--------|--------|--------|--------|
F|--------|--------|--------|--------|--------|--------|
C|--------|--------|--------|--------|--------|--------|
G|--------|--------|--------|--------|--------|--------|
C|--------|--------|--------|--------|--------|--------|





Track 3: Dime1

D|--------|--------|--------|--------|--------|--------|--------|--------|--------|
A|--------|--------|--------|--------|--------|--------|--------|--------|--------|
F|--------|--------|--------|--------|--------|--------|--------|--------|--------|
C|--------|--------|--------|--------|--------|--------|--------|--------|--------|
G|--------|--------|--------|--------|--------|--------|--------|--------|--------|
C|--------|--------|--------|--------|--------|--------|--------|--------|--------|


D|--------|--------|--------|--------|--------|--------|--------|--------|--------|
A|--------|--------|--------|--------|--------|--------|--------|--------|--------|
F|--------|--------|--------|--------|--------|--------|--------|--------|--------|
C|--------|--------|--------|--------|--------|--------|--------|--------|--------|
G|--------|--------|--------|--------|--------|--------|--------|--------|--------|
C|--------|--------|--------|--------|--------|--------|--------|--------|--------|


D|--------|--------|--------|--------|--------|--------|--------|--------|--------|
A|--------|--------|--------|--------|--------|--------|--------|--------|--------|
F|--------|--------|--------|--------|--------|--------|--------|--------|--------|
C|--------|--------|--------|--------|--------|--------|--------|--------|--------|
G|--------|--------|--------|--------|--------|--------|--------|--------|--------|
C|--------|--------|--------|--------|--------|--------|--------|--------|--------|


D|--------|--------|--------|--------|--------|--------|--------|--------|--------|
A|--------|--------|--------|--------|--------|--------|--------|--------|--------|
F|--------|--------|--------|--------|--------|--------|--------|--------|--------|
C|--------|--------|--------|--------|--------|--------|--------|--------|--------|
G|--------|--------|--------|--------|--------|--------|--------|--------|--------|
C|--------|--------|--------|--------|--------|--------|--------|--------|--------|


D|--------|--------|--------|--------|--------|--------|--------|--------|--------|
A|--------|--------|--------|--------|--------|--------|--------|--------|--------|
F|--------|--------|--------|--------|--------|--------|--------|--------|--------|
C|--------|--------|--------|--------|--------|--------|--------|--------|--------|
G|--------|--------|--------|--------|--------|--------|--------|--------|--------|
C|--------|--------|--------|--------|--------|--------|--------|--------|--------|


D|--------|--------|--------|--------|--------|--------|--------|--------|--------|
A|--------|--------|--------|--------|--------|--------|--------|--------|--------|
F|--------|--------|--------|--------|--------|--------|--------|--------|--------|
C|--------|--------|--------|--------|--------|--------|--------|--------|--------|
G|--------|--------|--------|--------|--------|--------|--------|--------|--------|
C|--------|--------|--------|--------|--------|--------|--------|--------|--------|


D|--------|--------|--------|--------|--------|--------|--------|--------|--------|
A|--------|--------|--------|--------|--------|--------|--------|--------|--------|
F|--------|--------|--------|--------|--------|--------|--------|--------|--------|
C|--------|--------|--------|--------|--------|--------|--------|--------|--------|
G|--------|--------|--------|--------|--------|--------|--------|--------|--------|
C|--------|--------|--------|--------|--------|--------|--------|--------|--------|


D|--------|--------|--------|--------|--------|--------|--------|--------|--------|
A|--------|--------|--------|--------|--------|--------|--------|--------|--------|
F|--------|--------|--------|--------|--------|--------|--------|--------|--------|
C|--------|--------|--------|--------|--------|--------|--------|--------|--------|
G|--------|--------|--------|--------|--------|--------|--------|--------|--------|
C|--------|--------|--------|--------|--------|--------|--------|--------|--------|


D|--------|--------|--------|--------|--------|--------|--------|--------|--------|
A|--------|--------|--------|--------|--------|--------|--------|--------|--------|
F|--------|--------|--------|--------|--------|--------|--------|--------|--------|
C|--------|--------|--------|--------|--------|--------|--------|--------|--------|
G|--------|--------|--------|--------|--------|--------|--------|--------|--------|
C|--------|--------|--------|--------|--------|--------|--------|--------|--------|


D|--------|--------|--------|--------|--------|--------|--------|--------|--------|
A|--------|--------|--------|--------|--------|--------|--------|--------|--------|
F|--------|--------|--------|--------|--------|--------|--------|--------|--------|
C|--------|--------|--------|--------|--------|--------|--------|--------|--------|
G|--------|--------|--------|--------|--------|--------|--------|--------|--------|
C|--------|--------|--------|--------|--------|--------|--------|--------|--------|


D|--------|--------|--------|--------|--------|--------|--------|--------|--------|
A|--------|--------|--------|--------|--------|--------|--------|--------|--------|
F|--------|--------|--------|--------|--------|--------|--------|--------|--------|
C|--------|--------|--------|--------|--------|--------|--------|--------|--------|
G|--------|--------|--------|--------|--------|--------|--------|--------|--------|
C|--------|--------|--------|--------|--------|--------|--------|--------|--------|


D|--------|--------|--------|--------|--------|--------|--------|--------|--------|
A|--------|--------|--------|--------|--------|--------|--------|--------|--------|
F|--------|--------|--------|--------|--------|--------|--------|--------|--------|
C|--------|--------|--------|--------|--------|--------|--------|--------|--------|
G|--------|--------|--------|--------|--------|--------|--------|--------|--------|
C|--------|--------|--------|--------|--------|--------|--------|--------|--------|


D|--------|--------|--------|--------|--------|--------|--------|--------|--------|
A|--------|--------|--------|--------|--------|--------|--------|--------|--------|
F|--------|--------|--------|--------|--------|--------|--------|--------|--------|
C|--------|--------|--------|--------|--------|--------|--------|--------|--------|
G|--------|--------|--------|--------|--------|--------|--------|--------|--------|
C|--------|--------|--------|--------|--------|--------|--------|--------|--------|


D|--------|--------|--------|--------|--------|--------|--------|--------|------13-----|
A|--------|--------|--------|--------|--------|--------|--------|--------|-------------|
F|--------|--------|--------|--------|--------|--------|--------|--------|-------------|
C|--------|--------|--------|--------|--------|--------|--------|--------|-------------|
G|--------|--------|--------|--------|--------|--------|--------|--------|-------------|
C|--------|--------|--------|--------|--------|--------|--------|--------|-------------|


D|-------------|------22-----|------17----18---|------13-----|-------------|------22-----|
A|------14-----|-------------|-----------------|-------------|------14-----|-------------|
F|-------------|-------------|-----------------|-------------|-------------|-------------|
C|-------------|-------------|-----------------|-------------|-------------|-------------|
G|-------------|-------------|-----------------|-------------|-------------|-------------|
C|-------------|-------------|-----------------|-------------|-------------|-------------|


D|------18----20---|------17-----|-------------|------22-----|------18----20---|------17-----|
A|-----------------|-------------|------18-----|-------------|-----------------|-------------|
F|-----------------|-------------|-------------|-------------|-----------------|-------------|
C|-----------------|-------------|-------------|-------------|-----------------|-------------|
G|-----------------|-------------|-------------|-------------|-----------------|-------------|
C|-----------------|-------------|-------------|-------------|-----------------|-------------|


D|-------------|---------22-----|------18----20---|------17-----|-------------|---------------------|
A|-------------|----------------|-----------------|-------------|-------------|---------------------|
F|------3------|-----3----------|-----------------|-------------|------3------|------3--------------|
C|-------------|----------------|-----------------|-------------|-------------|---------------------|
G|-------------|----------------|-----------------|-------------|-------------|---------------------|
C|-------------|----------------|-----------------|-------------|-------------|---------------------|


D|-------------|
A|-------------|
F|-------------|
C|-------------|
G|-------------|
C|-------------|





Track 4: Vinnie Paul - Drums

D|--------0--0--0--0--0--|--------0----------0--0--0--0--0-------0--|-----------0--0--0--0--0-------0----------|
B|-----------------------|------------------------------------------|------------------------------------------|
G|-----------------------|------------------------------------------|------------------------------------------|
D|-----------------------|------------------------------------------|------------------------------------------|
B|-----------------------|------------------------------------------|------------------------------------------|


D|-0--0--0--0--0--0--0--0--0--0--0--0--0--0--0--0--------------0----|------------------0--------------0-----------------------0-------|
B|------------------------------------------------------------------|------------------------------------------------------------0----|
G|------------------------------------------------------------------|---------------------------------------------------------------0-|
D|------------------------------------------------------------------|-----------------------------------------------------------------|
B|-------------------------------------------------0--0--0--0--0--0-|---0--0--0--0--0--0--0--0--0--0--0--0--0--0--0--0--0--0--0--0--0-|


D|------0-----------------------0--------------------0--------------|-0-----------------------0-----------0-----------------------0----|
B|---------0--------------------------------------------------------|----------------------------0-----------0-------------------------|
G|------------0-----------------------------------------------------|-------------------------------0-----------0----------------------|
D|------------------------------------------------------------------|------------------------------------------------------------------|
B|---0--0--0--0--0--0--0--0--0--0--0--0--0--0--0--0--0--0--0--0--0--|-0--0--0--0--0--0--0--0--0--0--0--0--0--0--0--0--0--0--0--0--0--0-|


D|------------------0--------------0-----------------------0-------|------0-----------------------0--------------------0--------------|
B|------------------------------------------------------------0----|---------0--------------------------------------------------------|
G|---------------------------------------------------------------0-|------------0-----------------------------------------------------|
D|-----------------------------------------------------------------|------------------------------------------------------------------|
B|---0--0--0--0--0--0--0--0--0--0--0--0--0--0--0--0--0--0--0--0--0-|---0--0--0--0--0--0--0--0--0--0--0--0--0--0--0--0--0--0--0--0--0--|


D|-0-----------------------0-----------0-------------------|---------0--------------------|
B|----------------------------0-----------0----------------|------------------------------|
G|-------------------------------0-----------0-------------|------------------------------|
D|---------------------------------------------------------|------------------------------|
B|-0--0--0--0--0--0--0--0--0--0--0--0--0--0--0--0--0-------|-----0------------0---0-------|


D|------0-----------------|---------0--------------------|------0-----------------|
B|------------------------|------------------------------|------------------------|
G|------------------------|------------------------------|------------------------|
D|------------------------|------------------------------|------------------------|
B|----------------0-------|-----0------------0---0-------|----------------0-------|


D|---------0--------------------|------0-----------------|---------0--------------------|
B|------------------------------|------------------------|------------------------------|
G|------------------------------|------------------------|------------------------------|
D|------------------------------|------------------------|------------------------------|
B|-----0------------0---0-------|----------------0-------|-----0------------0---0---0---|


D|---------------------------------|---------0--------------------|---------0-----------------------|
B|---------------------------------|------------------------------|---------------------------------|
G|---------------------------------|------------------------------|---------------------------------|
D|---------------------------------|------------------------------|---------------------------------|
B|-----0---0-------0---0---0-------|-----0------------0---0-------|-----0-------0-------0---0-------|


D|---------0--------------------|---------0---------0-------------------|---------0--------------------|
B|------------------------------|---------------------------------------|------------------------------|
G|------------------------------|---------------------------------------|------------------------------|
D|------------------------------|---------------------------------------|------------------------------|
B|-----0------------0---0-------|-----0----------------0--0--0--0---0---|-0---0------------0---0-------|


D|---------0-----------------------|---------0--------------------|---------0---------------0--0--0--0--|
B|---------------------------------|------------------------------|-------------------------------------|
G|---------------------------------|------------------------------|-------------------------------------|
D|---------------------------------|------------------------------|-------------------------------------|
B|-----0-------0-------0---0-------|-----0------------0---0-------|-----0-------0-------0---0-----------|


D|-0--0--0--0--0--0--0--0--0--0--0--0--0--0--0--0--|-0--0--0--0--------------0--------------------0--------------|
B|-------------------------------------------------|-------------------------------------------------------------|
G|-------------------------------------------------|-------------------------------------------------------------|
D|-------------------------------------------------|-------------------------------------------------------------|
B|-------------------------------------------------|-------------0--0--0--0--0--0--0--0--0--0--0--0--0--0--0--0--|


D|-0-----------------------0-----------0-----------------------0----|------------------0--------------0-----------------------0-------|
B|----------------------------0-----------0-------------------------|------------------------------------------------------------0----|
G|-------------------------------0-----------0----------------------|---------------------------------------------------------------0-|
D|------------------------------------------------------------------|-----------------------------------------------------------------|
B|-0--0--0--0--0--0--0--0--0--0--0--0--0--0--0--0--0--0--0--0--0--0-|---0--0--0--0--0--0--0--0--0--0--0--0--0--0--0--0--0--0--0--0--0-|


D|------0-----------------------0--------------------0--------------|-0-----------------------0-----------0-----------------------0----|
B|---------0--------------------------------------------------------|----------------------------0-----------0-------------------------|
G|------------0-----------------------------------------------------|-------------------------------0-----------0----------------------|
D|------------------------------------------------------------------|------------------------------------------------------------------|
B|---0--0--0--0--0--0--0--0--0--0--0--0--0--0--0--0--0--0--0--0--0--|-0--0--0--0--0--0--0--0--0--0--0--0--0--0--0--0--0--0--0--0--0--0-|


D|------------------0--------------0-----------------------0-------|------0---------------------------0----|
B|------------------------------------------------------------0----|---------0-----------------------------|
G|---------------------------------------------------------------0-|------------0--------------------------|
D|-----------------------------------------------------------------|---------------------------------------|
B|---0--0--0--0--0--0--0--0--0--0--0--0--0--0--0--0--0--0--0--0--0-|---0--0--0--0--0--0-----------0--------|


D|----------------------0----|----------------------0----|----------------------0----|
B|---------------------------|---------------------------|---------------------------|
G|---------------------------|---------------------------|---------------------------|
D|---------------------------|---------------------------|---------------------------|
B|-----0---0-----------------|------0-----------0--------|-----0---0-----------------|


D|----------------------0----|----------------------0----|----------------------0----|
B|---------------------------|---------------------------|---------------------------|
G|---------------------------|---------------------------|---------------------------|
D|---------------------------|---------------------------|---------------------------|
B|------0-----------0--------|-----0---0-----------------|------0-----------0--------|


D|---------------------------------|-------------------------0----|-------------------------0-------|
B|---------------------------------|------------------------------|---------------------------------|
G|---------------------------------|------------------------------|---------------------------------|
D|---------------------------------|------------------------------|---------------------------------|
B|-----0---0---0-------0---0-------|-0---0---0-----------0--------|-----0---0-----------0-------0---|


D|-------------------------0----|-------------------------0---------|-0---------------------------0----|
B|------------------------------|-----------------------------------|----------------------------------|
G|------------------------------|-----------------------------------|----------------------------------|
D|------------------------------|-----------------------------------|----------------------------------|
B|-----0---0-----------0--------|-----0---0-----------0-------------|----0--0--0--0---0---0---0--------|


D|-------------------------0-------|-------------------------0----|-------------------------0-------|
B|---------------------------------|------------------------------|---------------------------------|
G|---------------------------------|------------------------------|---------------------------------|
D|---------------------------------|------------------------------|---------------------------------|
B|-----0---0-----------0-------0---|-----0---0-----------0--------|-----0---0-----------0-------0---|


D|---------0--0--0--0--0--0--0--0--0--0--0--0--|-0--0--0--0--0--0--0--0--0--0--0--0--------------0----|
B|---------------------------------------------|------------------------------------------------------|
G|---------------------------------------------|------------------------------------------------------|
D|---------------------------------------------|------------------------------------------------------|
B|-----0---0-----------------------------------|-------------------------------------0--0--0--0--0--0-|


D|------------------0--------------0-----------------------0-------|------0-----------------------0--------------------0--------------|
B|------------------------------------------------------------0----|---------0--------------------------------------------------------|
G|---------------------------------------------------------------0-|------------0-----------------------------------------------------|
D|-----------------------------------------------------------------|------------------------------------------------------------------|
B|---0--0--0--0--0--0--0--0--0--0--0--0--0--0--0--0--0--0--0--0--0-|---0--0--0--0--0--0--0--0--0--0--0--0--0--0--0--0--0--0--0--0--0--|


D|-0-----------------------0-----------0-----------------------0----|------------------0--------------0-----------------------0-------|
B|----------------------------0-----------0-------------------------|------------------------------------------------------------0----|
G|-------------------------------0-----------0----------------------|---------------------------------------------------------------0-|
D|------------------------------------------------------------------|-----------------------------------------------------------------|
B|-0--0--0--0--0--0--0--0--0--0--0--0--0--0--0--0--0--0--0--0--0--0-|---0--0--0--0--0--0--0--0--0--0--0--0--0--0--0--0--0--0--0--0--0-|


D|------0-----------------------0--------------------0--------------|-0-----------------------0-----------0-----------0--0--0--0--0--|
B|---------0--------------------------------------------------------|----------------------------0-----------0-----------------------|
G|------------0-----------------------------------------------------|-------------------------------0-----------0--------------------|
D|------------------------------------------------------------------|----------------------------------------------------------------|
B|---0--0--0--0--0--0--0--0--0--0--0--0--0--0--0--0--0--0--0--0--0--|-0--0--0--0--0--0--0--0--0--0--0--0--0--0--0--0-----------------|


D|--------0----------0--0--0--0--0-------0--|-----------0--0--0--0--0-------0----------|
B|------------------------------------------|------------------------------------------|
G|------------------------------------------|------------------------------------------|
D|------------------------------------------|------------------------------------------|
B|------------------------------------------|------------------------------------------|


D|-0--0--0--0--0-----------------------|------------------------|---------------------------|
B|-------------------------------------|----------0-------------|-----0---0-----------------|
G|-------------------------------------|-------------------0----|-----0---0-----------------|
D|-------------------------------------|------------------------|--------------0---0--------|
B|--------------------------------0----|-0----0-------0----0----|-0-------0----0-------0----|


D|------------------------|-----------------------------------|------------------------|
B|-----0------------------|-0--0--0--0------------------------|----------0-------------|
G|--------------0---------|------------------0--0--0--0-------|-------------------0----|
D|------------------------|-----------------------------------|------------------------|
B|-0-------0----0----0----|-0-----------0----0-----------0----|-0----0-------0----0----|


D|---------------------------|---------------------------|-------------------------------------|
B|-----0---0-----------------|-----0---------------------|-------------------------------------|
G|-----0---0-----------------|--------------0------------|-------------------------------------|
D|--------------0---0--------|---------------------------|-------------------------------------|
B|-0-------0----0-------0----|-0-------0----0----0---0---|-0---0---0---0---0---0---0--0--0-----|


D|-------------0-----------------------------------|-------------0-----------------------------------|
B|-------------------------------------------------|-------------------------------------------------|
G|-------------------------------------------------|-------------------------------------------------|
D|-------------------------------------------------|-------------------------------------------------|
B|-0--0--0-----0--0--0-----0--0--0-----0--0--0-----|-0--0--0-----0--0--0-----0--0--0-----0--0--0-----|


D|-------------0-----------------------------------|-------------0-----------------------------------|
B|-------------------------------------------------|-------------------------------------------------|
G|-------------------------------------------------|-------------------------------------------------|
D|-------------------------------------------------|-------------------------------------------------|
B|-0--0--0-----0--0--0-----0--0--0-----0--0--0-----|-0--0--0-----0--0--0-----0--0--0-----0--0--0-----|


D|-------------0-----------------------------------|-------------0-------0---------------|
B|-------------------------------------------------|-------------------------------------|
G|-------------------------------------------------|-------------------------------------|
D|-------------------------------------------------|-------------------------------------|
B|-0--0--0-----0--0--0-----0--0--0-----0--0--0-----|-0--0--0---------0-------0---0---0---|


D|---------0-----------------------|---------0-----------------------|---------0-----------------------|
B|---------------------------------|---------------------------------|---------------------------------|
G|---------------------------------|---------------------------------|---------------------------------|
D|---------------------------------|---------------------------------|---------------------------------|
B|-0---0---0---0---0---0---0---0---|-0---0---0---0---0---0---0---0---|-0---0---0---0---0---0---0---0---|


D|---------0-----------------------|---------0-----------------------|---------0-------0------------|
B|---------------------------------|---------------------------------|------------------------------|
G|---------------------------------|---------------------------------|------------------------------|
D|---------------------------------|---------------------------------|------------------------------|
B|-0---0---0---0---0---0---0---0---|-0---0---0---0---0---0---0---0---|-0---0---0---0---0---0---0----|


D|------------------------|---------------------------|---------------------------|
B|----------0-------------|-----0---0-----------------|-----0---------------------|
G|-------------------0----|-----0---0-----------------|--------------0------------|
D|------------------------|--------------0---0--------|---------------------------|
B|-0----0-------0----0----|-0-------0----0-------0----|-0-------0----0----0---0---|


D|-------------------------------------|-------------0-----------------------------------|
B|-------------------------------------|-------------------------------------------------|
G|-------------------------------------|-------------------------------------------------|
D|-------------------------------------|-------------------------------------------------|
B|-0---0---0---0---0---0---0--0--0-----|-0--0--0-----0--0--0-----0--0--0-----0--0--0-----|


D|-------------0-----------------------------------|-------------0-----------------------------------|
B|-------------------------------------------------|-------------------------------------------------|
G|-------------------------------------------------|-------------------------------------------------|
D|-------------------------------------------------|-------------------------------------------------|
B|-0--0--0-----0--0--0-----0--0--0-----0--0--0-----|-0--0--0-----0--0--0-----0--0--0-----0--0--0-----|


D|-------------0-----------------------------------|-------------0-----------------------------------|
B|-------------------------------------------------|-------------------------------------------------|
G|-------------------------------------------------|-------------------------------------------------|
D|-------------------------------------------------|-------------------------------------------------|
B|-0--0--0-----0--0--0-----0--0--0-----0--0--0-----|-0--0--0-----0--0--0-----0--0--0-----0--0--0-----|


D|-------------0-------0---------------|---------0-----------------------|---------0-----------------------|
B|-------------------------------------|---------------------------------|---------------------------------|
G|-------------------------------------|---------------------------------|---------------------------------|
D|-------------------------------------|---------------------------------|---------------------------------|
B|-0--0--0---------0-------0---0---0---|-0---0---0---0---0---0---0---0---|-0---0---0---0---0---0---0---0---|


D|---------0-----------------------|---------0-----------------------|---------0-----------------------|
B|---------------------------------|---------------------------------|---------------------------------|
G|---------------------------------|---------------------------------|---------------------------------|
D|---------------------------------|---------------------------------|---------------------------------|
B|-0---0---0---0---0---0---0---0---|-0---0---0---0---0---0---0---0---|-0---0---0---0---0---0---0---0---|


D|---------0-------0-------0--0--0--0--0--|--------0----------0--0--0--0--0--0--0--0--0--0--0-|
B|----------------------------------------|---------------------------------------------------|
G|----------------------------------------|---------------------------------------------------|
D|----------------------------------------|---------------------------------------------------|
B|-0---0---0---0---0---0------------------|---------------------------------------------------|


D|---0--0--0--0--0--------------0--------------------0--------------|-0-----------------------0-----------0-----------------------0----|
B|------------------------------------------------------------------|----------------------------0-----------0-------------------------|
G|------------------------------------------------------------------|-------------------------------0-----------0----------------------|
D|------------------------------------------------------------------|------------------------------------------------------------------|
B|------------------0--0--0--0--0--0--0--0--0--0--0--0--0--0--0--0--|-0--0--0--0--0--0--0--0--0--0--0--0--0--0--0--0--0--0--0--0--0--0-|


D|------------------0--------------0-----------------------0-------|------0-----------------------0--------------------0--------------|
B|------------------------------------------------------------0----|---------0--------------------------------------------------------|
G|---------------------------------------------------------------0-|------------0-----------------------------------------------------|
D|-----------------------------------------------------------------|------------------------------------------------------------------|
B|---0--0--0--0--0--0--0--0--0--0--0--0--0--0--0--0--0--0--0--0--0-|---0--0--0--0--0--0--0--0--0--0--0--0--0--0--0--0--0--0--0--0--0--|


D|-0-----------------------0-----------0-----------------------0----|------------------0--------------0---0---0---0---0---0---0---0---|
B|----------------------------0-----------0-------------------------|-----------------------------------------------------------------|
G|-------------------------------0-----------0----------------------|-----------------------------------------------------------------|
D|------------------------------------------------------------------|-----------------------------------------------------------------|
B|-0--0--0--0--0--0--0--0--0--0--0--0--0--0--0--0--0--0--0--0--0--0-|---0--0--0--0--0--0--0--0--0--0--0-0-0-0-0-0-0-0-0-0-0-0-0-0-0-0-|


D|-0---0---0----------|------0-------------|---------0---0---------|------0--------------------0---|
B|--------------------|--------------------|-----------------------|-------------------------------|
G|--------------------|--------------------|-----------------------|-------------------------------|
D|--------------------|--------------------|-----------------------|-------------------------------|
B|-0-0-0-0-0----------|------0-------------|---------0---0---------|------0-----------0--0--0------|


D|-------------------------0--------0--|-------------------------0--------0--|-------------------------0--------0--|
B|-0-----------------------------------|-------------------------------------|-------------------------------------|
G|-----0-------------------------------|-------------------------------------|-------------------------------------|
D|-------------------------------------|-------------------------------------|-------------------------------------|
B|---------0----0---0-0-0-----0--0-----|---------0----0---0-0-0-----0--0-----|---------0----0---0-0-0-----0--0-----|


D|------------------------0---0---|-----0--0------------------0--------0--|-------------------------0--------0--|
B|--------------------------------|---------------------------------------|-------------------------------------|
G|--------------------------------|---------------------------------------|-------------------------------------|
D|--------------------------------|---------------------------------------|-------------------------------------|
B|---------0----0---0--0----------|-----------0----0---0-0-0-----0--0-----|---------0----0---0-0-0-----0--0-----|


D|-------------------------0--------0--|------------------------0---0---|-----0--0------------------0--------0--|
B|-------------------------------------|--------------------------------|---------------------------------------|
G|-------------------------------------|--------------------------------|---------------------------------------|
D|-------------------------------------|--------------------------------|---------------------------------------|
B|---------0----0---0-0-0-----0--0-----|---------0----0---0--0----------|-----------0----0---0-0-0-----0--0-----|


D|-------------------------0--------0--|-------------------------0--------0--|------------------------0---0---|
B|-------------------------------------|-------------------------------------|--------------------------------|
G|-------------------------------------|-------------------------------------|--------------------------------|
D|-------------------------------------|-------------------------------------|--------------------------------|
B|---------0----0---0-0-0-----0--0-----|---------0----0---0-0-0-----0--0-----|---------0----0---0--0----------|


D|-----0--0------------------0--------0--|-------------------------0--------0--|-------------------------0--------0--|
B|---------------------------------------|-------------------------------------|-------------------------------------|
G|---------------------------------------|-------------------------------------|-------------------------------------|
D|---------------------------------------|-------------------------------------|-------------------------------------|
B|-----------0----0---0-0-0-----0--0-----|---------0----0---0-0-0-----0--0-----|---------0----0---0-0-0-----0--0-----|


D|------------------------0---0---|-----0--0------------------0--------0--|-------------------------0--------0--|
B|--------------------------------|---------------------------------------|-------------------------------------|
G|--------------------------------|---------------------------------------|-------------------------------------|
D|--------------------------------|---------------------------------------|-------------------------------------|
B|---------0----0---0--0----------|-----------0----0---0-0-0-----0--0-----|---------0----0---0-0-0-----0--0-----|


D|-------------------------0--------0--|------------------------0---0---|-----0--0------------------0--------0--|
B|-------------------------------------|--------------------------------|---------------------------------------|
G|-------------------------------------|--------------------------------|---------------------------------------|
D|-------------------------------------|--------------------------------|---------------------------------------|
B|---------0----0---0-0-0-----0--0-----|---------0----0---0--0----------|-----------0----0---0-0-0-----0--0-----|


D|-------------------------0--------0--|-------------------------0--------0--|------------------------0---0---|
B|-------------------------------------|-------------------------------------|--------------------------------|
G|-------------------------------------|-------------------------------------|--------------------------------|
D|-------------------------------------|-------------------------------------|--------------------------------|
B|---------0----0---0-0-0-----0--0-----|---------0----0---0-0-0-----0--0-----|---------0----0---0--0----------|


D|-----0--0------------------0--------0--|-------------------------0--------0--|-------------------------0--------0--|
B|---------------------------------------|-------------------------------------|-------------------------------------|
G|---------------------------------------|-------------------------------------|-------------------------------------|
D|---------------------------------------|-------------------------------------|-------------------------------------|
B|-----------0----0---0-0-0-----0--0-----|---------0----0---0-0-0-----0--0-----|---------0----0---0-0-0-----0--0-----|


D|------------------------0---0---|-----0--0------------------0--------0--|-------------------------0--------0--|
B|--------------------------------|---------------------------------------|-------------------------------------|
G|--------------------------------|---------------------------------------|-------------------------------------|
D|--------------------------------|---------------------------------------|-------------------------------------|
B|---------0----0---0--0----------|-----------0----0---0-0-0-----0--0-----|---------0----0---0-0-0-----0--0-----|


D|-------------------------0--------0--|------------------------0---0---|-----0--0------------------0--------0--|
B|-------------------------------------|--------------------------------|---------------------------------------|
G|-------------------------------------|--------------------------------|---------------------------------------|
D|-------------------------------------|--------------------------------|---------------------------------------|
B|---------0----0---0-0-0-----0--0-----|---------0----0---0--0----------|-----------0----0---0-0-0-----0--0-----|


D|-------------------------0--------0--|-------------------------0--------0--|------------------------0---0---|
B|-------------------------------------|-------------------------------------|--------------------------------|
G|-------------------------------------|-------------------------------------|--------------------------------|
D|-------------------------------------|-------------------------------------|--------------------------------|
B|---------0----0---0-0-0-----0--0-----|---------0----0---0-0-0-----0--0-----|---------0----0---0--0----------|


D|-----0--0--0----------|-------------|
B|----------------------|-------------|
G|----------------------|-------------|
D|----------------------|-------------|
B|-----------0----------|-------------|





Track 5: Rex Brown- Bass

F|-----------------------|----------------------------------------|--------------------------------------|
C|-----------------------|----------------------------------------|--------------------------------------|
G|--------------------8--|--------5--------------------8-------5--|---------------------8-------5--------|
C|--------0--0--0--0-----|-----------------0--0--0--0-------------|---------0--0--0--0-------------------|


F|-------------------------------------|----------------------------------------------|
C|-------------------------------------|--------------------------------3-------------|
G|-------------6--------------------8--|----------------5-----------1-------1---------|
C|-0--0--0--0-----------0--0--0--0-----|----0--0--0--0------0---3---------------3---5-|


F|----------------------------------------------------|----------------------------------------------------|
C|----------------------------------------------------|-----------------------------3----------------------|
G|----3--5--3--0--------------8---------------5-------|---------3--5--3--0------1-------1---------------8--|
C|----------------0--0--0--0------0--0--0--0------0---|-3---5---------------3---------------0--0--0--0-----|


F|----------------------------------------------|----------------------------------------------------|
C|--------------------------------3-------------|----------------------------------------------------|
G|----------------5-----------1-------1---------|----3--5--3--0--------------8---------------5-------|
C|----0--0--0--0------0---3---------------3---5-|----------------0--0--0--0------0--0--0--0------0---|


F|------------------------------------------|------------------------------|-------------|
C|-----------------------------3------------|------------------------------|-------------|
G|---------3--5--3--0------1-------1--------|------------------------------|-------------|
C|-3---5---------------3---------------3----|-0---3----0---3---0---8---6---|--------3----|


F|------------------------------|-------------|------------------------------|-------------|
C|------------------------------|-------------|------------------------------|-------------|
G|------------------------------|-------------|------------------------------|-------------|
C|-0---3----0---3---0---8---6---|--------3----|-0---3----0---3---0---8---6---|--------3----|


F|------------------------------|------------------------------|------------------------------|
C|------------------------------|------------------------------|------------------------------|
G|------------------------------|------------------------------|------------------------------|
C|-0---3----0---3---0---8---6---|-----8---6-------8---6---3----|-0---3----0---3---0---8---6---|


F|-------------|------------------------------|-----------------|------------------------------|
C|-------------|------------------------------|-----------------|------------------------------|
G|-------------|------------------------------|-----------------|------------------------------|
C|--------3----|-0---3----0---3---0---8---6---|------9-----3----|-0---3----0---3---0---8---6---|


F|-------------|------------------------------|-----------------|-------------|------------------------------------------|
C|-------------|------------------------------|-----------------|-------------|------------------------------------------|
G|-------------|------------------------------|-----------------|-------------|------------------8---------------5-------|
C|--------3----|-0---3----0---3---0---8---6---|------9-----0----|-------0-----|------0--0--0--0------0--0--0--0------0---|


F|----------------------------------------------------|--------------------------------------------------|
C|---------3------------------------------------------|--------------------------------------------------|
G|-----1-------1-----------3--5--3--0--------------8--|----------------5---------------3--5--3--0------1-|
C|-3---------------3---5---------------0--0--0--0-----|----0--0--0--0------0---3---5---------------3-----|


F|------------------------------------------------|----------------------------------------------------|
C|----3-------------------------------------------|---------3------------------------------------------|
G|--------1---------------8---------------5-------|-----1-------1-----------3--5--3--0--------------8--|
C|------------0--0--0--0------0--0--0--0------0---|-3---------------3---5---------------0--0--0--0-----|


F|--------------------------------------------------|------------------------------|
C|--------------------------------------------------|----3-------------------------|
G|----------------5---------------3--5--3--0------1-|--------1---------------------|
C|----0--0--0--0------0---3---5---------------3-----|------------3----0---3----0---|


F|--------------------|------------------------|--------------------|------------------------|
C|--------------------|------------------------|--------------------|------------------------|
G|--------------------|------------------------|--------------------|------------------------|
C|-3---0---8---6------|------3----0---3----0---|-3---0---8---6------|------3----0---3----0---|


F|--------------------|------------------------|---------------------------------|
C|--------------------|------------------------|---------------------------------|
G|--------------------|------------------------|---------------------------------|
C|-3---0---8---6------|------3----0---3----0---|-3---0---8---6-------8---6-------|


F|---------------------------|--------------------|------------------------|------------------------|
C|---------------------------|--------------------|------------------------|------------------------|
G|---------------------------|--------------------|------------------------|------------------------|
C|-8---6---3----0---3----0---|-3---0---8---6------|------3----0---3----0---|-3---0---8---6-----9----|


F|------------------------|--------------------|------------------------|------------------------|
C|------------------------|--------------------|------------------------|------------------------|
G|------------------------|--------------------|------------------------|------------------------|
C|------3----0---3----0---|-3---0---8---6------|------3----0---3----0---|-3---0---8---6-----9----|


F|-------------|-----------------------|----------------------------------------------|
C|-------------|-----------------------|--------------------------------3-------------|
G|-------------|--------------------8--|----------------5-----------1-------1---------|
C|------0------|-0------0--0--0--0-----|----0--0--0--0------0---3---------------3---5-|


F|----------------------------------------------------|----------------------------------------------------|
C|----------------------------------------------------|-----------------------------3----------------------|
G|----3--5--3--0--------------8---------------5-------|---------3--5--3--0------1-------1---------------8--|
C|----------------0--0--0--0------0--0--0--0------0---|-3---5---------------3---------------0--0--0--0-----|


F|----------------------------------------------|----------------------------------------------------|
C|--------------------------------3-------------|----------------------------------------------------|
G|----------------5-----------1-------1---------|----3--5--3--0--------------8---------------5-------|
C|----0--0--0--0------0---3---------------3---5-|----------------0--0--0--0------0--0--0--0------0---|


F|----------------------------------------------------|----------------------------------------|
C|-----------------------------3----------------------|----------------------------------------|
G|---------3--5--3--0------1-------1---------------8--|--------5--------------------8-------5--|
C|-3---5---------------3---------------0--0--0--0-----|-----------------0--0--0--0-------------|


F|--------------------------------------|-----------------------------------|------------------------|
C|--------------------------------------|-----------------------------------|------------------------|
G|---------------------8-------5--------|-------------6-------6-------------|------------------------|
C|---------0--0--0--0-------------------|-0--0--0--0-------------------5----|-0---5----0---3----5----|


F|------------------------|------------------------|------------------------|------------------------|
C|------------------------|------------------------|------------------------|------------------------|
G|------------------------|------------------------|------------------------|------------------------|
C|-0---5----0---3----5----|-0---5----0---3----5----|-0---5----0---3----5----|-0---5----0---3----5----|


F|------------------------|---------------------------|---------------------------------|
C|------------------------|---------------------------|---------------------------------|
G|------------------------|---------------------------|---------------------------------|
C|-0---5----0---3----5----|-0---5----0---3----5---5---|-5---5---5---5---5---5---0---3---|


F|---------------------------------|---------------------------------|---------------------------------|
C|---------------------------------|---------------------------------|---------------------------------|
G|---------------------------------|---------------------------------|---------------------------------|
C|-5---6---5---0---3---5---0---1---|-3---0---0---3---5---6---5---0---|-3---5---0---1---3---0---0---3---|


F|---------------------------------|---------------------------------|---------------------------------|
C|---------------------------------|---------------------------------|---------------------------------|
G|---------------------------------|---------------------------------|---------------------------------|
C|-5---6---5---0---3---5---0---1---|-3---0---0---3---5---6---5---0---|-3---5---0---1---3---0---0---3---|


F|---------------------------------|---------------------------------|---------------------------------|
C|---------------------------------|---------------------------------|---------------------------------|
G|---------------------------------|---------------------------------|---------------------------------|
C|-5---6---5---0---3---5---0---1---|-3---0---0---3---5---6---5---0---|-3---5---0---1---3---0---0---3---|


F|---------------------------------|---------------------------------|------------------------------|
C|---------------------------------|---------------------------------|------------------------------|
G|---------------------------------|---------------------------------|------------------------------|
C|-5---6---5---0---3---5---0---1---|-3---0---0---3---5---6---5---0---|-3---5---0---1---3---0---5----|


F|------------------------|------------------------|---------------------------|---------------------------------|
C|------------------------|------------------------|---------------------------|---------------------------------|
G|------------------------|------------------------|---------------------------|---------------------------------|
C|-0---5----0---3----5----|-0---5----0---3----5----|-0---5----0---3----5---5---|-5---5---5---5---5---5---0---3---|


F|---------------------------------|---------------------------------|---------------------------------|
C|---------------------------------|---------------------------------|---------------------------------|
G|---------------------------------|---------------------------------|---------------------------------|
C|-5---6---5---0---3---5---0---1---|-3---0---0---3---5---6---5---0---|-3---5---0---1---3---0---0---3---|


F|---------------------------------|---------------------------------|---------------------------------|
C|---------------------------------|---------------------------------|---------------------------------|
G|---------------------------------|---------------------------------|---------------------------------|
C|-5---6---5---0---3---5---0---1---|-3---0---0---3---5---6---5---0---|-3---5---0---1---3---0---0---3---|


F|---------------------------------|---------------------------------|---------------------------------|
C|---------------------------------|---------------------------------|---------------------------------|
G|---------------------------------|---------------------------------|---------------------------------|
C|-5---6---5---0---3---5---0---1---|-3---0---0---3---5---6---5---0---|-3---5---0---1---3---0---0---3---|


F|---------------------------------|---------------------------------|----------------------------------------|
C|---------------------------------|---------------------------------|----------------------------------------|
G|---------------------------------|---------------------------------|-------------------------------------8--|
C|-5---6---5---0---3---5---0---1---|-3---0---0---3---5---6---5---0---|-3---5---0---1---3---0---0--0--0--0-----|


F|-----------------------------------|---------------------------------------------|
C|-----------------------------------|---------------------------------------------|
G|--------5--------------------6-----|---------------------8---------------5-------|
C|-----------------0--0--0--0--------|---------0--0--0--0------0--0--0--0------0---|


F|----------------------------------------------------|--------------------------------------------------|
C|---------3------------------------------------------|--------------------------------------------------|
G|-----1-------1-----------3--5--3--0--------------8--|----------------5---------------3--5--3--0------1-|
C|-3---------------3---5---------------0--0--0--0-----|----0--0--0--0------0---3---5---------------3-----|


F|------------------------------------------------|----------------------------------------------------|
C|----3-------------------------------------------|---------3------------------------------------------|
G|--------1---------------8---------------5-------|-----1-------1-----------3--5--3--0--------------8--|
C|------------0--0--0--0------0--0--0--0------0---|-3---------------3---5---------------0--0--0--0-----|


F|------------------------------------------------|---------------------------------|
C|------------------------------------------------|---------------------------------|
G|----------------5-------------------------------|----------------5----8--5-----8--|
C|----0--0--0--0------0---0--9--8--7--6--5--4--3--|-2--1--0---0---------------7-----|


F|-------------------------------|-------------------------------|-----------------------|
C|-------------------------------|-------------------------------|-----------------------|
G|------8-------5----8--5-----8--|------8-------5----8--5-----8--|------8----------------|
C|---------0---------------7-----|---------0---------------7-----|---------5-----0---3---|


F|-------------------------------|-------------------------------|-------------------------------|
C|-------------------------------|-------------------------------|-------------------------------|
G|--------------5----8--5-----8--|------8-------5----8--5-----8--|------8-------5----8--5-----8--|
C|-5---3---0---------------7-----|---------0---------------7-----|---------0---------------7-----|


F|-----------------------|-------------------------------|-------------------------------|
C|-----------------------|-------------------------------|-------------------------------|
G|------8----------------|--------------5----8--5-----8--|------8-------5----8--5-----8--|
C|---------5-----0---3---|-5---3---0---------------7-----|---------0---------------7-----|


F|-------------------------------|-----------------------|-------------------------------|
C|-------------------------------|-----------------------|-------------------------------|
G|------8-------5----8--5-----8--|------8----------------|--------------5----8--5-----8--|
C|---------0---------------7-----|---------5-----0---3---|-5---3---0---------------7-----|


F|-------------------------------|-------------------------------|-----------------------|
C|-------------------------------|-------------------------------|-----------------------|
G|------8-------5----8--5-----8--|------8-------5----8--5-----8--|------8----------------|
C|---------0---------------7-----|---------0---------------7-----|---------5-----0---3---|


F|-------------------------------|-------------------------------|-------------------------------|
C|-------------------------------|-------------------------------|-------------------------------|
G|--------------5----8--5-----8--|------8-------5----8--5-----8--|------8-------5----8--5-----8--|
C|-5---3---0---------------7-----|---------0---------------7-----|---------0---------------7-----|


F|-----------------------|-------------------------------|-------------------------------|
C|-----------------------|-------------------------------|-------------------------------|
G|------8----------------|--------------5----8--5-----8--|------8-------5----8--5-----8--|
C|---------5-----0---3---|-5---3---0---------------7-----|---------0---------------7-----|


F|-------------------------------|-----------------------|-------------------------------|
C|-------------------------------|-----------------------|-------------------------------|
G|------8-------5----8--5-----8--|------8----------------|--------------5----8--5-----8--|
C|---------0---------------7-----|---------5-----0---3---|-5---3---0---------------7-----|


F|-------------------------------|-------------------------------|-----------------------|
C|-------------------------------|-------------------------------|-----------------------|
G|------8-------5----8--5-----8--|------8-------5----8--5-----8--|------8----------------|
C|---------0---------------7-----|---------0---------------7-----|---------5-----0---3---|


F|-------------------------------|-------------------------------|-------------------------------|
C|-------------------------------|-------------------------------|-------------------------------|
G|--------------5----8--5-----8--|------8-------5----8--5-----8--|------8-------5----8--5-----8--|
C|-5---3---0---------------7-----|---------0---------------7-----|---------0---------------7-----|


F|-----------------------|-------------------------------|-------------------------------|
C|-----------------------|-------------------------------|-------------------------------|
G|------8----------------|--------------5----8--5-----8--|------8-------5----8--5-----8--|
C|---------5-----0---3---|-5---3---0---------------7-----|---------0---------------7-----|


F|-------------------------------|-----------------------|-------------------------------|
C|-------------------------------|-----------------------|-------------------------------|
G|------8-------5----8--5-----8--|------8----------------|--------------5----8--5-----8--|
C|---------0---------------7-----|---------5-----0---3---|-5---3---0---------------7-----|


F|-------------------------------|-------------------------------|-----------------------|
C|-------------------------------|-------------------------------|-----------------------|
G|------8-------5----8--5-----8--|------8-------5----8--5-----8--|------8----------------|
C|---------0---------------7-----|---------0---------------7-----|---------5-----0---3---|


F|---------------------|----------------|
C|---------------------|----------------|
G|---------------------|----------------|
C|-5---3---12----------|----------------|