Menu:

 

Search:

 

pantera - hollow:

 



Title: Hollow
Artist: 
Album: Vulgar Display Of Power
Author: Pantera


Track 1: Left side harmony guitar

D#|-----------------|--------------------|-----------------------|--------------------|
A#|-----------------|--------------------|-----12--15----15--15--|-15--15-------------|
F#|-----------------|----------9---12----|-12--------------------|---------16---------|
C#|------------10---|------10------------|-----------------------|---------------10---|
G#|-----------------|--------------------|-----------------------|--------------------|
D#|-----------------|--------------------|-----------------------|--------------------|


D#|--------------------|--------------------------|---------------------|--------------------|
A#|--------------------|--------------------------|---------------------|--------------------|
F#|----------9---12----|-12-12-16-----------------|---------------------|----------9---12----|
C#|------10------------|-----------------16--16---|-------14--14---10---|------10------------|
G#|--------------------|-----------14-------------|-12------------------|--------------------|
D#|--------------------|--------------------------|---------------------|--------------------|


D#|-----------------------|------------------------|--------------------|--------------------------|
A#|-----12--15----15--15--|-13---13--13---13-------|--------------------|--------------------------|
F#|-12--------------------|------------------------|----------9---12----|-12-12-16-----------------|
C#|-----------------------|-------------------10---|------10------------|-----------------16--16---|
G#|-----------------------|------------------------|--------------------|-----------14-------------|
D#|-----------------------|------------------------|--------------------|--------------------------|


D#|-----------------------|-------------|-------------|-----------------|--------|
A#|-----------------------|-------------|-------------|-----------------|--------|
F#|-----------------------|-------------|-------------|-----------------|--------|
C#|-------14---14-14-14---|-------14----|------14-----|-14--------------|--------|
G#|-12--------------------|-------------|-------------|-----------------|--------|
D#|-----------------------|-------------|-------------|-----------------|--------|


D#|--------|--------|--------|--------|--------|--------|--------|--------|--------|
A#|--------|--------|--------|--------|--------|--------|--------|--------|--------|
F#|--------|--------|--------|--------|--------|--------|--------|--------|--------|
C#|--------|--------|--------|--------|--------|--------|--------|--------|--------|
G#|--------|--------|--------|--------|--------|--------|--------|--------|--------|
D#|--------|--------|--------|--------|--------|--------|--------|--------|--------|


D#|--------|--------|--------|--------|-------------|--------------------|-----------------------|
A#|--------|--------|--------|--------|-------------|--------------------|-----12--15----15--15--|
F#|--------|--------|--------|--------|-------------|----------9---12----|-12--------------------|
C#|--------|--------|--------|--------|--------10---|------10------------|-----------------------|
G#|--------|--------|--------|--------|-------------|--------------------|-----------------------|
D#|--------|--------|--------|--------|-------------|--------------------|-----------------------|


D#|--------------------------|--------------------|--------------------------|---------------------|
A#|-13---10--10---10-10------|--------------------|--------------------------|---------------------|
F#|--------------------------|----------9---12----|-12-12-16-----------------|---------------------|
C#|---------------------10---|------10------------|-----------------16--16---|-------14--14---10---|
G#|--------------------------|--------------------|-----------14-------------|-12------------------|
D#|--------------------------|--------------------|--------------------------|---------------------|


D#|--------------------|-----------------------|------------------------|--------------------|
A#|--------------------|-----12--15----15--15--|-13---13--13---13-------|--------------------|
F#|----------9---12----|-12--------------------|------------------------|----------9---12----|
C#|------10------------|-----------------------|-------------------10---|------10------------|
G#|--------------------|-----------------------|------------------------|--------------------|
D#|--------------------|-----------------------|------------------------|--------------------|


D#|--------------------------|-------------------------|-------------|-------------|
A#|--------------------------|-------------------------|-------------|-------------|
F#|-12-12-16-----------------|-------------------------|-------------|-------------|
C#|-----------------16--16---|-------14---1414141414---|-------14----|------14-----|
G#|-----------14-------------|-12----------------------|-------------|-------------|
D#|--------------------------|-------------------------|-------------|-------------|


D#|-----------------|--------|--------|--------|--------|--------|--------|--------|
A#|-----------------|--------|--------|--------|--------|--------|--------|--------|
F#|-----------------|--------|--------|--------|--------|--------|--------|--------|
C#|-14--------------|--------|--------|--------|--------|--------|--------|--------|
G#|-----------------|--------|--------|--------|--------|--------|--------|--------|
D#|-----------------|--------|--------|--------|--------|--------|--------|--------|


D#|--------|--------|--------|--------|--------|--------|--------|--------|--------|
A#|--------|--------|--------|--------|--------|--------|--------|--------|--------|
F#|--------|--------|--------|--------|--------|--------|--------|--------|--------|
C#|--------|--------|--------|--------|--------|--------|--------|--------|--------|
G#|--------|--------|--------|--------|--------|--------|--------|--------|--------|
D#|--------|--------|--------|--------|--------|--------|--------|--------|--------|


D#|--------|--------|--------|--------|--------|--------|--------|--------|--------|
A#|--------|--------|--------|--------|--------|--------|--------|--------|--------|
F#|--------|--------|--------|--------|--------|--------|--------|--------|--------|
C#|--------|--------|--------|--------|--------|--------|--------|--------|--------|
G#|--------|--------|--------|--------|--------|--------|--------|--------|--------|
D#|--------|--------|--------|--------|--------|--------|--------|--------|--------|


D#|--------|--------|--------|--------|--------|--------|--------|--------|--------|
A#|--------|--------|--------|--------|--------|--------|--------|--------|--------|
F#|--------|--------|--------|--------|--------|--------|--------|--------|--------|
C#|--------|--------|--------|--------|--------|--------|--------|--------|--------|
G#|--------|--------|--------|--------|--------|--------|--------|--------|--------|
D#|--------|--------|--------|--------|--------|--------|--------|--------|--------|


D#|--------|--------|--------|--------|--------|--------|--------|--------|--------|
A#|--------|--------|--------|--------|--------|--------|--------|--------|--------|
F#|--------|--------|--------|--------|--------|--------|--------|--------|--------|
C#|--------|--------|--------|--------|--------|--------|--------|--------|--------|
G#|--------|--------|--------|--------|--------|--------|--------|--------|--------|
D#|--------|--------|--------|--------|--------|--------|--------|--------|--------|


D#|--------|--------|--------|--------|--------|--------|--------|--------|--------|
A#|--------|--------|--------|--------|--------|--------|--------|--------|--------|
F#|--------|--------|--------|--------|--------|--------|--------|--------|--------|
C#|--------|--------|--------|--------|--------|--------|--------|--------|--------|
G#|--------|--------|--------|--------|--------|--------|--------|--------|--------|
D#|--------|--------|--------|--------|--------|--------|--------|--------|--------|


D#|--------|--------|--------|--------|--------|--------|--------|--------|--------|
A#|--------|--------|--------|--------|--------|--------|--------|--------|--------|
F#|--------|--------|--------|--------|--------|--------|--------|--------|--------|
C#|--------|--------|--------|--------|--------|--------|--------|--------|--------|
G#|--------|--------|--------|--------|--------|--------|--------|--------|--------|
D#|--------|--------|--------|--------|--------|--------|--------|--------|--------|


D#|--------|--------|--------|--------|--------|--------|--------|--------|--------|
A#|--------|--------|--------|--------|--------|--------|--------|--------|--------|
F#|--------|--------|--------|--------|--------|--------|--------|--------|--------|
C#|--------|--------|--------|--------|--------|--------|--------|--------|--------|
G#|--------|--------|--------|--------|--------|--------|--------|--------|--------|
D#|--------|--------|--------|--------|--------|--------|--------|--------|--------|


D#|--------|--------|--------|--------|--------|--------|--------|--------|--------|
A#|--------|--------|--------|--------|--------|--------|--------|--------|--------|
F#|--------|--------|--------|--------|--------|--------|--------|--------|--------|
C#|--------|--------|--------|--------|--------|--------|--------|--------|--------|
G#|--------|--------|--------|--------|--------|--------|--------|--------|--------|
D#|--------|--------|--------|--------|--------|--------|--------|--------|--------|


D#|--------|--------|--------|--------|--------|--------|--------|--------|--------|
A#|--------|--------|--------|--------|--------|--------|--------|--------|--------|
F#|--------|--------|--------|--------|--------|--------|--------|--------|--------|
C#|--------|--------|--------|--------|--------|--------|--------|--------|--------|
G#|--------|--------|--------|--------|--------|--------|--------|--------|--------|
D#|--------|--------|--------|--------|--------|--------|--------|--------|--------|


D#|--------|--------|--------|--------|--------|--------|--------|--------|--------|
A#|--------|--------|--------|--------|--------|--------|--------|--------|--------|
F#|--------|--------|--------|--------|--------|--------|--------|--------|--------|
C#|--------|--------|--------|--------|--------|--------|--------|--------|--------|
G#|--------|--------|--------|--------|--------|--------|--------|--------|--------|
D#|--------|--------|--------|--------|--------|--------|--------|--------|--------|


D#|--------|--------|--------|--------|--------|--------|--------|--------|--------|
A#|--------|--------|--------|--------|--------|--------|--------|--------|--------|
F#|--------|--------|--------|--------|--------|--------|--------|--------|--------|
C#|--------|--------|--------|--------|--------|--------|--------|--------|--------|
G#|--------|--------|--------|--------|--------|--------|--------|--------|--------|
D#|--------|--------|--------|--------|--------|--------|--------|--------|--------|


D#|--------|--------|--------|--------|--------|--------|--------|--------|--------|
A#|--------|--------|--------|--------|--------|--------|--------|--------|--------|
F#|--------|--------|--------|--------|--------|--------|--------|--------|--------|
C#|--------|--------|--------|--------|--------|--------|--------|--------|--------|
G#|--------|--------|--------|--------|--------|--------|--------|--------|--------|
D#|--------|--------|--------|--------|--------|--------|--------|--------|--------|


D#|--------|--------|--------|--------|--------|--------|--------|--------|--------|
A#|--------|--------|--------|--------|--------|--------|--------|--------|--------|
F#|--------|--------|--------|--------|--------|--------|--------|--------|--------|
C#|--------|--------|--------|--------|--------|--------|--------|--------|--------|
G#|--------|--------|--------|--------|--------|--------|--------|--------|--------|
D#|--------|--------|--------|--------|--------|--------|--------|--------|--------|


D#|--------|--------|--------|--------|--------|--------|--------|--------|--------|
A#|--------|--------|--------|--------|--------|--------|--------|--------|--------|
F#|--------|--------|--------|--------|--------|--------|--------|--------|--------|
C#|--------|--------|--------|--------|--------|--------|--------|--------|--------|
G#|--------|--------|--------|--------|--------|--------|--------|--------|--------|
D#|--------|--------|--------|--------|--------|--------|--------|--------|--------|


D#|--------|--------|--------|--------|--------|--------|--------|--------|--------|
A#|--------|--------|--------|--------|--------|--------|--------|--------|--------|
F#|--------|--------|--------|--------|--------|--------|--------|--------|--------|
C#|--------|--------|--------|--------|--------|--------|--------|--------|--------|
G#|--------|--------|--------|--------|--------|--------|--------|--------|--------|
D#|--------|--------|--------|--------|--------|--------|--------|--------|--------|


D#|--------|--------|-----------------------|---------------------------------|---------------------------------|
A#|--------|--------|-----------------------|---------------------------------|---------------------------------|
F#|--------|--------|-----------------------|---------------------------------|---------------------------------|
C#|--------|--------|-----------------------|---------------------------------|---------------------------------|
G#|--------|--------|-----------2---3-------|-2---3-------2---3-------2---3---|-----2---3-------2---3-------2---|
D#|--------|--------|-------0-----------0---|---------0-----------0-----------|-0-----------0-----------0-------|


D#|---------------------------------|-----------------|--------|--------|--------|
A#|---------------------------------|-----------------|--------|--------|--------|
F#|---------------------------------|-----------------|--------|--------|--------|
C#|---------------------------------|-----------------|--------|--------|--------|
G#|-3-------2---3-------2---3-------|-2----2----------|--------|--------|--------|
D#|-----0-----------0-----------0---|-----------------|--------|--------|--------|


D#|--------|--------|--------|--------|--------|--------|--------|--------|--------|
A#|--------|--------|--------|--------|--------|--------|--------|--------|--------|
F#|--------|--------|--------|--------|--------|--------|--------|--------|--------|
C#|--------|--------|--------|--------|--------|--------|--------|--------|--------|
G#|--------|--------|--------|--------|--------|--------|--------|--------|--------|
D#|--------|--------|--------|--------|--------|--------|--------|--------|--------|





Track 2: Right side harmony guitar

D#|-----------------|--------------------|-----------------------|--------------------|
A#|-----------------|--------------------|---------12----12--12--|-12--12-------------|
F#|-----------------|--------------------|-----12----------------|---------12---------|
C#|-----------------|----------10--14----|-14--------------------|--------------------|
G#|------------12---|------12------------|-----------------------|---------------12---|
D#|-----------------|--------------------|-----------------------|--------------------|


D#|--------------------|--------------------------|---------------------|--------------------|
A#|--------------------|--------------------------|---------------------|--------------------|
F#|--------------------|--------------------------|---------------------|--------------------|
C#|----------10--14----|-14-14-17-----------------|---------------------|----------10--14----|
G#|------12------------|-----------------17--17---|-------15--15---12---|------12------------|
D#|--------------------|-----------15-------------|-14------------------|--------------------|


D#|-----------------------|------------------------|--------------------|--------------------------|
A#|---------12----12--12--|-10---10--10---10-------|--------------------|--------------------------|
F#|-----12----------------|------------------------|--------------------|--------------------------|
C#|-14--------------------|------------------------|----------10--14----|-14-14-17-----------------|
G#|-----------------------|-------------------12---|------12------------|-----------------17--17---|
D#|-----------------------|------------------------|--------------------|-----------15-------------|


D#|-----------------------|-------------|-------------|-----------------|--------|
A#|-----------------------|-------------|-------------|-----------------|--------|
F#|-----------------------|-------------|-------------|-----------------|--------|
C#|-----------------------|-------------|-------------|-----------------|--------|
G#|-------15---15-15-15---|-------15----|------15-----|-15--------------|--------|
D#|-14--------------------|-------------|-------------|-----------------|--------|


D#|--------|--------|--------|--------|--------|--------|--------|--------|--------|
A#|--------|--------|--------|--------|--------|--------|--------|--------|--------|
F#|--------|--------|--------|--------|--------|--------|--------|--------|--------|
C#|--------|--------|--------|--------|--------|--------|--------|--------|--------|
G#|--------|--------|--------|--------|--------|--------|--------|--------|--------|
D#|--------|--------|--------|--------|--------|--------|--------|--------|--------|


D#|--------|--------|--------|--------|-------------|--------------------|-----------------------|
A#|--------|--------|--------|--------|-------------|--------------------|---------12----12--12--|
F#|--------|--------|--------|--------|-------------|--------------------|-----12----------------|
C#|--------|--------|--------|--------|-------------|----------10--14----|-14--------------------|
G#|--------|--------|--------|--------|--------12---|------12------------|-----------------------|
D#|--------|--------|--------|--------|-------------|--------------------|-----------------------|


D#|--------------------------|--------------------|--------------------------|---------------------|
A#|-10-----------------------|--------------------|--------------------------|---------------------|
F#|------9---9----9--9-------|--------------------|--------------------------|---------------------|
C#|--------------------------|----------10--14----|-14-14-17-----------------|---------------------|
G#|---------------------12---|------12------------|-----------------17--17---|-------15--15---12---|
D#|--------------------------|--------------------|-----------15-------------|-14------------------|


D#|--------------------|-----------------------|------------------------|--------------------|
A#|--------------------|---------12----12--12--|-10---10--10---10-------|--------------------|
F#|--------------------|-----12----------------|------------------------|--------------------|
C#|----------10--14----|-14--------------------|------------------------|----------10--14----|
G#|------12------------|-----------------------|-------------------12---|------12------------|
D#|--------------------|-----------------------|------------------------|--------------------|


D#|--------------------------|-------------------------|-------------|-------------|
A#|--------------------------|-------------------------|-------------|-------------|
F#|--------------------------|-------------------------|-------------|-------------|
C#|-14-14-17-----------------|-------------------------|-------------|-------------|
G#|-----------------17--17---|-------15---1515151515---|-------15----|------15-----|
D#|-----------15-------------|-14----------------------|-------------|-------------|


D#|-----------------|--------|--------|--------|--------|--------|--------|--------|
A#|-----------------|--------|--------|--------|--------|--------|--------|--------|
F#|-----------------|--------|--------|--------|--------|--------|--------|--------|
C#|-----------------|--------|--------|--------|--------|--------|--------|--------|
G#|-15--------------|--------|--------|--------|--------|--------|--------|--------|
D#|-----------------|--------|--------|--------|--------|--------|--------|--------|


D#|--------|--------|--------|--------|--------|--------|--------|--------|--------|
A#|--------|--------|--------|--------|--------|--------|--------|--------|--------|
F#|--------|--------|--------|--------|--------|--------|--------|--------|--------|
C#|--------|--------|--------|--------|--------|--------|--------|--------|--------|
G#|--------|--------|--------|--------|--------|--------|--------|--------|--------|
D#|--------|--------|--------|--------|--------|--------|--------|--------|--------|


D#|--------|--------|--------|--------|--------|--------|--------|--------|--------|
A#|--------|--------|--------|--------|--------|--------|--------|--------|--------|
F#|--------|--------|--------|--------|--------|--------|--------|--------|--------|
C#|--------|--------|--------|--------|--------|--------|--------|--------|--------|
G#|--------|--------|--------|--------|--------|--------|--------|--------|--------|
D#|--------|--------|--------|--------|--------|--------|--------|--------|--------|


D#|--------|--------|--------|--------|--------|--------|--------|--------|--------|
A#|--------|--------|--------|--------|--------|--------|--------|--------|--------|
F#|--------|--------|--------|--------|--------|--------|--------|--------|--------|
C#|--------|--------|--------|--------|--------|--------|--------|--------|--------|
G#|--------|--------|--------|--------|--------|--------|--------|--------|--------|
D#|--------|--------|--------|--------|--------|--------|--------|--------|--------|


D#|--------|--------|--------|--------|--------|--------|--------|--------|--------|
A#|--------|--------|--------|--------|--------|--------|--------|--------|--------|
F#|--------|--------|--------|--------|--------|--------|--------|--------|--------|
C#|--------|--------|--------|--------|--------|--------|--------|--------|--------|
G#|--------|--------|--------|--------|--------|--------|--------|--------|--------|
D#|--------|--------|--------|--------|--------|--------|--------|--------|--------|


D#|--------|--------|--------|--------|--------|--------|--------|--------|--------|
A#|--------|--------|--------|--------|--------|--------|--------|--------|--------|
F#|--------|--------|--------|--------|--------|--------|--------|--------|--------|
C#|--------|--------|--------|--------|--------|--------|--------|--------|--------|
G#|--------|--------|--------|--------|--------|--------|--------|--------|--------|
D#|--------|--------|--------|--------|--------|--------|--------|--------|--------|


D#|--------|--------|--------|--------|--------|--------|--------|--------|--------|
A#|--------|--------|--------|--------|--------|--------|--------|--------|--------|
F#|--------|--------|--------|--------|--------|--------|--------|--------|--------|
C#|--------|--------|--------|--------|--------|--------|--------|--------|--------|
G#|--------|--------|--------|--------|--------|--------|--------|--------|--------|
D#|--------|--------|--------|--------|--------|--------|--------|--------|--------|


D#|--------|--------|--------|--------|--------|--------|--------|--------|--------|
A#|--------|--------|--------|--------|--------|--------|--------|--------|--------|
F#|--------|--------|--------|--------|--------|--------|--------|--------|--------|
C#|--------|--------|--------|--------|--------|--------|--------|--------|--------|
G#|--------|--------|--------|--------|--------|--------|--------|--------|--------|
D#|--------|--------|--------|--------|--------|--------|--------|--------|--------|


D#|--------|--------|--------|--------|--------|--------|--------|--------|--------|
A#|--------|--------|--------|--------|--------|--------|--------|--------|--------|
F#|--------|--------|--------|--------|--------|--------|--------|--------|--------|
C#|--------|--------|--------|--------|--------|--------|--------|--------|--------|
G#|--------|--------|--------|--------|--------|--------|--------|--------|--------|
D#|--------|--------|--------|--------|--------|--------|--------|--------|--------|


D#|--------|--------|--------|--------|--------|--------|--------|--------|--------|
A#|--------|--------|--------|--------|--------|--------|--------|--------|--------|
F#|--------|--------|--------|--------|--------|--------|--------|--------|--------|
C#|--------|--------|--------|--------|--------|--------|--------|--------|--------|
G#|--------|--------|--------|--------|--------|--------|--------|--------|--------|
D#|--------|--------|--------|--------|--------|--------|--------|--------|--------|


D#|--------|--------|--------|--------|--------|--------|--------|--------|--------|
A#|--------|--------|--------|--------|--------|--------|--------|--------|--------|
F#|--------|--------|--------|--------|--------|--------|--------|--------|--------|
C#|--------|--------|--------|--------|--------|--------|--------|--------|--------|
G#|--------|--------|--------|--------|--------|--------|--------|--------|--------|
D#|--------|--------|--------|--------|--------|--------|--------|--------|--------|


D#|--------|--------|--------|--------|--------|--------|--------|--------|--------|
A#|--------|--------|--------|--------|--------|--------|--------|--------|--------|
F#|--------|--------|--------|--------|--------|--------|--------|--------|--------|
C#|--------|--------|--------|--------|--------|--------|--------|--------|--------|
G#|--------|--------|--------|--------|--------|--------|--------|--------|--------|
D#|--------|--------|--------|--------|--------|--------|--------|--------|--------|


D#|--------|--------|--------|--------|--------|--------|--------|--------|--------|
A#|--------|--------|--------|--------|--------|--------|--------|--------|--------|
F#|--------|--------|--------|--------|--------|--------|--------|--------|--------|
C#|--------|--------|--------|--------|--------|--------|--------|--------|--------|
G#|--------|--------|--------|--------|--------|--------|--------|--------|--------|
D#|--------|--------|--------|--------|--------|--------|--------|--------|--------|


D#|--------|--------|--------|--------|--------|--------|--------|--------|--------|
A#|--------|--------|--------|--------|--------|--------|--------|--------|--------|
F#|--------|--------|--------|--------|--------|--------|--------|--------|--------|
C#|--------|--------|--------|--------|--------|--------|--------|--------|--------|
G#|--------|--------|--------|--------|--------|--------|--------|--------|--------|
D#|--------|--------|--------|--------|--------|--------|--------|--------|--------|


D#|--------|--------|--------|--------|--------|--------|--------|--------|--------|
A#|--------|--------|--------|--------|--------|--------|--------|--------|--------|
F#|--------|--------|--------|--------|--------|--------|--------|--------|--------|
C#|--------|--------|--------|--------|--------|--------|--------|--------|--------|
G#|--------|--------|--------|--------|--------|--------|--------|--------|--------|
D#|--------|--------|--------|--------|--------|--------|--------|--------|--------|


D#|--------|--------|--------|--------|--------|--------|--------|--------|--------|
A#|--------|--------|--------|--------|--------|--------|--------|--------|--------|
F#|--------|--------|--------|--------|--------|--------|--------|--------|--------|
C#|--------|--------|--------|--------|--------|--------|--------|--------|--------|
G#|--------|--------|--------|--------|--------|--------|--------|--------|--------|
D#|--------|--------|--------|--------|--------|--------|--------|--------|--------|


D#|--------|--------|-----------------------|---------------------------------|---------------------------------|
A#|--------|--------|-----------------------|---------------------------------|---------------------------------|
F#|--------|--------|-----------------------|---------------------------------|---------------------------------|
C#|--------|--------|-----------------------|---------------------------------|-----------------1---1-------1---|
G#|--------|--------|-----------2---3-------|-2---3-------2---3-------2---3---|-----2---3-----------------------|
D#|--------|--------|-------0-----------0---|---------0-----------0-----------|-0-----------0-----------0-------|


D#|---------------------------------|-----------------|--------|--------|--------|
A#|---------------------------------|-----------------|--------|--------|--------|
F#|---------------------------------|-----------------|--------|--------|--------|
C#|-1-------1---1-------1---1-------|-1----1----------|--------|--------|--------|
G#|---------------------------------|-----------------|--------|--------|--------|
D#|-----0-----------0-----------0---|-----------------|--------|--------|--------|


D#|--------|--------|--------|--------|--------|--------|--------|--------|--------|
A#|--------|--------|--------|--------|--------|--------|--------|--------|--------|
F#|--------|--------|--------|--------|--------|--------|--------|--------|--------|
C#|--------|--------|--------|--------|--------|--------|--------|--------|--------|
G#|--------|--------|--------|--------|--------|--------|--------|--------|--------|
D#|--------|--------|--------|--------|--------|--------|--------|--------|--------|





Track 3: Clean electric with chorus and reverb

D#|--------------------|---------------------------------|---------------------------------|
A#|--------------------|-----0-----------------------0---|---------------------0-----------|
F#|--------------------|-5-------5---------------5-------|-5---------------5-------5-------|
C#|----------------2---|-------------2-------2-----------|-----2-------2-------------------|
G#|------------0-------|-----------------3---------------|-----------------------------3---|
D#|--------------------|---------------------------------|---------3-----------------------|


D#|---------------------------------|---------------------------------|---------------------------------|
A#|-------------0-------------------|-----0-----------------------0---|---------------------0-----------|
F#|---------5-------5---------------|-5-------5---------------5-------|-5---------------5-------5-------|
C#|-----2---------------2-------2---|-------------2-------2-----------|-----2-------2---------------2---|
G#|-0-----------------------0-------|-----------------3---------------|---------------------------------|
D#|---------------------------------|---------------------------------|---------3-----------------------|


D#|---------------------------------|---------------------------------|---------------------------------|
A#|-------------0-------------------|-----0-----------------------0---|---------------------0-----------|
F#|-----------------5---------------|-5-------5---------------5-------|-5---------------5-------5-------|
C#|---------4-------------------2---|-------------2-------2-----------|-----2-------2-------------------|
G#|-----3---------------3---0-------|-----------------3---------------|-----------------------------3---|
D#|-2-------------------------------|---------------------------------|---------3-----------------------|


D#|---------------------------------|---------------------------------|---------------------------------|
A#|-------------0-------------------|-----0-----------------------0---|---------------------0-----------|
F#|---------5-------5---------------|-5-------5---------------5-------|-5---------------5-------5-------|
C#|-----2---------------2-------2---|-------------2-------2-----------|-----2-------2---------------2---|
G#|-0-----------------------0-------|-----------------3---------------|---------------------------------|
D#|---------------------------------|---------------------------------|---------3-----------------------|


D#|---------------------------------|---------------------------------|---------------------------------|
A#|-------------0-------------------|-----0-----------------------0---|---------------------0-----------|
F#|-----------------5---------------|-5-------5---------------5-------|-5---------------5-------5-------|
C#|---------4-------------------2---|---------------------2-----------|-------------2-------------------|
G#|-----3---------------3---0-------|-------------2---3---------------|-----3-----------------------3---|
D#|-2-------------------------------|---------------------------------|---------3-----------------------|


D#|---------------------------------|---------------------------------|---------------------------------|
A#|-------------0-------------------|-----0-----------------------0---|---------------------0-----------|
F#|---------5-------5---------------|-5-------5---------------5-------|-5---------------5-------5-------|
C#|-----2---------------2-------2---|---------------------2-----------|-------------2---------------2---|
G#|-0-----------------------0-------|-------------2---3---------------|-----3---------------------------|
D#|---------------------------------|---------------------------------|---------3-----------------------|


D#|------------------------------|-------------|-------------|--------------------|
A#|-------------0----------------|-------------|-------------|--------------------|
F#|-----------------5------------|-------------|-------------|--------------------|
C#|---------4---------------14---|-------14----|------14-----|-14-------------2---|
G#|-----3---------------3--------|-------------|-------------|------------0-------|
D#|-2----------------------------|-------------|-------------|--------------------|


D#|---------------------------------|---------------------------------|---------------------------------|
A#|-----0-----------------------0---|---------------------0-----------|-------------0-------------------|
F#|-5-------5---------------5-------|-5---------------5-------5-------|-----------------5---------------|
C#|---------------------2-----------|-------------2---------------2---|---------4-------------------2---|
G#|-------------2---3---------------|-----3---------------------------|-----3---------------3-----------|
D#|---------------------------------|---------3-----------------------|-2-----------------------0-------|


D#|---------------------------------|---------------------------------|---------------------------------|
A#|-----0-----------------------0---|---------------------0-----------|-------------0-------------------|
F#|-5-------5---------------5-------|-5-----------------------5-------|-----------------5---------------|
C#|-------------2-------2-----------|-----2-----------0-----------0---|---------0-----------0-----------|
G#|---------------------------------|-------------3-------------------|-----3-----------------------2---|
D#|-----------------0---------------|---------2-----------------------|-2-----------------------3-------|


D#|---------------------------------|---------------------------------|----------------|
A#|-----0-----------------------0---|---------------------0-----------|----------------|
F#|---------5-----------------------|-5-----------------------5-------|----------------|
C#|-0-----------0-----------0-------|-----0-----------3---------------|------------2---|
G#|---------------------2-----------|-------------5---------------5---|--------0-------|
D#|-----------------3---------------|---------4-----------------------|-4--------------|


D#|---------------------------------|---------------------------------|---------------------------------|
A#|-----0-----------------------0---|---------------------0-----------|-------------0-------------------|
F#|-5-------5---------------5-------|-5---------------5-------5-------|---------5-------5---------------|
C#|-------------2-------2-----------|-----2-------2-------------------|-----2---------------2-------2---|
G#|-----------------3---------------|-----------------------------3---|-0-----------------------0-------|
D#|---------------------------------|---------3-----------------------|---------------------------------|


D#|---------------------------------|---------------------------------|---------------------------------|
A#|-----0-----------------------0---|---------------------0-----------|-------------0-------------------|
F#|-5-------5---------------5-------|-5---------------5-------5-------|-----------------5---------------|
C#|---------------------2-----------|-----2-------2---------------2---|---------4-------------------2---|
G#|-------------0---3---------------|---------------------------------|-----3---------------3---0-------|
D#|---------------------------------|---------3-----------------------|-2-------------------------------|


D#|---------------------------------|---------------------------------|---------------------------------|
A#|-----0-----------------------0---|---------------------0-----------|-------------0-------------------|
F#|-5-------5---------------5-------|-5---------------5-------5-------|---------5-------5---------------|
C#|-------------2-------2-----------|-----2-------2-------------------|-----2---------------2-------2---|
G#|-----------------3---------------|-----------------------------3---|-0-----------------------0-------|
D#|---------------------------------|---------3-----------------------|---------------------------------|


D#|---------------------------------|---------------------------------|---------------------------------|
A#|-----0-----------------------0---|---------------------0-----------|-------------0-------------------|
F#|-5-------5---------------5-------|-5---------------5-------5-------|-----------------5---------------|
C#|---------------------2-----------|-----2-------2---------------2---|---------4-------------------2---|
G#|-------------0---3---------------|---------------------------------|-----3---------------3---0-------|
D#|---------------------------------|---------3-----------------------|-2-------------------------------|


D#|---------------------------------|---------------------------------|---------------------------------|
A#|-----0-----------------------0---|---------------------0-----------|-------------0-------------------|
F#|-5-------5---------------5-------|-5---------------5-------5-------|---------5-------5---------------|
C#|---------------------2-----------|-------------2-------------------|-----2---------------2-------2---|
G#|-------------2---3---------------|-----3-----------------------3---|-0-----------------------0-------|
D#|---------------------------------|---------3-----------------------|---------------------------------|


D#|---------------------------------|---------------------------------|---------------------------------|
A#|-----0-----------------------0---|---------------------0-----------|-------------0-------------------|
F#|-5-------5---------------5-------|-5---------------5-------5-------|-----------------5---------------|
C#|---------------------2-----------|-------------2---------------2---|---------4-------------------2---|
G#|-------------2---3---------------|-----3---------------------------|-----3---------------3---0-------|
D#|---------------------------------|---------3-----------------------|-2-------------------------------|


D#|---------------------------------|---------------------------------|---------------------------------|
A#|-----0-----------------------0---|---------------------0-----------|-------------0-------------------|
F#|-5-------5---------------5-------|-5---------------5-------5-------|---------5-------5---------------|
C#|---------------------2-----------|-------------2-------------------|-----2---------------2-------2---|
G#|-------------2---3---------------|-----3-----------------------3---|-0-----------------------0-------|
D#|---------------------------------|---------3-----------------------|---------------------------------|


D#|---------------------------------|---------------------------------|---------------------------------|
A#|-----0-----------------------0---|---------------------0-----------|-------------0-------------------|
F#|-5-------5---------------5-------|-5---------------5-------5-------|-----------------5---------------|
C#|---------------------2-----------|-------------2---------------2---|---------4-------------------2---|
G#|-------------2---3---------------|-----3---------------------------|-----3---------------3-----------|
D#|---------------------------------|---------3-----------------------|-2-----------------------0-------|


D#|---------------------------------|---------------------------------|---------------------------------|
A#|-----0-----------------------0---|---------------------0-----------|-------------0-------------------|
F#|-5-------5---------------5-------|-5-----------------------5-------|-----------------5---------------|
C#|-------------2-------2-----------|-----2-----------0-----------0---|---------0-----------0-----------|
G#|---------------------------------|-------------3-------------------|-----3-----------------------2---|
D#|-----------------0---------------|---------2-----------------------|-2-----------------------3-------|


D#|---------------------------------|---------------------------------|----------------|
A#|-----0-----------------------0---|---------------------0-----------|----------------|
F#|---------5-----------------------|-5-----------------------5-------|----------------|
C#|-0-----------0-----------0-------|-----0-----------3---------------|------------2---|
G#|---------------------2-----------|-------------5---------------5---|--------0-------|
D#|-----------------3---------------|---------4-----------------------|-4--------------|


D#|---------------------------------|---------------------------------|---------------------------------|
A#|-----0-----------------------0---|---------------------0-----------|-------------0-------------------|
F#|-5-------5---------------5-------|-5---------------5-------5-------|---------5-------5---------------|
C#|---------------------2-----------|-------------2-------------------|-----2---------------2-------2---|
G#|-------------2---3---------------|-----3-----------------------3---|-0-----------------------0-------|
D#|---------------------------------|---------3-----------------------|---------------------------------|


D#|---------------------------------|---------------------------------|----------------|
A#|-----0-----------------------0---|---------------------0-----------|----------------|
F#|-5-------5---------------5-------|-5-----------------------5-------|-2--------------|
C#|-------------2-------2-----------|-----2-----------0-----------0---|-3--------------|
G#|---------------------------------|-------------3-------------------|-0----------2---|
D#|-----------------3---------------|---------2-----------------------|-1------0-------|


D#|---------------------------------|---------------------------------|---------------------------------|
A#|---------------------------------|---------------------------------|---------------------------------|
F#|-----0-----------------------0---|---------------------0-----------|---------0-------0---------------|
C#|-4-------4---------------4-------|-4---------------4-------4-------|-----------------------------0---|
G#|-------------2---1---1-----------|-----1-------2---------------2---|-----2-------------------3-------|
D#|---------------------------------|---------0-----------------------|-3-----------2-------1-----------|


D#|---------------------------------|---------------------------------|---------------------------------|
A#|---------------------------------|---------------------------------|---------------------------------|
F#|-------------0-------------------|-----0-----------------------0---|-----------------0-------0-------|
C#|---------4-------4---------------|-4-------4---------------4-------|-4-------------------------------|
G#|-----2---------------2---1---1---|-------------1-------2-----------|-----2-------2-------------------|
D#|-0-------------------------------|-----------------0---------------|---------3-----------2-------1---|


D#|---------------------------------|---------------------------------|---------------------------------|
A#|---------------------------------|---------------------------------|---------------------------------|
F#|---------------------0-----------|-------------0-------------------|-----0-------------------0-------|
C#|-----0-----------4-------4-------|---------4-------4---------------|-4-------4-----------------------|
G#|-3-----------2---------------2---|-1---1---------------1-------2---|-------------2-------2-----------|
D#|---------0-----------------------|-------------------------0-------|-----------------3-----------2---|


D#|---------------------------------|---------------------------------|---------------------------------|
A#|---------------------------------|---------------------------------|---------------------------------|
F#|-0---------------------------0---|---------------------0-----------|---------0-------0-----------0---|
C#|-------------0-----------4-------|-4---------------4-------4-------|-----5-------------------2-------|
G#|---------3-----------2-----------|-----2---1---1---------------1---|-7-----------5-------4-----------|
D#|-----1-----------0---------------|---------------------------------|---------------------------------|


D#|---------------------------------|--------|--------|--------|--------|--------|
A#|---------------------------------|--------|--------|--------|--------|--------|
F#|---------0-------0-------0-------|--------|--------|--------|--------|--------|
C#|-----2---------------------------|--------|--------|--------|--------|--------|
G#|-3-----------2-------------------|--------|--------|--------|--------|--------|
D#|---------------------3-------1---|--------|--------|--------|--------|--------|


D#|--------|--------|--------|--------|--------|--------|--------|--------|--------|
A#|--------|--------|--------|--------|--------|--------|--------|--------|--------|
F#|--------|--------|--------|--------|--------|--------|--------|--------|--------|
C#|--------|--------|--------|--------|--------|--------|--------|--------|--------|
G#|--------|--------|--------|--------|--------|--------|--------|--------|--------|
D#|--------|--------|--------|--------|--------|--------|--------|--------|--------|


D#|--------|--------|--------|--------|--------|--------|--------|--------|--------|
A#|--------|--------|--------|--------|--------|--------|--------|--------|--------|
F#|--------|--------|--------|--------|--------|--------|--------|--------|--------|
C#|--------|--------|--------|--------|--------|--------|--------|--------|--------|
G#|--------|--------|--------|--------|--------|--------|--------|--------|--------|
D#|--------|--------|--------|--------|--------|--------|--------|--------|--------|


D#|--------|--------|--------|--------|--------|--------|--------|--------|--------|
A#|--------|--------|--------|--------|--------|--------|--------|--------|--------|
F#|--------|--------|--------|--------|--------|--------|--------|--------|--------|
C#|--------|--------|--------|--------|--------|--------|--------|--------|--------|
G#|--------|--------|--------|--------|--------|--------|--------|--------|--------|
D#|--------|--------|--------|--------|--------|--------|--------|--------|--------|


D#|--------|--------|--------|--------|--------|--------|--------|--------|-----0------------------------|
A#|--------|--------|--------|--------|--------|--------|--------|--------|---------0-------0------------|
F#|--------|--------|--------|--------|--------|--------|--------|--------|---------------------0--------|
C#|--------|--------|--------|--------|--------|--------|--------|--------|-2-----------0-----------0----|
G#|--------|--------|--------|--------|--------|--------|--------|--------|------------------------------|
D#|--------|--------|--------|--------|--------|--------|--------|--------|------------------------------|


D#|-----0---------------------------|---------------------------|-------5---------|
A#|---------0-------0---------------|-----0---------------------|-----------5-----|
F#|---------------------0-------0---|---------0-----------------|-----------------|
C#|-------------------------0-------|---------------------------|-----------------|
G#|-4-----------3-------------------|-2-------------------------|-----------------|
D#|---------------------------------|-------------3----2----1---|-0---------------|


D#|-----0---------------------------|-----0---------------------------|---------------------------|
A#|---------0-------0---------------|---------0-------0---------------|-----0---------------------|
F#|---------------------0-------0---|---------------------0-------0---|---------0-----------------|
C#|-2-----------0-----------0-------|-------------------------0-------|---------------------------|
G#|---------------------------------|-4-----------3-------------------|-2-------------------------|
D#|---------------------------------|---------------------------------|-------------3----2----1---|


D#|--------|--------|--------|--------|--------|--------|--------|--------|--------|
A#|--------|--------|--------|--------|--------|--------|--------|--------|--------|
F#|--------|--------|--------|--------|--------|--------|--------|--------|--------|
C#|--------|--------|--------|--------|--------|--------|--------|--------|--------|
G#|--------|--------|--------|--------|--------|--------|--------|--------|--------|
D#|--------|--------|--------|--------|--------|--------|--------|--------|--------|


D#|--------|--------|--------|--------|--------|--------|--------|--------|--------|
A#|--------|--------|--------|--------|--------|--------|--------|--------|--------|
F#|--------|--------|--------|--------|--------|--------|--------|--------|--------|
C#|--------|--------|--------|--------|--------|--------|--------|--------|--------|
G#|--------|--------|--------|--------|--------|--------|--------|--------|--------|
D#|--------|--------|--------|--------|--------|--------|--------|--------|--------|


D#|--------|--------|--------|--------|--------|--------|--------|--------|--------|
A#|--------|--------|--------|--------|--------|--------|--------|--------|--------|
F#|--------|--------|--------|--------|--------|--------|--------|--------|--------|
C#|--------|--------|--------|--------|--------|--------|--------|--------|--------|
G#|--------|--------|--------|--------|--------|--------|--------|--------|--------|
D#|--------|--------|--------|--------|--------|--------|--------|--------|--------|


D#|--------|--------|--------|--------|--------|-----0---------------------------|
A#|--------|--------|--------|--------|--------|---------0-------0---------------|
F#|--------|--------|--------|--------|--------|---------------------0-------0---|
C#|--------|--------|--------|--------|--------|-2-----------0-----------0-------|
G#|--------|--------|--------|--------|--------|---------------------------------|
D#|--------|--------|--------|--------|--------|---------------------------------|


D#|-----0---------------------------|---------------------------|-------5---------|
A#|---------0-------0---------------|-----0---------------------|-----------5-----|
F#|---------------------0-------0---|---------0-----------------|-----------------|
C#|-------------------------0-------|---------------------------|-----------------|
G#|-4-----------3-------------------|-2-------------------------|-----------------|
D#|---------------------------------|-------------3----2----1---|-0---------------|


D#|-----0---------------------------|-----0---------------------------|---------------------------|
A#|---------0-------0---------------|---------0-------0---------------|-----0---------------------|
F#|---------------------0-------0---|---------------------0-------0---|---------0-----------------|
C#|-2-----------0-----------0-------|-------------------------0-------|---------------------------|
G#|---------------------------------|-4-----------3-------------------|-2-------------------------|
D#|---------------------------------|---------------------------------|-------------3----2----1---|


D#|--------|--------|-------------|-------12----|-12-----|-12-----|--------|--------|
A#|--------|--------|--------7----|-7-----------|--------|--------|--------|--------|
F#|--------|--------|-5-----------|-------------|--------|--------|--------|--------|
C#|--------|--------|-------------|-------------|--------|--------|--------|--------|
G#|--------|--------|-------------|-------------|--------|--------|--------|--------|
D#|-0------|--------|-------------|-------------|--------|--------|--------|--------|


D#|-------------|--------|--------|--------|--------|--------|--------|--------|--------|
A#|-------------|--------|--------|--------|--------|--------|--------|--------|--------|
F#|-------------|--------|--------|--------|--------|--------|--------|--------|--------|
C#|-------------|--------|--------|--------|--------|--------|--------|--------|--------|
G#|-------------|--------|--------|--------|--------|--------|--------|--------|--------|
D#|-------------|--------|--------|--------|--------|--------|--------|--------|--------|


D#|--------|--------|--------|--------|--------|--------|--------|--------|--------|
A#|--------|--------|--------|--------|--------|--------|--------|--------|--------|
F#|--------|--------|--------|--------|--------|--------|--------|--------|--------|
C#|--------|--------|--------|--------|--------|--------|--------|--------|--------|
G#|--------|--------|--------|--------|--------|--------|--------|--------|--------|
D#|--------|--------|--------|--------|--------|--------|--------|--------|--------|


D#|--------|--------|--------|--------|--------|--------|--------|--------|--------|
A#|--------|--------|--------|--------|--------|--------|--------|--------|--------|
F#|--------|--------|--------|--------|--------|--------|--------|--------|--------|
C#|--------|--------|--------|--------|--------|--------|--------|--------|--------|
G#|--------|--------|--------|--------|--------|--------|--------|--------|--------|
D#|--------|--------|--------|--------|--------|--------|--------|--------|--------|


D#|--------|--------|--------|--------|--------|--------|
A#|--------|--------|--------|--------|--------|--------|
F#|--------|--------|--------|--------|--------|--------|
C#|--------|--------|--------|--------|--------|--------|
G#|--------|--------|--------|--------|--------|--------|
D#|--------|--------|--------|--------|--------|--------|





Track 4: Clean electric with chorus and reverb

D#|--------|--------|--------|--------|--------|--------|--------|--------|--------|
A#|--------|--------|--------|--------|--------|--------|--------|--------|--------|
F#|--------|--------|--------|--------|--------|--------|--------|--------|--------|
C#|--------|--------|--------|--------|--------|--------|--------|--------|--------|
G#|--------|--------|--------|--------|--------|--------|--------|--------|--------|
D#|--------|--------|--------|--------|--------|--------|--------|--------|--------|


D#|--------|--------|--------|--------|--------|--------|--------|--------|--------|
A#|--------|--------|--------|--------|--------|--------|--------|--------|--------|
F#|--------|--------|--------|--------|--------|--------|--------|--------|--------|
C#|--------|--------|--------|--------|--------|--------|--------|--------|--------|
G#|--------|--------|--------|--------|--------|--------|--------|--------|--------|
D#|--------|--------|--------|--------|--------|--------|--------|--------|--------|


D#|-------------|-------------|-------------|-----------------|--------|--------|--------|
A#|-------------|-------------|-------------|-----------------|--------|--------|--------|
F#|-------------|-------------|-------------|-----------------|--------|--------|--------|
C#|-------------|-------------|-------------|-----------------|--------|--------|--------|
G#|--------15---|-------15----|------15-----|-15--------------|--------|--------|--------|
D#|-------------|-------------|-------------|-----------------|--------|--------|--------|


D#|--------|--------|--------|--------|--------|--------|--------|--------|--------|
A#|--------|--------|--------|--------|--------|--------|--------|--------|--------|
F#|--------|--------|--------|--------|--------|--------|--------|--------|--------|
C#|--------|--------|--------|--------|--------|--------|--------|--------|--------|
G#|--------|--------|--------|--------|--------|--------|--------|--------|--------|
D#|--------|--------|--------|--------|--------|--------|--------|--------|--------|


D#|--------|--------|--------|--------|--------|--------|--------|--------|--------|
A#|--------|--------|--------|--------|--------|--------|--------|--------|--------|
F#|--------|--------|--------|--------|--------|--------|--------|--------|--------|
C#|--------|--------|--------|--------|--------|--------|--------|--------|--------|
G#|--------|--------|--------|--------|--------|--------|--------|--------|--------|
D#|--------|--------|--------|--------|--------|--------|--------|--------|--------|


D#|--------|--------|--------|--------|--------|--------|--------|--------|--------|
A#|--------|--------|--------|--------|--------|--------|--------|--------|--------|
F#|--------|--------|--------|--------|--------|--------|--------|--------|--------|
C#|--------|--------|--------|--------|--------|--------|--------|--------|--------|
G#|--------|--------|--------|--------|--------|--------|--------|--------|--------|
D#|--------|--------|--------|--------|--------|--------|--------|--------|--------|


D#|--------|--------|--------|--------|--------|--------|--------|--------|--------|
A#|--------|--------|--------|--------|--------|--------|--------|--------|--------|
F#|--------|--------|--------|--------|--------|--------|--------|--------|--------|
C#|--------|--------|--------|--------|--------|--------|--------|--------|--------|
G#|--------|--------|--------|--------|--------|--------|--------|--------|--------|
D#|--------|--------|--------|--------|--------|--------|--------|--------|--------|


D#|--------|--------|--------|--------|--------|--------|--------|--------|--------|
A#|--------|--------|--------|--------|--------|--------|--------|--------|--------|
F#|--------|--------|--------|--------|--------|--------|--------|--------|--------|
C#|--------|--------|--------|--------|--------|--------|--------|--------|--------|
G#|--------|--------|--------|--------|--------|--------|--------|--------|--------|
D#|--------|--------|--------|--------|--------|--------|--------|--------|--------|


D#|--------|--------|--------|--------|--------|--------|--------|--------|--------|
A#|--------|--------|--------|--------|--------|--------|--------|--------|--------|
F#|--------|--------|--------|--------|--------|--------|--------|--------|--------|
C#|--------|--------|--------|--------|--------|--------|--------|--------|--------|
G#|--------|--------|--------|--------|--------|--------|--------|--------|--------|
D#|--------|--------|--------|--------|--------|--------|--------|--------|--------|


D#|--------|--------|--------|--------|--------|--------|--------|--------|--------|
A#|--------|--------|--------|--------|--------|--------|--------|--------|--------|
F#|--------|--------|--------|--------|--------|--------|--------|--------|--------|
C#|--------|--------|--------|--------|--------|--------|--------|--------|--------|
G#|--------|--------|--------|--------|--------|--------|--------|--------|--------|
D#|--------|--------|--------|--------|--------|--------|--------|--------|--------|


D#|--------|--------|--------|--------|--------|--------|--------|--------|--------|
A#|--------|--------|--------|--------|--------|--------|--------|--------|--------|
F#|--------|--------|--------|--------|--------|--------|--------|--------|--------|
C#|--------|--------|--------|--------|--------|--------|--------|--------|--------|
G#|--------|--------|--------|--------|--------|--------|--------|--------|--------|
D#|--------|--------|--------|--------|--------|--------|--------|--------|--------|


D#|--------|--------|--------|--------|--------|--------|--------|--------|--------|
A#|--------|--------|--------|--------|--------|--------|--------|--------|--------|
F#|--------|--------|--------|--------|--------|--------|--------|--------|--------|
C#|--------|--------|--------|--------|--------|--------|--------|--------|--------|
G#|--------|--------|--------|--------|--------|--------|--------|--------|--------|
D#|--------|--------|--------|--------|--------|--------|--------|--------|--------|


D#|--------|--------|--------|--------|--------|--------|--------|--------|--------|
A#|--------|--------|--------|--------|--------|--------|--------|--------|--------|
F#|--------|--------|--------|--------|--------|--------|--------|--------|--------|
C#|--------|--------|--------|--------|--------|--------|--------|--------|--------|
G#|--------|--------|--------|--------|--------|--------|--------|--------|--------|
D#|--------|--------|--------|--------|--------|--------|--------|--------|--------|


D#|--------|--------|--------|--------|--------|--------|--------|--------|--------|
A#|--------|--------|--------|--------|--------|--------|--------|--------|--------|
F#|--------|--------|--------|--------|--------|--------|--------|--------|--------|
C#|--------|--------|--------|--------|--------|--------|--------|--------|--------|
G#|--------|--------|--------|--------|--------|--------|--------|--------|--------|
D#|--------|--------|--------|--------|--------|--------|--------|--------|--------|


D#|--------|--------|--------|--------|--------|--------|--------|--------|--------|
A#|--------|--------|--------|--------|--------|--------|--------|--------|--------|
F#|--------|--------|--------|--------|--------|--------|--------|--------|--------|
C#|--------|--------|--------|--------|--------|--------|--------|--------|--------|
G#|--------|--------|--------|--------|--------|--------|--------|--------|--------|
D#|--------|--------|--------|--------|--------|--------|--------|--------|--------|


D#|--------|--------|--------|--------|--------|--------|--------|--------|--------|
A#|--------|--------|--------|--------|--------|--------|--------|--------|--------|
F#|--------|--------|--------|--------|--------|--------|--------|--------|--------|
C#|--------|--------|--------|--------|--------|--------|--------|--------|--------|
G#|--------|--------|--------|--------|--------|--------|--------|--------|--------|
D#|--------|--------|--------|--------|--------|--------|--------|--------|--------|


D#|--------|--------|--------|--------|--------|--------|--------|--------|--------|
A#|--------|--------|--------|--------|--------|--------|--------|--------|--------|
F#|--------|--------|--------|--------|--------|--------|--------|--------|--------|
C#|--------|--------|--------|--------|--------|--------|--------|--------|--------|
G#|--------|--------|--------|--------|--------|--------|--------|--------|--------|
D#|--------|--------|--------|--------|--------|--------|--------|--------|--------|


D#|--------|--------|--------|--------|--------|--------|--------|--------|--------|
A#|--------|--------|--------|--------|--------|--------|--------|--------|--------|
F#|--------|--------|--------|--------|--------|--------|--------|--------|--------|
C#|--------|--------|--------|--------|--------|--------|--------|--------|--------|
G#|--------|--------|--------|--------|--------|--------|--------|--------|--------|
D#|--------|--------|--------|--------|--------|--------|--------|--------|--------|


D#|--------|--------|--------|--------|--------|--------|--------|--------|--------|
A#|--------|--------|--------|--------|--------|--------|--------|--------|--------|
F#|--------|--------|--------|--------|--------|--------|--------|--------|--------|
C#|--------|--------|--------|--------|--------|--------|--------|--------|--------|
G#|--------|--------|--------|--------|--------|--------|--------|--------|--------|
D#|--------|--------|--------|--------|--------|--------|--------|--------|--------|


D#|--------|--------|--------|--------|--------|--------|--------|--------|--------|
A#|--------|--------|--------|--------|--------|--------|--------|--------|--------|
F#|--------|--------|--------|--------|--------|--------|--------|--------|--------|
C#|--------|--------|--------|--------|--------|--------|--------|--------|--------|
G#|--------|--------|--------|--------|--------|--------|--------|--------|--------|
D#|--------|--------|--------|--------|--------|--------|--------|--------|--------|


D#|--------|--------|--------|--------|--------|--------|--------|--------|--------|
A#|--------|--------|--------|--------|--------|--------|--------|--------|--------|
F#|--------|--------|--------|--------|--------|--------|--------|--------|--------|
C#|--------|--------|--------|--------|--------|--------|--------|--------|--------|
G#|--------|--------|--------|--------|--------|--------|--------|--------|--------|
D#|--------|--------|--------|--------|--------|--------|--------|--------|--------|


D#|--------|--------|--------|--------|--------|--------|--------|--------|--------|
A#|--------|--------|--------|--------|--------|--------|--------|--------|--------|
F#|--------|--------|--------|--------|--------|--------|--------|--------|--------|
C#|--------|--------|--------|--------|--------|--------|--------|--------|--------|
G#|--------|--------|--------|--------|--------|--------|--------|--------|--------|
D#|--------|--------|--------|--------|--------|--------|--------|--------|--------|


D#|--------|--------|--------|--------|--------|--------|--------|--------|--------|
A#|--------|--------|--------|--------|--------|--------|--------|--------|--------|
F#|--------|--------|--------|--------|--------|--------|--------|--------|--------|
C#|--------|--------|--------|--------|--------|--------|--------|--------|--------|
G#|--------|--------|--------|--------|--------|--------|--------|--------|--------|
D#|--------|--------|--------|--------|--------|--------|--------|--------|--------|


D#|--------|--------|
A#|--------|--------|
F#|--------|--------|
C#|--------|--------|
G#|--------|--------|
D#|--------|--------|





Track 5: Clean electric with chorus and reverb

D#|--------|--------|--------|--------|--------|--------|--------|--------|--------|
A#|--------|--------|--------|--------|--------|--------|--------|--------|--------|
F#|--------|--------|--------|--------|--------|--------|--------|--------|--------|
C#|--------|--------|--------|--------|--------|--------|--------|--------|--------|
G#|--------|--------|--------|--------|--------|--------|--------|--------|--------|
D#|--------|--------|--------|--------|--------|--------|--------|--------|--------|


D#|--------|--------|--------|--------|--------|--------|--------|--------|--------|
A#|--------|--------|--------|--------|--------|--------|--------|--------|--------|
F#|--------|--------|--------|--------|--------|--------|--------|--------|--------|
C#|--------|--------|--------|--------|--------|--------|--------|--------|--------|
G#|--------|--------|--------|--------|--------|--------|--------|--------|--------|
D#|--------|--------|--------|--------|--------|--------|--------|--------|--------|


D#|----------------|---------------------------------|---------------------------------|
A#|----------------|-----0-----------------------0---|---------------------0-----------|
F#|----------------|-5-------5---------------5-------|-5---------------5-------5-------|
C#|------------2---|---------------------2-----------|-------------2-------------------|
G#|--------0-------|-------------2---3---------------|-----3-----------------------3---|
D#|----------------|---------------------------------|---------3-----------------------|


D#|------------------------------|--------|--------|--------|--------|--------|--------|
A#|-------------0----------------|--------|--------|--------|--------|--------|--------|
F#|---------5-------5------------|--------|--------|--------|--------|--------|--------|
C#|-----2---------------2--------|--------|--------|--------|--------|--------|--------|
G#|-0----------------------------|--------|--------|--------|--------|--------|--------|
D#|------------------------------|--------|--------|--------|--------|--------|--------|


D#|--------|--------|--------|--------|--------|--------|--------|--------|--------|
A#|--------|--------|--------|--------|--------|--------|--------|--------|--------|
F#|--------|--------|--------|--------|--------|--------|--------|--------|--------|
C#|--------|--------|--------|--------|--------|--------|--------|--------|--------|
G#|--------|--------|--------|--------|--------|--------|--------|--------|--------|
D#|--------|--------|--------|--------|--------|--------|--------|--------|--------|


D#|--------|--------|--------|--------|--------|--------|--------|--------|--------|
A#|--------|--------|--------|--------|--------|--------|--------|--------|--------|
F#|--------|--------|--------|--------|--------|--------|--------|--------|--------|
C#|--------|--------|--------|--------|--------|--------|--------|--------|--------|
G#|--------|--------|--------|--------|--------|--------|--------|--------|--------|
D#|--------|--------|--------|--------|--------|--------|--------|--------|--------|


D#|--------|--------|--------|--------|--------|--------|--------|--------|--------|
A#|--------|--------|--------|--------|--------|--------|--------|--------|--------|
F#|--------|--------|--------|--------|--------|--------|--------|--------|--------|
C#|--------|--------|--------|--------|--------|--------|--------|--------|--------|
G#|--------|--------|--------|--------|--------|--------|--------|--------|--------|
D#|--------|--------|--------|--------|--------|--------|--------|--------|--------|


D#|--------|--------|--------|--------|--------|--------|--------|--------|--------|
A#|--------|--------|--------|--------|--------|--------|--------|--------|--------|
F#|--------|--------|--------|--------|--------|--------|--------|--------|--------|
C#|--------|--------|--------|--------|--------|--------|--------|--------|--------|
G#|--------|--------|--------|--------|--------|--------|--------|--------|--------|
D#|--------|--------|--------|--------|--------|--------|--------|--------|--------|


D#|--------|--------|--------|--------|--------|--------|--------|--------|--------|
A#|--------|--------|--------|--------|--------|--------|--------|--------|--------|
F#|--------|--------|--------|--------|--------|--------|--------|--------|--------|
C#|--------|--------|--------|--------|--------|--------|--------|--------|--------|
G#|--------|--------|--------|--------|--------|--------|--------|--------|--------|
D#|--------|--------|--------|--------|--------|--------|--------|--------|--------|


D#|--------|--------|--------|--------|--------|--------|--------|--------|--------|
A#|--------|--------|--------|--------|--------|--------|--------|--------|--------|
F#|--------|--------|--------|--------|--------|--------|--------|--------|--------|
C#|--------|--------|--------|--------|--------|--------|--------|--------|--------|
G#|--------|--------|--------|--------|--------|--------|--------|--------|--------|
D#|--------|--------|--------|--------|--------|--------|--------|--------|--------|


D#|--------|--------|--------|--------|--------|--------|--------|--------|--------|
A#|--------|--------|--------|--------|--------|--------|--------|--------|--------|
F#|--------|--------|--------|--------|--------|--------|--------|--------|--------|
C#|--------|--------|--------|--------|--------|--------|--------|--------|--------|
G#|--------|--------|--------|--------|--------|--------|--------|--------|--------|
D#|--------|--------|--------|--------|--------|--------|--------|--------|--------|


D#|--------|--------|--------|--------|--------|--------|--------|--------|--------|
A#|--------|--------|--------|--------|--------|--------|--------|--------|--------|
F#|--------|--------|--------|--------|--------|--------|--------|--------|--------|
C#|--------|--------|--------|--------|--------|--------|--------|--------|--------|
G#|--------|--------|--------|--------|--------|--------|--------|--------|--------|
D#|--------|--------|--------|--------|--------|--------|--------|--------|--------|


D#|--------|--------|--------|--------|--------|--------|--------|--------|--------|
A#|--------|--------|--------|--------|--------|--------|--------|--------|--------|
F#|--------|--------|--------|--------|--------|--------|--------|--------|--------|
C#|--------|--------|--------|--------|--------|--------|--------|--------|--------|
G#|--------|--------|--------|--------|--------|--------|--------|--------|--------|
D#|--------|--------|--------|--------|--------|--------|--------|--------|--------|


D#|--------|--------|--------|--------|--------|--------|--------|--------|--------|
A#|--------|--------|--------|--------|--------|--------|--------|--------|--------|
F#|--------|--------|--------|--------|--------|--------|--------|--------|--------|
C#|--------|--------|--------|--------|--------|--------|--------|--------|--------|
G#|--------|--------|--------|--------|--------|--------|--------|--------|--------|
D#|--------|--------|--------|--------|--------|--------|--------|--------|--------|


D#|--------|--------|--------|--------|--------|--------|--------|--------|--------|
A#|--------|--------|--------|--------|--------|--------|--------|--------|--------|
F#|--------|--------|--------|--------|--------|--------|--------|--------|--------|
C#|--------|--------|--------|--------|--------|--------|--------|--------|--------|
G#|--------|--------|--------|--------|--------|--------|--------|--------|--------|
D#|--------|--------|--------|--------|--------|--------|--------|--------|--------|


D#|--------|--------|--------|--------|--------|--------|--------|--------|--------|
A#|--------|--------|--------|--------|--------|--------|--------|--------|--------|
F#|--------|--------|--------|--------|--------|--------|--------|--------|--------|
C#|--------|--------|--------|--------|--------|--------|--------|--------|--------|
G#|--------|--------|--------|--------|--------|--------|--------|--------|--------|
D#|--------|--------|--------|--------|--------|--------|--------|--------|--------|


D#|--------|--------|--------|--------|--------|--------|--------|--------|--------|
A#|--------|--------|--------|--------|--------|--------|--------|--------|--------|
F#|--------|--------|--------|--------|--------|--------|--------|--------|--------|
C#|--------|--------|--------|--------|--------|--------|--------|--------|--------|
G#|--------|--------|--------|--------|--------|--------|--------|--------|--------|
D#|--------|--------|--------|--------|--------|--------|--------|--------|--------|


D#|--------|--------|--------|--------|--------|--------|--------|--------|--------|
A#|--------|--------|--------|--------|--------|--------|--------|--------|--------|
F#|--------|--------|--------|--------|--------|--------|--------|--------|--------|
C#|--------|--------|--------|--------|--------|--------|--------|--------|--------|
G#|--------|--------|--------|--------|--------|--------|--------|--------|--------|
D#|--------|--------|--------|--------|--------|--------|--------|--------|--------|


D#|--------|--------|--------|--------|--------|--------|--------|--------|--------|
A#|--------|--------|--------|--------|--------|--------|--------|--------|--------|
F#|--------|--------|--------|--------|--------|--------|--------|--------|--------|
C#|--------|--------|--------|--------|--------|--------|--------|--------|--------|
G#|--------|--------|--------|--------|--------|--------|--------|--------|--------|
D#|--------|--------|--------|--------|--------|--------|--------|--------|--------|


D#|--------|--------|--------|--------|--------|--------|--------|--------|--------|
A#|--------|--------|--------|--------|--------|--------|--------|--------|--------|
F#|--------|--------|--------|--------|--------|--------|--------|--------|--------|
C#|--------|--------|--------|--------|--------|--------|--------|--------|--------|
G#|--------|--------|--------|--------|--------|--------|--------|--------|--------|
D#|--------|--------|--------|--------|--------|--------|--------|--------|--------|


D#|--------|--------|--------|--------|--------|--------|--------|--------|--------|
A#|--------|--------|--------|--------|--------|--------|--------|--------|--------|
F#|--------|--------|--------|--------|--------|--------|--------|--------|--------|
C#|--------|--------|--------|--------|--------|--------|--------|--------|--------|
G#|--------|--------|--------|--------|--------|--------|--------|--------|--------|
D#|--------|--------|--------|--------|--------|--------|--------|--------|--------|


D#|--------|--------|--------|--------|--------|--------|--------|--------|--------|
A#|--------|--------|--------|--------|--------|--------|--------|--------|--------|
F#|--------|--------|--------|--------|--------|--------|--------|--------|--------|
C#|--------|--------|--------|--------|--------|--------|--------|--------|--------|
G#|--------|--------|--------|--------|--------|--------|--------|--------|--------|
D#|--------|--------|--------|--------|--------|--------|--------|--------|--------|


D#|--------|--------|--------|--------|--------|--------|--------|--------|--------|
A#|--------|--------|--------|--------|--------|--------|--------|--------|--------|
F#|--------|--------|--------|--------|--------|--------|--------|--------|--------|
C#|--------|--------|--------|--------|--------|--------|--------|--------|--------|
G#|--------|--------|--------|--------|--------|--------|--------|--------|--------|
D#|--------|--------|--------|--------|--------|--------|--------|--------|--------|


D#|--------|--------|--------|--------|--------|--------|--------|--------|
A#|--------|--------|--------|--------|--------|--------|--------|--------|
F#|--------|--------|--------|--------|--------|--------|--------|--------|
C#|--------|--------|--------|--------|--------|--------|--------|--------|
G#|--------|--------|--------|--------|--------|--------|--------|--------|
D#|--------|--------|--------|--------|--------|--------|--------|--------|





Track 6: Dimebag Solo Guitar

D#|--------|--------|--------|--------|--------|--------|--------|--------|--------|
A#|--------|--------|--------|--------|--------|--------|--------|--------|--------|
F#|--------|--------|--------|--------|--------|--------|--------|--------|--------|
C#|--------|--------|--------|--------|--------|--------|--------|--------|--------|
G#|--------|--------|--------|--------|--------|--------|--------|--------|--------|
D#|--------|--------|--------|--------|--------|--------|--------|--------|--------|


D#|--------|--------|--------|--------|--------|--------|--------|--------|--------|
A#|--------|--------|--------|--------|--------|--------|--------|--------|--------|
F#|--------|--------|--------|--------|--------|--------|--------|--------|--------|
C#|--------|--------|--------|--------|--------|--------|--------|--------|--------|
G#|--------|--------|--------|--------|--------|--------|--------|--------|--------|
D#|--------|--------|--------|--------|--------|--------|--------|--------|--------|


D#|--------|--------|--------|--------|--------|--------|--------|--------|--------|
A#|--------|--------|--------|--------|--------|--------|--------|--------|--------|
F#|--------|--------|--------|--------|--------|--------|--------|--------|--------|
C#|--------|--------|--------|--------|--------|--------|--------|--------|--------|
G#|--------|--------|--------|--------|--------|--------|--------|--------|--------|
D#|--------|--------|--------|--------|--------|--------|--------|--------|--------|


D#|--------|--------|--------|--------|--------|--------|--------|--------|--------|
A#|--------|--------|--------|--------|--------|--------|--------|--------|--------|
F#|--------|--------|--------|--------|--------|--------|--------|--------|--------|
C#|--------|--------|--------|--------|--------|--------|--------|--------|--------|
G#|--------|--------|--------|--------|--------|--------|--------|--------|--------|
D#|--------|--------|--------|--------|--------|--------|--------|--------|--------|


D#|--------|--------|--------|--------|--------|--------|--------|--------|--------|
A#|--------|--------|--------|--------|--------|--------|--------|--------|--------|
F#|--------|--------|--------|--------|--------|--------|--------|--------|--------|
C#|--------|--------|--------|--------|--------|--------|--------|--------|--------|
G#|--------|--------|--------|--------|--------|--------|--------|--------|--------|
D#|--------|--------|--------|--------|--------|--------|--------|--------|--------|


D#|--------|--------|--------|--------|--------|--------|--------|--------|--------|
A#|--------|--------|--------|--------|--------|--------|--------|--------|--------|
F#|--------|--------|--------|--------|--------|--------|--------|--------|--------|
C#|--------|--------|--------|--------|--------|--------|--------|--------|--------|
G#|--------|--------|--------|--------|--------|--------|--------|--------|--------|
D#|--------|--------|--------|--------|--------|--------|--------|--------|--------|


D#|--------|--------|--------|--------|--------|--------|-------------|----------------------------------|
A#|--------|--------|--------|--------|--------|--------|-------------|-----8--8--8--5--8----8-----8--8--|
F#|--------|--------|--------|--------|--------|--------|-------------|----------------------------------|
C#|--------|--------|--------|--------|--------|--------|-------------|----------------------------------|
G#|--------|--------|--------|--------|--------|--------|-------------|----------------------------------|
D#|--------|--------|--------|--------|--------|--------|-------------|----------------------------------|


D#|-------------------------------5------------------------------------|-------------------------------------15-15-|
A#|----8--5-----5--------------------8--5-----5------------------------|-------------------------------------15-15-|
F#|----------8-----8--7--5--7--8-----------8-----8--7--5---5-7-8-7-5-5-|---5---------------------------------------|
C#|------------------------------------------------------7-------------|-7---7---7--5------------------------------|
G#|--------------------------------------------------------------------|--------------7-5--5-----------------------|
D#|--------------------------------------------------------------------|----------------------8---8----------------|


D#|-15-15-15-15-15--------------------|-15--------------------15-15-15--|-15-15---15-15----15---|
A#|-15-15-15-15-----15-15-15-15----15-|-----15-15-15-15----15-----------|-----------------------|
F#|-----------------------------------|---------------------------------|-----------------------|
C#|-----------------------------------|---------------------------------|------------------3----|
G#|-----------------------------------|---------------------------------|-----------------------|
D#|-----------------------------------|---------------------------------|-----------------------|


D#|-------15----|-15---15----15---|--------------------|-------------|-------------|
A#|-------------|-----------------|--------------------|-------------|-------------|
F#|-------------|-----------------|--------------------|-------------|-------------|
C#|-------3-----|-3----3-----3----|-3----3----3-----3--|-------------|-------------|
G#|-------------|-----------------|--------------------|-------------|-------------|
D#|-------------|-----------------|--------------------|--------0----|-------0-----|


D#|-------------|-0---0---5-----5---5----|-5---5-----5--------|-------------|-------------|
A#|-------------|------------------------|--------------------|-------------|-------------|
F#|-------------|------------------------|--------------------|-------------|-------------|
C#|-------------|------------------------|--------------------|-------------|-------------|
G#|-------------|------------------------|--------------------|-------------|-------------|
D#|-------------|------------------------|--------------------|-------------|-------------|


D#|-------------|--------|--------|-19--19---19----19--|-17---17--17--17---17--17--|
A#|-------------|--------|--------|-19--19---19----19--|---------------------------|
F#|-------------|--------|--------|--------------------|---------------------------|
C#|-------------|--------|--------|--------------------|---------------------------|
G#|-------------|--------|--------|--------------------|---------------------------|
D#|-------------|--------|--------|--------------------|---------------------------|


D#|--------|--------|--------|--------|--------|--------|--------|--------|--------|
A#|--------|--------|--------|--------|--------|--------|--------|--------|--------|
F#|--------|--------|--------|--------|--------|--------|--------|--------|--------|
C#|--------|--------|--------|--------|--------|--------|--------|--------|--------|
G#|--------|--------|--------|--------|--------|--------|--------|--------|--------|
D#|--------|--------|--------|--------|--------|--------|--------|--------|--------|


D#|--------|--------|--------|--------|--------|--------|--------|--------|--------|
A#|--------|--------|--------|--------|--------|--------|--------|--------|--------|
F#|--------|--------|--------|--------|--------|--------|--------|--------|--------|
C#|--------|--------|--------|--------|--------|--------|--------|--------|--------|
G#|--------|--------|--------|--------|--------|--------|--------|--------|--------|
D#|--------|--------|--------|--------|--------|--------|--------|--------|--------|


D#|--------|--------|--------|--------|--------|--------|--------|--------|--------|
A#|--------|--------|--------|--------|--------|--------|--------|--------|--------|
F#|--------|--------|--------|--------|--------|--------|--------|--------|--------|
C#|--------|--------|--------|--------|--------|--------|--------|--------|--------|
G#|--------|--------|--------|--------|--------|--------|--------|--------|--------|
D#|--------|--------|--------|--------|--------|--------|--------|--------|--------|


D#|--------|--------|--------|--------|--------|--------|--------|--------|--------|
A#|--------|--------|--------|--------|--------|--------|--------|--------|--------|
F#|--------|--------|--------|--------|--------|--------|--------|--------|--------|
C#|--------|--------|--------|--------|--------|--------|--------|--------|--------|
G#|--------|--------|--------|--------|--------|--------|--------|--------|--------|
D#|--------|--------|--------|--------|--------|--------|--------|--------|--------|


D#|--------|--------|--------|--------|--------|--------|--------|--------|--------|
A#|--------|--------|--------|--------|--------|--------|--------|--------|--------|
F#|--------|--------|--------|--------|--------|--------|--------|--------|--------|
C#|--------|--------|--------|--------|--------|--------|--------|--------|--------|
G#|--------|--------|--------|--------|--------|--------|--------|--------|--------|
D#|--------|--------|--------|--------|--------|--------|--------|--------|--------|


D#|--------|--------|--------|--------|--------|--------|--------|--------|--------|
A#|--------|--------|--------|--------|--------|--------|--------|--------|--------|
F#|--------|--------|--------|--------|--------|--------|--------|--------|--------|
C#|--------|--------|--------|--------|--------|--------|--------|--------|--------|
G#|--------|--------|--------|--------|--------|--------|--------|--------|--------|
D#|--------|--------|--------|--------|--------|--------|--------|--------|--------|


D#|--------|--------|--------|--------|--------|--------|--------|--------|--------|
A#|--------|--------|--------|--------|--------|--------|--------|--------|--------|
F#|--------|--------|--------|--------|--------|--------|--------|--------|--------|
C#|--------|--------|--------|--------|--------|--------|--------|--------|--------|
G#|--------|--------|--------|--------|--------|--------|--------|--------|--------|
D#|--------|--------|--------|--------|--------|--------|--------|--------|--------|


D#|--------|--------|--------|--------|--------|--------|--------|--------|--------|
A#|--------|--------|--------|--------|--------|--------|--------|--------|--------|
F#|--------|--------|--------|--------|--------|--------|--------|--------|--------|
C#|--------|--------|--------|--------|--------|--------|--------|--------|--------|
G#|--------|--------|--------|--------|--------|--------|--------|--------|--------|
D#|--------|--------|--------|--------|--------|--------|--------|--------|--------|


D#|--------|--------|--------|--------|--------|--------|--------|--------|--------|
A#|--------|--------|--------|--------|--------|--------|--------|--------|--------|
F#|--------|--------|--------|--------|--------|--------|--------|--------|--------|
C#|--------|--------|--------|--------|--------|--------|--------|--------|--------|
G#|--------|--------|--------|--------|--------|--------|--------|--------|--------|
D#|--------|--------|--------|--------|--------|--------|--------|--------|--------|


D#|--------|--------|--------|--------|--------|--------|--------|--------|--------|
A#|--------|--------|--------|--------|--------|--------|--------|--------|--------|
F#|--------|--------|--------|--------|--------|--------|--------|--------|--------|
C#|--------|--------|--------|--------|--------|--------|--------|--------|--------|
G#|--------|--------|--------|--------|--------|--------|--------|--------|--------|
D#|--------|--------|--------|--------|--------|--------|--------|--------|--------|


D#|--------|--------|--------|--------|--------|--------|--------|--------|--------|
A#|--------|--------|--------|--------|--------|--------|--------|--------|--------|
F#|--------|--------|--------|--------|--------|--------|--------|--------|--------|
C#|--------|--------|--------|--------|--------|--------|--------|--------|--------|
G#|--------|--------|--------|--------|--------|--------|--------|--------|--------|
D#|--------|--------|--------|--------|--------|--------|--------|--------|--------|


D#|--------|--------|--------|--------|--------|--------|--------|--------|--------|
A#|--------|--------|--------|--------|--------|--------|--------|--------|--------|
F#|--------|--------|--------|--------|--------|--------|--------|--------|--------|
C#|--------|--------|--------|--------|--------|--------|--------|--------|--------|
G#|--------|--------|--------|--------|--------|--------|--------|--------|--------|
D#|--------|--------|--------|--------|--------|--------|--------|--------|--------|


D#|--------|--------|--------|--------|--------|--------|--------|--------|--------|
A#|--------|--------|--------|--------|--------|--------|--------|--------|--------|
F#|--------|--------|--------|--------|--------|--------|--------|--------|--------|
C#|--------|--------|--------|--------|--------|--------|--------|--------|--------|
G#|--------|--------|--------|--------|--------|--------|--------|--------|--------|
D#|--------|--------|--------|--------|--------|--------|--------|--------|--------|


D#|--------|--------|--------|--------|--------|--------|--------|--------|
A#|--------|--------|--------|--------|--------|--------|--------|--------|
F#|--------|--------|--------|--------|--------|--------|--------|--------|
C#|--------|--------|--------|--------|--------|--------|--------|--------|
G#|--------|--------|--------|--------|--------|--------|--------|--------|
D#|--------|--------|--------|--------|--------|--------|--------|--------|





Track 7: Rhythm Guitar

D#|--------|--------|--------|--------|--------|--------|--------|--------|--------|
A#|--------|--------|--------|--------|--------|--------|--------|--------|--------|
F#|--------|--------|--------|--------|--------|--------|--------|--------|--------|
C#|--------|--------|--------|--------|--------|--------|--------|--------|--------|
G#|--------|--------|--------|--------|--------|--------|--------|--------|--------|
D#|--------|--------|--------|--------|--------|--------|--------|--------|--------|


D#|--------|--------|--------|--------|--------|--------|--------|--------|--------|
A#|--------|--------|--------|--------|--------|--------|--------|--------|--------|
F#|--------|--------|--------|--------|--------|--------|--------|--------|--------|
C#|--------|--------|--------|--------|--------|--------|--------|--------|--------|
G#|--------|--------|--------|--------|--------|--------|--------|--------|--------|
D#|--------|--------|--------|--------|--------|--------|--------|--------|--------|


D#|--------|--------|--------|--------|--------|--------|--------|--------|--------|
A#|--------|--------|--------|--------|--------|--------|--------|--------|--------|
F#|--------|--------|--------|--------|--------|--------|--------|--------|--------|
C#|--------|--------|--------|--------|--------|--------|--------|--------|--------|
G#|--------|--------|--------|--------|--------|--------|--------|--------|--------|
D#|--------|--------|--------|--------|--------|--------|--------|--------|--------|


D#|--------|--------|--------|--------|--------|--------|--------|--------|--------|
A#|--------|--------|--------|--------|--------|--------|--------|--------|--------|
F#|--------|--------|--------|--------|--------|--------|--------|--------|--------|
C#|--------|--------|--------|--------|--------|--------|--------|--------|--------|
G#|--------|--------|--------|--------|--------|--------|--------|--------|--------|
D#|--------|--------|--------|--------|--------|--------|--------|--------|--------|


D#|--------|--------|--------|--------|--------|--------|--------|--------|--------|
A#|--------|--------|--------|--------|--------|--------|--------|--------|--------|
F#|--------|--------|--------|--------|--------|--------|--------|--------|--------|
C#|--------|--------|--------|--------|--------|--------|--------|--------|--------|
G#|--------|--------|--------|--------|--------|--------|--------|--------|--------|
D#|--------|--------|--------|--------|--------|--------|--------|--------|--------|


D#|--------|--------|--------|--------|--------|--------|--------|--------|--------|
A#|--------|--------|--------|--------|--------|--------|--------|--------|--------|
F#|--------|--------|--------|--------|--------|--------|--------|--------|--------|
C#|--------|--------|--------|--------|--------|--------|--------|--------|--------|
G#|--------|--------|--------|--------|--------|--------|--------|--------|--------|
D#|--------|--------|--------|--------|--------|--------|--------|--------|--------|


D#|--------|--------|--------|--------|--------|--------|--------|--------|--------|
A#|--------|--------|--------|--------|--------|--------|--------|--------|--------|
F#|--------|--------|--------|--------|--------|--------|--------|--------|--------|
C#|--------|--------|--------|--------|--------|--------|--------|--------|--------|
G#|--------|--------|--------|--------|--------|--------|--------|--------|--------|
D#|--------|--------|--------|--------|--------|--------|--------|--------|--------|


D#|--------|--------|--------|--------|--------|--------|--------|--------|--------|
A#|--------|--------|--------|--------|--------|--------|--------|--------|--------|
F#|--------|--------|--------|--------|--------|--------|--------|--------|--------|
C#|--------|--------|--------|--------|--------|--------|--------|--------|--------|
G#|--------|--------|--------|--------|--------|--------|--------|--------|--------|
D#|--------|--------|--------|--------|--------|--------|--------|--------|--------|


D#|--------|--------|--------|--------|--------|--------|--------|--------|---------------------------|
A#|--------|--------|--------|--------|--------|--------|--------|--------|---------------------------|
F#|--------|--------|--------|--------|--------|--------|--------|--------|---------------------------|
C#|--------|--------|--------|--------|--------|--------|--------|--------|---------------------------|
G#|--------|--------|--------|--------|--------|--------|--------|--------|-2---2--------2---2--------|
D#|--------|--------|--------|--------|--------|--------|--------|--------|-0---0--------0---0--------|


D#|---------------------------------|---------------------------|---------------------------------|
A#|---------------------------------|---------------------------|---------------------------------|
F#|---------------------------------|---------------------------|---------------------------------|
C#|---------------------------------|---------------------------|-----------------1---1---1---1---|
G#|-2---2-----------5---6---7---8---|-2---2--------2---2--------|-2---2-----------1---1---1---1---|
D#|-0---0---0---0---3---4---5---6---|-0---0--------0---0--------|-0---0---0---0-------------------|


D#|---------------------------|---------------------------------|---------------------------|
A#|---------------------------|---------------------------------|---------------------------|
F#|---------------------------|---------------------------------|---------------------------|
C#|---------------------------|---------------------------------|---------------------------|
G#|-2---2--------2---2--------|-2---2-----------5---6---7---8---|-2---2--------2---2--------|
D#|-0---0--------0---0--------|-0---0---0---0---3---4---5---6---|-0---0--------0---0--------|


D#|---------------------------------|---------------------------|---------------------------------|
A#|---------------------------------|---------------------------|---------------------------------|
F#|---------------------------------|---------------------------|---------------------------------|
C#|-----------------1---1---1---1---|---------------------------|---------------------------------|
G#|-2---2-----------1---1---1---1---|-2---2--------2---2--------|-2---2-----------5---6---7---8---|
D#|-0---0---0---0-------------------|-0---0--------0---0--------|-0---0---0---0---3---4---5---6---|


D#|---------------------------|---------------------------------|---------------------------|
A#|---------------------------|---------------------------------|---------------------------|
F#|---------------------------|---------------------------------|---------------------------|
C#|---------------------------|-----------------1---1---1---1---|---------------------------|
G#|-2---2--------2---2--------|-2---2-----------1---1---1---1---|-2---2--------2---2--------|
D#|-0---0--------0---0--------|-0---0---0---0-------------------|-0---0--------0---0--------|


D#|---------------------------------|---------------------------|---------------------------------|
A#|---------------------------------|---------------------------|---------------------------------|
F#|---------------------------------|---------------------------|---------------------------------|
C#|---------------------------------|---------------------------|-----------------1---1---1---1---|
G#|-2---2-----------5---6---7---8---|-2---2--------2---2--------|-2---2-----------1---1---1---1---|
D#|-0---0---0---0---3---4---5---6---|-0---0--------0---0--------|-0---0---0---0-------------------|


D#|-----------------------------------|------------------------------|-----------------------------------|
A#|-----------------------------------|------------------------------|-----------------------------------|
F#|-----------------------------------|------------------------------|-----------------------------------|
C#|-----2--3--------1-----------2--3--|-3-------1-------1---2---3----|-----2--3--------1-----------2--3--|
G#|-----2--3--------1-----------2--3--|-3-------1-------1---2---3----|-----2--3--------1-----------2--3--|
D#|-0-----------0-------0---0---------|-----0-------0----------------|-0-----------0-------0---0---------|


D#|------------------------------|-----------------------------------|------------------------------|
A#|------------------------------|-----------------------------------|------------------------------|
F#|------------------------------|-----------------------------------|------------------------------|
C#|-3-------1-------1---2---3----|-----2--3--------1-----------2--3--|-3-------1-------1---2---3----|
G#|-3-------1-------1---2---3----|-----2--3--------1-----------2--3--|-3-------1-------1---2---3----|
D#|-----0-------0----------------|-0-----------0-------0---0---------|-----0-------0----------------|


D#|-----------------------------------|------------------------------|---------------------------|
A#|-----------------------------------|------------------------------|---------------------------|
F#|-----------------------------------|------------------------------|---------------------------|
C#|-----2--3--------1-----------2--3--|-3-------1-------1---2---3----|---------------------------|
G#|-----2--3--------1-----------2--3--|-3-------1-------1---2---3----|-2---2--------2---2--------|
D#|-0-----------0-------0---0---------|-----0-------0----------------|-0---0--------0---0--------|


D#|---------------------------------|---------------------------|---------------------------------|
A#|---------------------------------|---------------------------|---------------------------------|
F#|---------------------------------|---------------------------|---------------------------------|
C#|---------------------------------|---------------------------|-----------------1---1---1---1---|
G#|-2---2-----------5---6---7---8---|-2---2--------2---2--------|-2---2-----------1---1---1---1---|
D#|-0---0---0---0---3---4---5---6---|-0---0--------0---0--------|-0---0---0---0-------------------|


D#|---------------------------|---------------------------------|---------------------------|
A#|---------------------------|---------------------------------|---------------------------|
F#|---------------------------|---------------------------------|---------------------------|
C#|---------------------------|---------------------------------|---------------------------|
G#|-2---2--------2---2--------|-2---2-----------5---6---7---8---|-2---2--------2---2--------|
D#|-0---0--------0---0--------|-0---0---0---0---3---4---5---6---|-0---0--------0---0--------|


D#|---------------------------------|-----------------------------------|------------------------------|
A#|---------------------------------|-----------------------------------|------------------------------|
F#|---------------------------------|-----------------------------------|------------------------------|
C#|-----------------1---1---1---1---|-----2--3--------1-----------2--3--|-3-------1-------1---2---3----|
G#|-2---2-----------1---1---1---1---|-----2--3--------1-----------2--3--|-3-------1-------1---2---3----|
D#|-0---0---0---0-------------------|-0-----------0-------0---0---------|-----0-------0----------------|


D#|-----------------------------------|------------------------------|-----------------------------------|
A#|-----------------------------------|------------------------------|-----------------------------------|
F#|-----------------------------------|------------------------------|-----------------------------------|
C#|-----2--3--------1-----------2--3--|-3-------1-------1---2---3----|-----2--3--------1-----------2--3--|
G#|-----2--3--------1-----------2--3--|-3-------1-------1---2---3----|-----2--3--------1-----------2--3--|
D#|-0-----------0-------0---0---------|-----0-------0----------------|-0-----------0-------0---0---------|


D#|------------------------------|-----------------------------------|------------------------------|
A#|------------------------------|-----------------------------------|------------------------------|
F#|------------------------------|-----------------------------------|------------------------------|
C#|-3-------1-------1---2---3----|-----2--3--------1-----------2--3--|-3-------1-------1---2---3----|
G#|-3-------1-------1---2---3----|-----2--3--------1-----------2--3--|-3-------1-------1---2---3----|
D#|-----0-------0----------------|-0-----------0-------0---0---------|-----0-------0----------------|


D#|-----------------|-----------------|---------------------|--------|-----------------|
A#|-----------------|-----------------|---------------------|--------|-----------------|
F#|-----------------|-----------------|---------------------|--------|-----------------|
C#|-5-----4-----4---|-2-----2-----2---|-0-------------------|--------|-5-----4-----4---|
G#|-7-----5-----5---|-4-----3-----3---|-2-------------------|--------|-7-----5-----5---|
D#|-----------------|-----------------|-------3----2----1---|-0------|-----------------|


D#|-----------------|---------------------|--------------------------------|---------------------------|
A#|-----------------|---------------------|--------------------------------|---------------------------|
F#|-----------------|---------------------|--------------------------------|---------------------------|
C#|-2-----2-----2---|-0-------------------|-----2--3--------1--------2--3--|-3-------1------------1----|
G#|-4-----3-----3---|-2-------------------|-----2--3--------1--------2--3--|-3-------1------------1----|
D#|-----------------|-------3----2----1---|-0-----------0--------0---------|-----0--------0---0--------|


D#|--------------------------------|---------------------------|--------------------------------|
A#|--------------------------------|---------------------------|--------------------------------|
F#|--------------------------------|---------------------------|--------------------------------|
C#|-----2--3--------1--------2--3--|-3-------1----1---2---3----|-----2--3--------1--------2--3--|
G#|-----2--3--------1--------2--3--|-3-------1----1---2---3----|-----2--3--------1--------2--3--|
D#|-0-----------0--------0---------|-----0---------------------|-0-----------0--------0---------|


D#|---------------------------|--------------------------------|---------------------------|
A#|---------------------------|--------------------------------|---------------------------|
F#|---------------------------|--------------------------------|---------------------------|
C#|-3-------1------------1----|-----2--3--------1--------2--3--|-3-------1----1---2---3----|
G#|-3-------1------------1----|-----2--3--------1--------2--3--|-3-------1----1---2---3----|
D#|-----0--------0---0--------|-0-----------0--------0---------|-----0---------------------|


D#|-----------------------------------|------------------------------|-----------------------------------|
A#|-----------------------------------|------------------------------|-----------------------------------|
F#|-----------------------------------|------------------------------|-----------------------------------|
C#|-----2--3--------1-----------2--3--|-3-------1---------------1----|-----2--3--------1-----------2--3--|
G#|-----2--3--------1-----------2--3--|-3-------1---------------1----|-----2--3--------1-----------2--3--|
D#|-0-----------0-------0---0---------|-----0-------0---0---0--------|-0-----------0-------0---0---------|


D#|------------------------------|-----------------------------------|------------------------------|
A#|------------------------------|-----------------------------------|------------------------------|
F#|------------------------------|-----------------------------------|------------------------------|
C#|-3-------1-------1---2---3----|-----2--3--------1-----------2--3--|-3-------1---------------1----|
G#|-3-------1-------1---2---3----|-----2--3--------1-----------2--3--|-3-------1---------------1----|
D#|-----0-------0----------------|-0-----------0-------0---0---------|-----0-------0---0---0--------|


D#|-----------------------------------|------------------------------|---------------------------------------|
A#|-----------------------------------|------------------------------|---------------------------------------|
F#|-----------------------------------|------------------------------|---------------------------------------|
C#|-----2--3--------1-----------2--3--|-3-------1-------1---2---3----|---------2--3---3--1--2---2------2--3--|
G#|-----2--3--------1-----------2--3--|-3-------1-------1---2---3----|---------2--3---3--1--2---2------2--3--|
D#|-0-----------0-------0---0---------|-----0-------0----------------|-0---------------------------0---------|


D#|------------------------------|---------------------------------------|------------------------------|
A#|------------------------------|---------------------------------------|------------------------------|
F#|------------------------------|---------------------------------------|------------------------------|
C#|-3---1--2--------1---2---3----|---------2--3---3--1--2---2------2--3--|-3---1--2--------1---2---3----|
G#|-3---1--2--------1---2---3----|---------2--3---3--1--2---2------2--3--|-3---1--2--------1---2---3----|
D#|-------------0----------------|-0---------------------------0---------|-------------0----------------|


D#|---------------------------------------|------------------------------|---------------------------------------|
A#|---------------------------------------|------------------------------|---------------------------------------|
F#|---------------------------------------|------------------------------|---------------------------------------|
C#|---------2--3---3--1--2---2------2--3--|-3---1--2--------1---2---3----|---------2--3---3--1--2---2------2--3--|
G#|---------2--3---3--1--2---2------2--3--|-3---1--2--------1---2---3----|---------2--3---3--1--2---2------2--3--|
D#|-0---------------------------0---------|-------------0----------------|-0---------------------------0---------|


D#|------------------------------|---------------------------------------|------------------------------|
A#|------------------------------|---------------------------------------|------------------------------|
F#|------------------------------|---------------------------------------|------------------------------|
C#|-3---1--2--------1---2---3----|---------2--3---3--1--2---2------2--3--|-3---1--2--------1---2---3----|
G#|-3---1--2--------1---2---3----|---------2--3---3--1--2---2------2--3--|-3---1--2--------1---2---3----|
D#|-------------0----------------|-0---------------------------0---------|-------------0----------------|


D#|---------------------------------------|------------------------------|---------------------------------------|
A#|---------------------------------------|------------------------------|---------------------------------------|
F#|---------------------------------------|------------------------------|---------------------------------------|
C#|---------2--3---3--1--2---2------2--3--|-3---1--2--------1---2---3----|---------2--3---3--1--2---2------2--3--|
G#|---------2--3---3--1--2---2------2--3--|-3---1--2--------1---2---3----|---------2--3---3--1--2---2------2--3--|
D#|-0---------------------------0---------|-------------0----------------|-0---------------------------0---------|


D#|------------------------------|---------------------------------------|------------------------------|
A#|------------------------------|---------------------------------------|------------------------------|
F#|------------------------------|---------------------------------------|------------------------------|
C#|-3---1--2--------1---2---3----|---------2--3---3--1--2---2------2--3--|-3---1--2--------1---2---3----|
G#|-3---1--2--------1---2---3----|---------2--3---3--1--2---2------2--3--|-3---1--2--------1---2---3----|
D#|-------------0----------------|-0---------------------------0---------|-------------0----------------|


D#|-----------------|-----------------|---------------------|------------|-----------------|
A#|-----------------|-----------------|---------------------|------------|-----------------|
F#|-----------------|-----------------|---------------------|------------|-----------------|
C#|-5-----4-----4---|-2-----2-----2---|-0-------------------|------------|-5-----4-----4---|
G#|-7-----5-----5---|-4-----3-----3---|-2-------------------|------------|-7-----5-----5---|
D#|-----------------|-----------------|-------3----2----1---|-0------0---|-----------------|


D#|-----------------|---------------------|--------|--------|--------|--------|--------|
A#|-----------------|---------------------|--------|--------|--------|--------|--------|
F#|-----------------|---------------------|--------|--------|--------|--------|--------|
C#|-2-----2-----2---|-0-------------------|--------|--------|--------|--------|--------|
G#|-4-----3-----3---|-2-------------------|--------|--------|--------|--------|--------|
D#|-----------------|-------3----2----1---|-0------|-0------|-0------|-0------|-0------|


D#|--------|--------|--------|-------------------------|----------------------------------|
A#|--------|--------|--------|-------------------------|----------------------------------|
F#|--------|--------|--------|-------------------------|----------------------------------|
C#|--------|--------|--------|-----------2--3---3------|-1--2---2------2--3--3-------1----|
G#|--------|--------|--------|-----------2--3---3------|-1--2---2------2--3--3-------1----|
D#|-0------|-0------|-0------|-0-----0-------------0---|-----------0-------------0--------|


D#|--------------------------------|----------------------------------|--------------------------------|
A#|--------------------------------|----------------------------------|--------------------------------|
F#|--------------------------------|----------------------------------|--------------------------------|
C#|---------1--------2--3---3------|-1--2---2------2--3--3-------1----|-1---1---3--------2--3---3------|
G#|---------1--------2--3---3------|-1--2---2------2--3--3-------1----|-1---1---3--------2--3---3------|
D#|-0---0--------0-------------0---|-----------0-------------0--------|--------------0-------------0---|


D#|----------------------------------|--------------------------------|----------------------------------|
A#|----------------------------------|--------------------------------|----------------------------------|
F#|----------------------------------|--------------------------------|----------------------------------|
C#|-1--2---2------2--3--3-------1----|---------1--------2--3---3------|-1--2---2------2--3--3-------1----|
G#|-1--2---2------2--3--3-------1----|---------1--------2--3---3------|-1--2---2------2--3--3-------1----|
D#|-----------0-------------0--------|-0---0--------0-------------0---|-----------0-------------0--------|


D#|--------------------------------|----------------------------------|--------------------------------|
A#|--------------------------------|----------------------------------|--------------------------------|
F#|--------------------------------|----------------------------------|--------------------------------|
C#|-1---2---3--------2--3---3------|-1--2---2------2--3--3-------1----|---------1--------2--3---3------|
G#|-1---2---3--------2--3---3------|-1--2---2------2--3--3-------1----|---------1--------2--3---3------|
D#|--------------0-------------0---|-----------0-------------0--------|-0---0--------0-------------0---|


D#|----------------------------------|--------------------------------|----------------------------------|
A#|----------------------------------|--------------------------------|----------------------------------|
F#|----------------------------------|--------------------------------|----------------------------------|
C#|-1--2---2------2--3--3-------1----|-1---1---3--------2--3---3------|-1--2---2------2--3--3-------1----|
G#|-1--2---2------2--3--3-------1----|-1---1---3--------2--3---3------|-1--2---2------2--3--3-------1----|
D#|-----------0-------------0--------|--------------0-------------0---|-----------0-------------0--------|


D#|--------------------------------|----------------------------------|--------------------|
A#|--------------------------------|----------------------------------|--------------------|
F#|--------------------------------|----------------------------------|--------------------|
C#|---------1--------2--3---3------|-1--2---2------2--3--3-------1----|-1---2---3----------|
G#|---------1--------2--3---3------|-1--2---2------2--3--3-------1----|-1---2---3----------|
D#|-0---0--------0-------------0---|-----------0-------------0--------|--------------------|


D#|--------|--------|--------|-------------------------|----------------------------------|
A#|--------|--------|--------|-------------------------|----------------------------------|
F#|--------|--------|--------|-------------------------|----------------------------------|
C#|--------|--------|--------|-----------2--3---3------|-1--2---2------2--3--3-------1----|
G#|--------|--------|--------|-----------2--3---3------|-1--2---2------2--3--3-------1----|
D#|--------|--------|--------|-------0-------------0---|-----------0-------------0--------|


D#|--------------------------------|----------------------------------|--------------------------------|
A#|--------------------------------|----------------------------------|--------------------------------|
F#|--------------------------------|----------------------------------|--------------------------------|
C#|---------1--------2--3---3------|-1--2---2------2--3--3-------1----|-1---2---3--------2--3---3------|
G#|---------1--------2--3---3------|-1--2---2------2--3--3-------1----|-1---2---3--------2--3---3------|
D#|-0---0--------0-------------0---|-----------0-------------0--------|--------------0-------------0---|


D#|----------------------------------|--------------------------------|----------------------------------|
A#|----------------------------------|--------------------------------|----------------------------------|
F#|----------------------------------|--------------------------------|----------------------------------|
C#|-1--2---2------2--3--3-------1----|---------1--------2--3---3------|-1--2---2------2--3--3-------1----|
G#|-1--2---2------2--3--3-------1----|---------1--------2--3---3------|-1--2---2------2--3--3-------1----|
D#|-----------0-------------0--------|-0---0--------0-------------0---|-----------0-------------0--------|


D#|--------------------------------|----------------------------------|--------------------------------|
A#|--------------------------------|----------------------------------|--------------------------------|
F#|--------------------------------|----------------------------------|--------------------------------|
C#|-1---2---3--------2--3---3------|-1--2---2------2--3--3-------1----|---------1--------2--3---3------|
G#|-1---2---3--------2--3---3------|-1--2---2------2--3--3-------1----|---------1--------2--3---3------|
D#|--------------0-------------0---|-----------0-------------0--------|-0---0--------0-------------0---|


D#|----------------------------------|--------------------|
A#|----------------------------------|--------------------|
F#|----------------------------------|--------------------|
C#|-1--2---2------2--3--3-------1----|-1---2---3----------|
G#|-1--2---2------2--3--3-------1----|-1---2---3----------|
D#|-----------0-------------0--------|--------------------|





Track 8: Rex

F#|-----------------|--------------------|---------------------------|-------------|
C#|-----------------|--------------------|-----2---------------------|-------------|
G#|------------0----|------0---2---3-----|-3---------------------3---|-0------0----|
D#|-----------------|--------------------|---------3-----0---3-------|-------------|
A#|-----------------|--------------------|---------------------------|-------------|


F#|--------------------|------------------------------|------------------------|--------------------|
C#|--------------------|-----2---5---5----5---5---5---|-4---------4------------|--------------------|
G#|------0---2---3-----|-3----------------------------|-------3-------3---0----|------0---2---3-----|
D#|--------------------|------------------------------|------------------------|--------------------|
A#|--------------------|------------------------------|------------------------|--------------------|


F#|---------------------------|-------------|--------------------|---------------------------|
C#|-----2---5-----------------|-------------|--------------------|-----2---5---------5-------|
G#|-3---------------------3---|-0------0----|------0---2---3-----|-3-------------------------|
D#|---------------0---3-------|-------------|--------------------|---------------3-------3---|
A#|---------------------------|-------------|--------------------|---------------------------|


F#|------------------------|--------------------|---------------------------|-------------|
C#|-4---------4------------|--------------------|-----2---5-----------------|-------------|
G#|-------3-------3---0----|------0---2---3-----|-3---------------------3---|-0------0----|
D#|------------------------|--------------------|---------------0---3-------|-------------|
A#|------------------------|--------------------|---------------------------|-------------|


F#|--------------------|------------------------------|---------------------------|
C#|--------------------|-----2---5---5--------5---5---|-4------------4------------|
G#|------0---2---3-----|-3----------------------------|----------3-------3---0----|
D#|--------------------|-----------------3------------|------2--------------------|
A#|--------------------|------------------------------|---------------------------|


F#|--------------------|---------------------------|-------------|--------------------|
C#|--------------------|-----2---5-----------------|-------------|--------------------|
G#|------0---2---3-----|-3---------------------3---|-0------0----|------0---2---3-----|
D#|--------------------|---------------0---3-------|-------------|--------------------|
A#|--------------------|---------------------------|-------------|--------------------|


F#|------------------------------|---------------------------|-------------|-------------|
C#|-----2---5---5--------5---5---|-4------------4------------|-------------|-------------|
G#|-3----------------------------|----------3-------3--------|-------------|-------------|
D#|-----------------3------------|------2---------------0----|-------0-----|------2------|
A#|------------------------------|---------------------------|-------------|-------------|


F#|-------------|-------------|------------------------|-------------|--------------------|
C#|-------------|-------------|------------------------|-------------|--------------------|
G#|-------------|-------------|------------------------|--------0----|------0---2---3-----|
D#|-2------3----|-------3-----|------4----4----4---4---|-4-----------|--------------------|
A#|-------------|-------------|------------------------|-------------|--------------------|


F#|---------------------------|-------------|--------------------|------------------------------|
C#|-----2---5-----------------|-------------|--------------------|-----2---5---5--------5---5---|
G#|-3---------------------3---|-0------0----|------0---2---3-----|-3----------------------------|
D#|---------------0---3-------|-------------|--------------------|-----------------3------------|
A#|---------------------------|-------------|--------------------|------------------------------|


F#|------------------------|--------------------|---------------------------|-------------|
C#|-4---------4------------|--------------------|-----2---5-----------------|-------------|
G#|-------3-------3---0----|------0---2---3-----|-3---------------------3---|-0------0----|
D#|------------------------|--------------------|---------------0---3-------|-------------|
A#|------------------------|--------------------|---------------------------|-------------|


F#|--------------------|------------------------------|------------------------|--------------------|
C#|--------------------|-----2---5---5--------5---5---|-4---------4------------|--------------------|
G#|------0---2---3-----|-3----------------------------|-------3-------3---0----|------0---2---3-----|
D#|--------------------|-----------------3------------|------------------------|--------------------|
A#|--------------------|------------------------------|------------------------|--------------------|


F#|---------------------------|-------------|--------------------|------------------------------|
C#|-----2---5-----------------|-------------|--------------------|-----2---5---5--------5---5---|
G#|-3---------------------3---|-0------0----|------0---2---3-----|-3----------------------------|
D#|---------------0---3-------|-------------|--------------------|-----------------3------------|
A#|---------------------------|-------------|--------------------|------------------------------|


F#|------------------------|--------------------|---------------------------|-------------|
C#|-4---------4------------|--------------------|-----2---5-----------------|-------------|
G#|-------3-------3---0----|------0---2---3-----|-3---------------------3---|-0------0----|
D#|------------------------|--------------------|---------------0---3-------|-------------|
A#|------------------------|--------------------|---------------------------|-------------|


F#|--------------------|------------------------------|---------------------------|
C#|--------------------|-----2---5---5--------5---5---|-4------------4------------|
G#|------0---2---3-----|-3----------------------------|----------3-------3---7----|
D#|--------------------|-----------------3------------|------2--------------------|
A#|--------------------|------------------------------|---------------------------|


F#|-------------|-------------|-------------|--------------------|------------------------|
C#|-------------|------4------|--------5----|--------------5-----|------6----6----6---6---|
G#|-------7-----|-------------|-------------|--------------------|------------------------|
D#|-------------|-------------|-2-----------|------3---3---------|------------------------|
A#|-------------|-------------|-------------|--------------------|------------------------|


F#|-------------|--------------------|---------------------------|--------------------|
C#|-6-----------|--------------------|-----2---5-----------------|--------------------|
G#|--------0----|------0---2---3-----|-3---------------------3---|-0-----0---0---0----|
D#|-------------|--------------------|---------------0---3-------|--------------------|
A#|-------------|--------------------|---------------------------|--------------------|


F#|-------------|-------------|-------------|-------------|-------------|------------------|
C#|-------------|-------------|-------------|-------------|-------------|------------------|
G#|-------------|-------------|-------------|-------1-----|-------------|------------------|
D#|-------3-----|------2------|-1------0----|-------------|------0------|-3-----2----1-----|
A#|-------------|-------------|-------------|-------------|-------------|------------------|


F#|-------------|-------------|---------------------|-------------|-------------|-----------------|
C#|-------------|-------------|---------------------|-------------|-------------|-----------------|
G#|--------1----|-------------|---------------------|-------------|-1-----------|-----------------|
D#|-0-----------|-------0-----|------3-----2----1---|------0------|--------0----|-------3-----2---|
A#|-------------|-------------|---------------------|-------------|-------------|-----------------|


F#|-----------------|-------------|------------------|---------------------|---------------------------|
C#|-----------------|-------------|------------------|---------------------|---------------------------|
G#|-----------------|------1------|-7-----5----4-----|-3-----2-------------|---------------------------|
D#|-----1-----0-----|-------------|------------------|------------3----1---|-0---0--------0---0--------|
A#|-----------------|-------------|------------------|---------------------|---------------------------|


F#|------------------------------|---------------------------|------------------------------|
C#|------------------------------|---------------------------|------------------------------|
G#|------------------------------|---------------------------|--------------1---1---1---1---|
D#|-0---0--------3---4---5---6---|-0---0--------0---0--------|-0---0------------------------|
A#|------------------------------|---------------------------|------------------------------|


F#|---------------------------|------------------------------|---------------------------|
C#|---------------------------|------------------------------|---------------------------|
G#|---------------------------|------------------------------|---------------------------|
D#|-0---0--------0---0--------|-0---0--------3---4---5---6---|-0---0--------0---0--------|
A#|---------------------------|------------------------------|---------------------------|


F#|------------------------------|---------------------------|------------------------------|
C#|------------------------------|---------------------------|------------------------------|
G#|--------------1---1---1---1---|---------------------------|------------------------------|
D#|-0---0------------------------|-0---0--------0---0--------|-0---0--------3---4---5---6---|
A#|------------------------------|---------------------------|------------------------------|


F#|---------------------------|------------------------------|---------------------------|
C#|---------------------------|------------------------------|---------------------------|
G#|---------------------------|--------------1---1---1---1---|---------------------------|
D#|-0---0--------0---0--------|-0---0------------------------|-0---0--------0---0--------|
A#|---------------------------|------------------------------|---------------------------|


F#|------------------------------|---------------------------|------------------------------|
C#|------------------------------|---------------------------|------------------------------|
G#|------------------------------|---------------------------|--------------1---1---1---1---|
D#|-0---0--------3---4---5---6---|-0---0--------0---0--------|-0---0------------------------|
A#|------------------------------|---------------------------|------------------------------|


F#|----------------------------------|------------------------------|----------------------------------|
C#|----------------------------------|------------------------------|----------------------------------|
G#|-----2--3---3------1--------2--3--|-3-------1-------1---2---3----|-----2--3---3------1--------2--3--|
D#|-0-------------0--------0---------|-----0-------0----------------|-0-------------0--------0---------|
A#|----------------------------------|------------------------------|----------------------------------|


F#|------------------------------|----------------------------------|------------------------------|
C#|------------------------------|----------------------------------|------------------------------|
G#|-3-------1-------1---2---3----|-----2--3---3------1--------2--3--|-3-------1-------1---2---3----|
D#|-----0-------0----------------|-0-------------0--------0---------|-----0-------0----------------|
A#|------------------------------|----------------------------------|------------------------------|


F#|----------------------------------|------------------------------|---------------------------|
C#|----------------------------------|------------------------------|---------------------------|
G#|-----2--3---3------1--------2--3--|-3-------1-------1---2---3----|---------------------------|
D#|-0-------------0--------0---------|-----0-------0----------------|-0---0--------0---0--------|
A#|----------------------------------|------------------------------|---------------------------|


F#|------------------------------|---------------------------|------------------------------|
C#|------------------------------|---------------------------|------------------------------|
G#|------------------------------|---------------------------|--------------1---1---1---1---|
D#|-0---0--------3---4---5---6---|-0---0--------0---0--------|-0---0------------------------|
A#|------------------------------|---------------------------|------------------------------|


F#|---------------------------|------------------------------|---------------------------|
C#|---------------------------|------------------------------|---------------------------|
G#|---------------------------|------------------------------|---------------------------|
D#|-0---0--------0---0--------|-0---0--------3---4---5---6---|-0---0--------0---0--------|
A#|---------------------------|------------------------------|---------------------------|


F#|------------------------------|----------------------------------|------------------------------|
C#|------------------------------|----------------------------------|------------------------------|
G#|--------------1---1---1---1---|-----2--3---3------1--------2--3--|-3-------1-------1---2---3----|
D#|-0---0------------------------|-0-------------0--------0---------|-----0-------0----------------|
A#|------------------------------|----------------------------------|------------------------------|


F#|----------------------------------|------------------------------|----------------------------------|
C#|----------------------------------|------------------------------|----------------------------------|
G#|-----2--3---3------1--------2--3--|-3-------1-------1---2---3----|-----2--3---3------1--------2--3--|
D#|-0-------------0--------0---------|-----0-------0----------------|-0-------------0--------0---------|
A#|----------------------------------|------------------------------|----------------------------------|


F#|------------------------------|----------------------------------|------------------------------|
C#|------------------------------|----------------------------------|------------------------------|
G#|-3-------1-------1---2---3----|-----2--3---3------1--------2--3--|-3-------1-------1---2---3----|
D#|-----0-------0----------------|-0-------------0--------0---------|-----0-------0----------------|
A#|------------------------------|----------------------------------|------------------------------|


F#|-----------------|-----------------|---------------------|--------|-----------------|
C#|-----------------|-----------------|---------------------|--------|-----------------|
G#|-7-----5-----5---|-4-----3-----3---|-2-------------------|--------|-7-----5-----5---|
D#|-----------------|-----------------|-------3----2----1---|-0------|-----------------|
A#|-----------------|-----------------|---------------------|--------|-----------------|


F#|-----------------|---------------------|----------------------------------|---------------------------|
C#|-----------------|---------------------|----------------------------------|---------------------------|
G#|-4-----3-----3---|-2-------------------|-----2--3---3------1--------2--3--|-3-------1------------1----|
D#|-----------------|-------3----2----1---|-0-------------0--------0---------|-----0--------0---0--------|
A#|-----------------|---------------------|----------------------------------|---------------------------|


F#|----------------------------------|------------------------------|----------------------------------|
C#|----------------------------------|------------------------------|----------------------------------|
G#|-----2--3---3------1--------2--3--|-3-------1-------1---2---3----|-----2--3---3------1--------2--3--|
D#|-0-------------0--------0---------|-----0-------0----------------|-0-------------0--------0---------|
A#|----------------------------------|------------------------------|----------------------------------|


F#|---------------------------|----------------------------------|------------------------------|
C#|---------------------------|----------------------------------|------------------------------|
G#|-3-------1------------1----|-----2--3---3------1--------2--3--|-3-------1-------1---2---3----|
D#|-----0--------0---0--------|-0-------------0--------0---------|-----0-------0----------------|
A#|---------------------------|----------------------------------|------------------------------|


F#|----------------------------------|---------------------------|----------------------------------|
C#|----------------------------------|---------------------------|----------------------------------|
G#|-----2--3---3------1--------2--3--|-3-------1------------1----|-----2--3---3------1--------2--3--|
D#|-0-------------0--------0---------|-----0--------0---0--------|-0-------------0--------0---------|
A#|----------------------------------|---------------------------|----------------------------------|


F#|------------------------------|----------------------------------|---------------------------|
C#|------------------------------|----------------------------------|---------------------------|
G#|-3-------1-------1---2---3----|-----2--3---3------1--------2--3--|-3-------1------------1----|
D#|-----0-------0----------------|-0-------------0--------0---------|-----0--------0---0--------|
A#|------------------------------|----------------------------------|---------------------------|


F#|----------------------------------|------------------------------|---------------------------------------|
C#|----------------------------------|------------------------------|---------------------------------------|
G#|-----2--3---3------1--------2--3--|-3-------1-------1---2---3----|---------2--3--3---1--2---2------2--3--|
D#|-0-------------0--------0---------|-----0-------0----------------|-0---------------------------0---------|
A#|----------------------------------|------------------------------|---------------------------------------|


F#|--------------------------------|---------------------------------------|--------------------------------|
C#|--------------------------------|---------------------------------------|--------------------------------|
G#|-3---1--2---2------1---2---3----|---------2--3--3---1--2---2------2--3--|-3---1--2---2------1---2---3----|
D#|---------------0----------------|-0---------------------------0---------|---------------0----------------|
A#|--------------------------------|---------------------------------------|--------------------------------|


F#|---------------------------------------|--------------------------------|---------------------------------------|
C#|---------------------------------------|--------------------------------|---------------------------------------|
G#|---------2--3--3---1--2---2------2--3--|-3---1--2---2------1---2---3----|---------2--3--3---1--2---2------2--3--|
D#|-0---------------------------0---------|---------------0----------------|-0---------------------------0---------|
A#|---------------------------------------|--------------------------------|---------------------------------------|


F#|--------------------------------|---------------------------------------|--------------------------------|
C#|--------------------------------|---------------------------------------|--------------------------------|
G#|-3---1--2---2------1---2---3----|---------2--3--3---1--2---2------2--3--|-3---1--2---2------1---2---3----|
D#|---------------0----------------|-0---------------------------0---------|---------------0----------------|
A#|--------------------------------|---------------------------------------|--------------------------------|


F#|---------------------------------------|--------------------------------|---------------------------------------|
C#|---------------------------------------|--------------------------------|---------------------------------------|
G#|---------2--3--3---1--2---2------2--3--|-3---1--2---2------1---2---3----|---------2--3--3---1--2---2------2--3--|
D#|-0---------------------------0---------|---------------0----------------|-0---------------------------0---------|
A#|---------------------------------------|--------------------------------|---------------------------------------|


F#|--------------------------------|---------------------------------------|--------------------------------|
C#|--------------------------------|---------------------------------------|--------------------------------|
G#|-3---1--2---2------1---2---3----|---------2--3--3---1--2---2------2--3--|-3---1--2---2------1---2---3----|
D#|---------------0----------------|-0---------------------------0---------|---------------0----------------|
A#|--------------------------------|---------------------------------------|--------------------------------|


F#|-----------------|-----------------|---------------------|--------|-----------------|
C#|-----------------|-----------------|---------------------|--------|-----------------|
G#|-7-----5-----5---|-4-----3-----3---|-2-------------------|--------|-7-----5-----5---|
D#|-----------------|-----------------|-------3----2----1---|-0------|-----------------|
A#|-----------------|-----------------|---------------------|--------|-----------------|


F#|-----------------|---------------------|--------|--------|--------|--------|--------|
C#|-----------------|---------------------|--------|--------|--------|--------|--------|
G#|-4-----3-----3---|-2-------------------|--------|--------|--------|--------|--------|
D#|-----------------|-------3----2----1---|-0------|-0------|-0------|-0------|-0------|
A#|-----------------|---------------------|--------|--------|--------|--------|--------|


F#|--------|--------|--------|-------------------------|--------------------------------|
C#|--------|--------|--------|-------------------------|--------------------------------|
G#|--------|--------|--------|-----------2--3---3------|-1--2--------2--3--3-------1----|
D#|-0------|-0------|-0------|-0-----0-------------0---|---------0-------------0--------|
A#|--------|--------|--------|-------------------------|--------------------------------|


F#|--------------------------------|-----------------------------------|--------------------------------|
C#|--------------------------------|-----------------------------------|--------------------------------|
G#|---------1--------2--3---3------|-1--2--------2--3--3-------1-------|-1---2---3--------2--3---3------|
D#|-0---0--------0-------------0---|---------0-------------0-------0---|--------------0-------------0---|
A#|--------------------------------|-----------------------------------|--------------------------------|


F#|--------------------------------|--------------------------------|-----------------------------------|
C#|--------------------------------|--------------------------------|-----------------------------------|
G#|-1--2--------2--3--3-------1----|---------1--------2--3---3------|-1--2--------2--3--3-------1-------|
D#|---------0-------------0--------|-0---0--------0-------------0---|---------0-------------0-------0---|
A#|--------------------------------|--------------------------------|-----------------------------------|


F#|--------------------------------|--------------------------------|--------------------------------|
C#|--------------------------------|--------------------------------|--------------------------------|
G#|-1---2---3--------2--3---3------|-1--2--------2--3--3-------1----|---------1--------2--3---3------|
D#|--------------0-------------0---|---------0-------------0--------|-0---0--------0-------------0---|
A#|--------------------------------|--------------------------------|--------------------------------|


F#|-----------------------------------|--------------------------------|--------------------------------|
C#|-----------------------------------|--------------------------------|--------------------------------|
G#|-1--2--------2--3--3-------1-------|-1---2---3--------2--3---3------|-1--2--------2--3--3-------1----|
D#|---------0-------------0-------0---|--------------0-------------0---|---------0-------------0--------|
A#|-----------------------------------|--------------------------------|--------------------------------|


F#|--------------------------------|-----------------------------------|------------------------------|
C#|--------------------------------|-----------------------------------|------------------------------|
G#|---------1--------2--3---3------|-1--2--------2--3--3-------1-------|-1---2---3--------2---3-------|
D#|-0---0--------0-------------0---|---------0-------------0-------0---|--------------0-----------0---|
A#|--------------------------------|-----------------------------------|------------------------------|


F#|---------------------------------|---------------------------------|---------------------------------|
C#|---------------------------------|---------------------------------|---------------------------------|
G#|-2---3-------2---3-------2---3---|-----2---3-------2---3-------2---|-3-------2---3-------2---3-------|
D#|---------0-----------0-----------|-0-----------0-----------0-------|-----0-----------0-----------0---|
A#|---------------------------------|---------------------------------|---------------------------------|


F#|-------------------------|--------------------------------|--------------------------------|
C#|-------------------------|--------------------------------|--------------------------------|
G#|-3---------2--3---3------|-1--2--------2--3--3-------1----|---------1--------2--3---3------|
D#|-------0-------------0---|---------0-------------0--------|-0---0--------0-------------0---|
A#|-------------------------|--------------------------------|--------------------------------|


F#|-----------------------------------|--------------------------------|--------------------------------|
C#|-----------------------------------|--------------------------------|--------------------------------|
G#|-1--2--------2--3--3-------1-------|-1---2---3--------2--3---3------|-1--2--------2--3--3-------1----|
D#|---------0-------------0-------0---|--------------0-------------0---|---------0-------------0--------|
A#|-----------------------------------|--------------------------------|--------------------------------|


F#|--------------------------------|-----------------------------------|--------------------------------|
C#|--------------------------------|-----------------------------------|--------------------------------|
G#|---------1--------2--3---3------|-1--2--------2--3--3-------1-------|-1---2---3--------2--3---3------|
D#|-0---0--------0-------------0---|---------0-------------0-------0---|--------------0-------------0---|
A#|--------------------------------|-----------------------------------|--------------------------------|


F#|--------------------------------|--------------------------------|-----------------------------------|
C#|--------------------------------|--------------------------------|-----------------------------------|
G#|-1--2--------2--3--3-------1----|---------1--------2--3---3------|-1--2--------2--3--3-------1-------|
D#|---------0-------------0--------|-0---0--------0-------------0---|---------0-------------0-------0---|
A#|--------------------------------|--------------------------------|-----------------------------------|


F#|--------------------|
C#|--------------------|
G#|-1---2---3----------|
D#|--------------------|
A#|--------------------|