Menu:

 

Search:

 

pantera - hard lines sunken cheeks:

 



Title: Hard Lines, Sunken Cheeks
Artist: 
Album: Far Beyond Driven
Author: Pantera


Track 1: Dime - Back Guitar

C#|-----------------------|-------------------------0-------|------------------------------|
G#|-------------2---2-----|-------------2---2---3-------0---|-------------2---2------------|
 E|---------0-------------|---------0-----------------------|---------0------------0-------|
 B|-----2-----------------|-----2---------------------------|-----2--------------------2---|
F#|-----------------------|---------------------------------|------------------------------|
C#|-0---------------------|-0-------------------------------|-0----------------------------|


C#|------------------------------|-----------------------|-------------------------0-------|
G#|------------------------------|-------------2---2-----|-------------2---2---3-------0---|
 E|---------0-----------0---0----|---------0-------------|---------0-----------------------|
 B|-----2-----------2-------2----|-----2-----------------|-----2---------------------------|
F#|-1-----------0----------------|-----------------------|---------------------------------|
C#|------------------------------|-0---------------------|-0-------------------------------|


C#|------------------------------|------------------------------|---------------------------|
G#|-------------2---2------------|------------------------------|---------------------------|
 E|---------0------------0-------|---------0-----------0---0----|---------------------------|
 B|-----2--------------------2---|-----2-----------2-------2----|--------------3----4-------|
F#|------------------------------|-1-----------0----------------|-2---2---5-------------2---|
C#|-0----------------------------|------------------------------|---------------------------|


C#|---------------------|---------------------------|---------------------------------|
G#|---------------------|---------------------------|---------------------------------|
 E|---------------------|---------------------------|---------------------------------|
 B|-----------3----4----|--------------3----4-------|---------------------------------|
F#|-2----5--------------|-2---2---5-------------5---|-7---7---7---3---5---5---5---3---|
C#|---------------------|-----------------------3---|-5---5---5---1---3---3---3---1---|


C#|---------------------------|---------------------|---------------------------|---------------------------------|
G#|---------------------------|---------------------|---------------------------|---------------------------------|
 E|---------------------------|---------------------|---------------------------|---------------------------------|
 B|--------------3----4-------|-----------3----4----|--------------3----4-------|---------------------------------|
F#|-2---2---5-------------2---|-2----5--------------|-2---2---5-------------5---|-7---7---7---3---5---5---5---3---|
C#|---------------------------|---------------------|-----------------------3---|-5---5---5---1---3---3---3---1---|


C#|---------------------------|---------------------|---------------------------|---------------------------------|
G#|---------------------------|---------------------|---------------------------|---------------------------------|
 E|---------------------------|---------------------|---------------------------|---------------------------------|
 B|--------------3----4-------|-----------3----4----|--------------3----4-------|---------------------------------|
F#|-2---2---5-------------2---|-2----5--------------|-2---2---5-------------5---|-7---7---7---3---5---5---5---3---|
C#|---------------------------|---------------------|-----------------------3---|-5---5---5---1---3---3---3---1---|


C#|---------------------------|---------------------|---------------------------|---------------------------------|
G#|---------------------------|---------------------|---------------------------|---------------------------------|
 E|---------------------------|---------------------|---------------------------|---------------------------------|
 B|--------------3----4-------|-----------3----4----|--------------3----4-------|---------------------------------|
F#|-2---2---5-------------2---|-2----5--------------|-2---2---5-------------5---|-7---7---7---3---5---5---5---4---|
C#|---------------------------|---------------------|-----------------------3---|-5---5---5---1---3---3---3---2---|


C#|-----------------------------------------|-----------------------------------------|
G#|-----------------------------------------|-----------------------------------------|
 E|-----------------------------------------|-----------------------------------------|
 B|-----------------------------------------|-----------------------------------------|
F#|-2---------------------------------------|-2---------------------------------------|
C#|-0---0--0--0--0---0--0---0---0--0--0--0--|-0---0--0--0--0---0--0---0---0--0--0--0--|


C#|-----------------------------------------|-------------------------------------------|
G#|-----------------------------------------|-------------------------------------------|
 E|-----------------------------------------|-------------------------------------------|
 B|-----------------------------------------|-------------------------------------------|
F#|-2---------------------------------------|-0--0--0--2------0--0--0--2---0--0---------|
C#|-0---0--0--0--0---0--0---0---0--0--0--0--|-0--0--0--3------0--0--0--3---0--0--3--2---|


C#|-----------------------------------------|-----------------------------------------|
G#|-----------------------------------------|-----------------------------------------|
 E|-----------------------------------------|-----------------------------------------|
 B|-----------------------------------------|-----------------------------------------|
F#|-2---------------------------------------|-2---------------------------------------|
C#|-0---0--0--0--0---0--0---0---0--0--0--0--|-0---0--0--0--0---0--0---0---0--0--0--0--|


C#|-----------------------------------------|-------------------------------------------|
G#|-----------------------------------------|-------------------------------------------|
 E|-----------------------------------------|-------------------------------------------|
 B|-----------------------------------------|-------------------------------------------|
F#|-2---------------------------------------|-0--0--0--2------0--0--0--2---0--0---------|
C#|-0---0--0--0--0---0--0---0---0--0--0--0--|-0--0--0--3------0--0--0--3---0--0--3--2---|


C#|-----------------------------------------|-----------------------------------------|
G#|-----------------------------------------|-----------------------------------------|
 E|-----------------------------------------|-----------------------------------------|
 B|-----------------------------------------|-----------------------------------------|
F#|-2---------------------------------------|-2---------------------------------------|
C#|-0---0--0--0--0---0--0---0---0--0--0--0--|-0---0--0--0--0---0--0---0---0--0--0--0--|


C#|-----------------------------------------|-------------------------------------------|
G#|-----------------------------------------|-------------------------------------------|
 E|-----------------------------------------|-------------------------------------------|
 B|-----------------------------------------|-------------------------------------------|
F#|-2---------------------------------------|-0--0--0--2------0--0--0--2---0--0---------|
C#|-0---0--0--0--0---0--0---0---0--0--0--0--|-0--0--0--3------0--0--0--3---0--0--3--2---|


C#|-----------------------------------------|-----------------------------------------|
G#|-----------------------------------------|-----------------------------------------|
 E|-----------------------------------------|-----------------------------------------|
 B|-----------------------------------------|-----------------------------------------|
F#|-2---------------------------------------|-2---------------------------------------|
C#|-0---0--0--0--0---0--0---0---0--0--0--0--|-0---0--0--0--0---0--0---0---0--0--0--0--|


C#|-----------------------------------------|-------------------------------------------|
G#|-----------------------------------------|-------------------------------------------|
 E|-----------------------------------------|-------------------------------------------|
 B|-----------------------------------------|-------------------------------------------|
F#|-2---------------------------------------|-0--0--0--2------0--0--0--2---0--0---------|
C#|-0---0--0--0--0---0--0---0---0--0--0--0--|-0--0--0--3------0--0--0--3---0--0--3--2---|


C#|--------------------------|-----------------------------|--------------------------|
G#|--------------------------|-----------------------------|--------------------------|
 E|----------------10--------|-------------------12--------|----------------10--------|
 B|-4----4-----12------------|-------------0--12-----------|-4----4-----12--12--------|
F#|-2----2--------------0----|-4---4---4--------------0----|-2----2--------------0----|
C#|--------------------------|-2---2---2-------------------|--------------------------|


C#|---------------------|--------------------------|-----------------------------|
G#|---------------------|--------------------------|-----------------------------|
 E|---------------------|----------------10--------|-------------------12--------|
 B|---------------------|-4----4-----12------------|-------------0--12-----------|
F#|-3-----4---4----5----|-2----2--------------0----|-4---4---4--------------0----|
C#|-1-----2---2----3----|--------------------------|-2---2---2-------------------|


C#|--------------------------|---------------------|---------------------------|---------------------|
G#|--------------------------|---------------------|---------------------------|---------------------|
 E|----------------10--------|---------------------|---------------------------|---------------------|
 B|-4----4-----12--12--------|---------------------|--------------3----4-------|-----------3----4----|
F#|-2----2--------------0----|-3-----4---4----5----|-2---2---5-------------2---|-2----5--------------|
C#|--------------------------|-1-----2---2----3----|---------------------------|---------------------|


C#|---------------------------|---------------------------------|---------------------------|
G#|---------------------------|---------------------------------|---------------------------|
 E|---------------------------|---------------------------------|---------------------------|
 B|--------------3----4-------|---------------------------------|--------------3----4-------|
F#|-2---2---5-------------5---|-7---7---7---3---5---5---5---3---|-2---2---5-------------2---|
C#|-----------------------3---|-5---5---5---1---3---3---3---1---|---------------------------|


C#|---------------------|---------------------------|---------------------------------|
G#|---------------------|---------------------------|---------------------------------|
 E|---------------------|---------------------------|---------------------------------|
 B|-----------3----4----|--------------3----4-------|---------------------------------|
F#|-2----5--------------|-2---2---5-------------5---|-7---7---7---3---5---5---5---4---|
C#|---------------------|-----------------------3---|-5---5---5---1---3---3---3---2---|


C#|-----------------------------------------|-----------------------------------------|
G#|-----------------------------------------|-----------------------------------------|
 E|-----------------------------------------|-----------------------------------------|
 B|-----------------------------------------|-----------------------------------------|
F#|-2---------------------------------------|-2---------------------------------------|
C#|-0---0--0--0--0---0--0---0---0--0--0--0--|-0---0--0--0--0---0--0---0---0--0--0--0--|


C#|-----------------------------------------|-------------------------------------------|
G#|-----------------------------------------|-------------------------------------------|
 E|-----------------------------------------|-------------------------------------------|
 B|-----------------------------------------|-------------------------------------------|
F#|-2---------------------------------------|-0--0--0--2------0--0--0--2---0--0---------|
C#|-0---0--0--0--0---0--0---0---0--0--0--0--|-0--0--0--3------0--0--0--3---0--0--3--2---|


C#|-----------------------------------------|-----------------------------------------|
G#|-----------------------------------------|-----------------------------------------|
 E|-----------------------------------------|-----------------------------------------|
 B|-----------------------------------------|-----------------------------------------|
F#|-2---------------------------------------|-2---------------------------------------|
C#|-0---0--0--0--0---0--0---0---0--0--0--0--|-0---0--0--0--0---0--0---0---0--0--0--0--|


C#|-----------------------------------------|-------------------------------------------|
G#|-----------------------------------------|-------------------------------------------|
 E|-----------------------------------------|-------------------------------------------|
 B|-----------------------------------------|-------------------------------------------|
F#|-2---------------------------------------|-0--0--0--2------0--0--0--2---0--0---------|
C#|-0---0--0--0--0---0--0---0---0--0--0--0--|-0--0--0--3------0--0--0--3---0--0--3--2---|


C#|-----------------------------------------|-----------------------------------------|
G#|-----------------------------------------|-----------------------------------------|
 E|-----------------------------------------|-----------------------------------------|
 B|-----------------------------------------|-----------------------------------------|
F#|-2---------------------------------------|-2---------------------------------------|
C#|-0---0--0--0--0---0--0---0---0--0--0--0--|-0---0--0--0--0---0--0---0---0--0--0--0--|


C#|-----------------------------------------|-------------------------------------------|
G#|-----------------------------------------|-------------------------------------------|
 E|-----------------------------------------|-------------------------------------------|
 B|-----------------------------------------|-------------------------------------------|
F#|-2---------------------------------------|-0--0--0--2------0--0--0--2---0--0---------|
C#|-0---0--0--0--0---0--0---0---0--0--0--0--|-0--0--0--3------0--0--0--3---0--0--3--2---|


C#|-----------------------------------------|-----------------------------------------|
G#|-----------------------------------------|-----------------------------------------|
 E|-----------------------------------------|-----------------------------------------|
 B|-----------------------------------------|-----------------------------------------|
F#|-2---------------------------------------|-2---------------------------------------|
C#|-0---0--0--0--0---0--0---0---0--0--0--0--|-0---0--0--0--0---0--0---0---0--0--0--0--|


C#|-----------------------------------------|-------------------------------------------|
G#|-----------------------------------------|-------------------------------------------|
 E|-----------------------------------------|-------------------------------------------|
 B|-----------------------------------------|-------------------------------------------|
F#|-2---------------------------------------|-0--0--0--2------0--0--0--2---0--0---------|
C#|-0---0--0--0--0---0--0---0---0--0--0--0--|-0--0--0--3------0--0--0--3---0--0--3--2---|


C#|--------------------------|-----------------------------|--------------------------|
G#|--------------------------|-----------------------------|--------------------------|
 E|----------------10--------|-------------------12--------|----------------10--------|
 B|-4----4-----12------------|-------------0--12-----------|-4----4-----12--12--------|
F#|-2----2--------------0----|-4---4---4--------------0----|-2----2--------------0----|
C#|--------------------------|-2---2---2-------------------|--------------------------|


C#|---------------------|--------------------------|-----------------------------|
G#|---------------------|--------------------------|-----------------------------|
 E|---------------------|----------------10--------|-------------------12--------|
 B|---------------------|-4----4-----12------------|-------------0--12-----------|
F#|-3-----4---4----5----|-2----2--------------0----|-4---4---4--------------0----|
C#|-1-----2---2----3----|--------------------------|-2---2---2-------------------|


C#|--------------------------|---------------------|------------------------|---------------------|
G#|--------------------------|---------------------|------------------------|---------------------|
 E|----------------10--------|---------------------|------------------------|---------------------|
 B|-4----4-----12--12--------|---------------------|-----------4----4-------|-----------4---------|
F#|-2----2--------------0----|-3-----4---4----5----|-3----6-------------3---|-3----2---------6----|
C#|--------------------------|-1-----2---2----3----|------------------------|---------------------|


C#|------------------------|---------------------------------|------------------------|
G#|------------------------|---------------------------------|------------------------|
 E|------5----5------------|-3-------------------------------|------------------------|
 B|---------------3---3----|------3--3---4-------------------|-----------4----4-------|
F#|-3----------------------|-----------------3---------------|-3----6-------------3---|
C#|------------------------|----------------------2--2---1---|------------------------|


C#|---------------------|------------------------|---------------------------------|
G#|---------------------|------------------------|---------------------------------|
 E|---------------------|------5----5------------|-3-------------------------------|
 B|-----------4---------|---------------3---3----|------3--3---4-------------------|
F#|-3----2---------6----|-3----------------------|-----------------3---------------|
C#|---------------------|------------------------|----------------------2--2---1---|


C#|-----------------------|-------------------------0-------|------------------------------|
G#|-------------2---2-----|-------------2---2---3-------0---|-------------2---2------------|
 E|---------0-------------|---------0-----------------------|---------0------------0-------|
 B|-----2-----------------|-----2---------------------------|-----2--------------------2---|
F#|-----------------------|---------------------------------|------------------------------|
C#|-0---------------------|-0-------------------------------|-0----------------------------|


C#|------------------------------|-----------------------|-------------------------0-------|
G#|------------------------------|-------------2---2-----|-------------2---2---3-------0---|
 E|---------0-----------0---0----|---------0-------------|---------0-----------------------|
 B|-----2-----------2-------2----|-----2-----------------|-----2---------------------------|
F#|-1-----------0----------------|-----------------------|---------------------------------|
C#|------------------------------|-0---------------------|-0-------------------------------|


C#|------------------------------|------------------------------|---------------------------|
G#|-------------2---2------------|------------------------------|---------------------------|
 E|---------0------------0-------|---------0-----------0---0----|---------------------------|
 B|-----2--------------------2---|-----2-----------2-------2----|------2----2-------2---5---|
F#|------------------------------|-1-----------0----------------|-0----0----0-------0---3---|
C#|-0----------------------------|------------------------------|---------------------------|


C#|--------------------------------|--------|---------------------|------------------------|
G#|--------------------------------|--------|---------------------|------------------------|
 E|--------------------------------|--------|---------------------|------------------------|
 B|-2-------2----2---------2---5---|-2------|-5-----7---7----7----|-2----2---------2---5---|
F#|-0-------0----0---------0---3---|-0------|-3-----5---5----5----|-0----0----0----0---3---|
C#|--------------------------------|--------|---------------------|------------------------|


C#|---------------------|----------------------------|---------------------|-------------|
G#|---------------------|----------------------------|---------------------|-------------|
 E|---------------------|----------------------------|---------------------|-------------|
 B|-2----2----------5---|-2----2----2----------------|---------------------|-------------|
F#|-0----0----0-----3---|-0----0----0----0-----0-----|-3-----4---4----5----|-5-----------|
C#|---------------------|----------------0-----0-----|-1-----2---2----3----|-8-----------|


C#|------------------------|----------------------|----------------------|---------------------|
G#|------------------------|----------------------|----------------------|------5----5----5----|
 E|------------------------|----------------5-----|----------------5-----|------5----5----5----|
 B|------------------------|----------------7-----|----------------7-----|------7----7----7----|
F#|-7--------7-------------|-7----0---------------|-----0----------------|-0-------------------|
C#|-10-----------8----3----|-5----0---------------|-----0----------------|---------------------|


C#|---------------------|--------|-------------|--------|--------|-----------------------|
G#|---------------------|--------|-------------|--------|--------|-17----15--13--15--15--|
 E|-0-------------------|--------|-------------|--------|--------|-----------------------|
 B|-0-----6---6----6----|--------|-------------|--------|--------|-----------------------|
F#|-------7---7----7----|-5------|-7-----------|-7------|-7------|-----------------------|
C#|---------------------|--------|-------8-----|-5------|-5------|-----------------------|


C#|------14--16------------------------------|-15-----|-15-----|-15-----|-15----------|
G#|-15-----------15--15--13--12--------------|--------|--------|--------|-------------|
 E|------------------------------12--14--12--|--------|--------|--------|-------------|
 B|------------------------------------------|--------|--------|--------|-------------|
F#|------------------------------------------|--------|--------|--------|-------------|
C#|------------------------------------------|--------|--------|--------|-------------|


C#|--------|--------|--------|--------|--------|--------|--------|--------|--------|
G#|--------|--------|--------|--------|--------|--------|--------|--------|--------|
 E|--------|--------|--------|--------|--------|--------|--------|--------|--------|
 B|--------|--------|--------|--------|--------|--------|--------|--------|--------|
F#|--------|--------|--------|--------|--------|--------|--------|--------|--------|
C#|--------|--------|--------|--------|--------|--------|--------|--------|--------|


C#|--------|--------|--------|--------|--------|--------|--------|--------|--------|
G#|--------|--------|--------|--------|--------|--------|--------|--------|--------|
 E|--------|--------|--------|--------|--------|--------|--------|--------|--------|
 B|--------|--------|--------|--------|--------|--------|--------|--------|--------|
F#|--------|--------|--------|--------|--------|--------|--------|--------|--------|
C#|--------|--------|--------|--------|--------|--------|--------|--------|--------|


C#|--------|--------|--------|--------|--------|--------|--------|--------|--------|
G#|--------|--------|--------|--------|--------|--------|--------|--------|--------|
 E|--------|--------|--------|--------|--------|--------|--------|--------|--------|
 B|--------|--------|--------|--------|--------|--------|--------|--------|--------|
F#|--------|--------|--------|--------|--------|--------|--------|--------|--------|
C#|--------|--------|--------|--------|--------|--------|--------|--------|--------|


C#|--------|--------|--------|--------|--------|-------------|-------------------------------|
G#|--------|--------|--------|--------|--------|-------------|-------------------------------|
 E|--------|--------|--------|--------|--------|-------------|-------------------------------|
 B|--------|--------|--------|--------|--------|--------5----|------0---------0-----5---5----|
F#|--------|--------|--------|--------|--------|--------3----|------0---------0-----3---3----|
C#|--------|--------|--------|--------|--------|-------------|-------------------------------|


C#|-----------------|-------------------------------|-----------------|-------------------------------|
G#|-----------------|-------------------------------|-----------------|-------------------------------|
 E|-----------------|-------------------------------|-----------------|-------------------------------|
 B|------------5----|------0---------0-----5---5----|------------5----|------0---------0-----5---5----|
F#|------------3----|------0---------0-----3---3----|------------3----|------0---------0-----3---3----|
C#|-----------------|-------------------------------|-----------------|-------------------------------|


C#|-----------------|-------------------------------|-------------|-------------------------------|
G#|-----------------|-------------------------------|-------------|-------------------------------|
 E|-----------------|-------------------------------|-------------|-------------------------------|
 B|------------5----|------0---------0-----5---5----|--------5----|------0---------0-----5---5----|
F#|------------3----|------0---------0-----3---3----|--------3----|------0---------0-----3---3----|
C#|-----------------|-------------------------------|-------------|-------------------------------|


C#|-----------------|-------------------------------|-----------------|-------------------------------|
G#|-----------------|-------------------------------|-----------------|-------------------------------|
 E|-----------------|-------------------------------|-----------------|-------------------------------|
 B|------------5----|------0---------0-----5---5----|------------5----|------0---------0-----5---5----|
F#|------------3----|------0---------0-----3---3----|------------3----|------0---------0-----3---3----|
C#|-----------------|-------------------------------|-----------------|-------------------------------|


C#|-----------------|-------------------------------|--------|
G#|-----------------|-------------------------------|--------|
 E|-----------------|-------------------------------|--------|
 B|------------5----|------0---------0-----5---5----|--------|
F#|------------3----|------0---------0-----3---3----|--------|
C#|-----------------|-------------------------------|--------|





Track 2: Dime - Lead Guitar

C#|--------|--------|--------|--------|--------|--------|--------|--------|--------|
G#|--------|--------|--------|--------|--------|--------|--------|--------|--------|
 E|--------|--------|--------|--------|--------|--------|--------|--------|--------|
 B|--------|--------|--------|--------|--------|--------|--------|--------|--------|
F#|--------|--------|--------|--------|--------|--------|--------|--------|--------|
C#|--------|--------|--------|--------|--------|--------|--------|--------|--------|


C#|--------|--------|--------|--------|--------|--------|--------|--------|--------|
G#|--------|--------|--------|--------|--------|--------|--------|--------|--------|
 E|--------|--------|--------|--------|--------|--------|--------|--------|--------|
 B|--------|--------|--------|--------|--------|--------|--------|--------|--------|
F#|--------|--------|--------|--------|--------|--------|--------|--------|--------|
C#|--------|--------|--------|--------|--------|--------|--------|--------|--------|


C#|--------|--------|--------|--------|--------|--------|--------|--------|--------|
G#|--------|--------|--------|--------|--------|--------|--------|--------|--------|
 E|--------|--------|--------|--------|--------|--------|--------|--------|--------|
 B|--------|--------|--------|--------|--------|--------|--------|--------|--------|
F#|--------|--------|--------|--------|--------|--------|--------|--------|--------|
C#|--------|--------|--------|--------|--------|--------|--------|--------|--------|


C#|--------|--------|--------|--------|--------|--------|--------|--------|--------|
G#|--------|--------|--------|--------|--------|--------|--------|--------|--------|
 E|--------|--------|--------|--------|--------|--------|--------|--------|--------|
 B|--------|--------|--------|--------|--------|--------|--------|--------|--------|
F#|--------|--------|--------|--------|--------|--------|--------|--------|--------|
C#|--------|--------|--------|--------|--------|--------|--------|--------|--------|


C#|--------|--------|--------|--------|--------|--------|--------|--------|--------|
G#|--------|--------|--------|--------|--------|--------|--------|--------|--------|
 E|--------|--------|--------|--------|--------|--------|--------|--------|--------|
 B|--------|--------|--------|--------|--------|--------|--------|--------|--------|
F#|--------|--------|--------|--------|--------|--------|--------|--------|--------|
C#|--------|--------|--------|--------|--------|--------|--------|--------|--------|


C#|--------|--------|--------|--------|--------|--------|--------|--------|--------|
G#|--------|--------|--------|--------|--------|--------|--------|--------|--------|
 E|--------|--------|--------|--------|--------|--------|--------|--------|--------|
 B|--------|--------|--------|--------|--------|--------|--------|--------|--------|
F#|--------|--------|--------|--------|--------|--------|--------|--------|--------|
C#|--------|--------|--------|--------|--------|--------|--------|--------|--------|


C#|--------|--------|--------|--------|--------|--------|--------|--------|--------|
G#|--------|--------|--------|--------|--------|--------|--------|--------|--------|
 E|--------|--------|--------|--------|--------|--------|--------|--------|--------|
 B|--------|--------|--------|--------|--------|--------|--------|--------|--------|
F#|--------|--------|--------|--------|--------|--------|--------|--------|--------|
C#|--------|--------|--------|--------|--------|--------|--------|--------|--------|


C#|--------|--------|--------|--------|--------|--------|--------|--------|--------|
G#|--------|--------|--------|--------|--------|--------|--------|--------|--------|
 E|--------|--------|--------|--------|--------|--------|--------|--------|--------|
 B|--------|--------|--------|--------|--------|--------|--------|--------|--------|
F#|--------|--------|--------|--------|--------|--------|--------|--------|--------|
C#|--------|--------|--------|--------|--------|--------|--------|--------|--------|


C#|--------|--------|--------|--------|--------|--------|--------|--------|--------|
G#|--------|--------|--------|--------|--------|--------|--------|--------|--------|
 E|--------|--------|--------|--------|--------|--------|--------|--------|--------|
 B|--------|--------|--------|--------|--------|--------|--------|--------|--------|
F#|--------|--------|--------|--------|--------|--------|--------|--------|--------|
C#|--------|--------|--------|--------|--------|--------|--------|--------|--------|


C#|--------|--------|--------|--------|--------|--------|--------|--------|--------|
G#|--------|--------|--------|--------|--------|--------|--------|--------|--------|
 E|--------|--------|--------|--------|--------|--------|--------|--------|--------|
 B|--------|--------|--------|--------|--------|--------|--------|--------|--------|
F#|--------|--------|--------|--------|--------|--------|--------|--------|--------|
C#|--------|--------|--------|--------|--------|--------|--------|--------|--------|


C#|--------|--------|--------|--------|--------|--------|-5--------------------|-----5---------5--------|
G#|--------|--------|--------|--------|--------|--------|-----------5-----5----|-5-------5---------5----|
 E|--------|--------|--------|--------|--------|--------|-----0-----7-----7----|-7-------7---------7----|
 B|--------|--------|--------|--------|--------|--------|----------------------|------------------------|
F#|--------|--------|--------|--------|--------|--------|----------------------|------------------------|
C#|--------|--------|--------|--------|--------|--------|----------------------|------------------------|


C#|-----------------|-----------------|----------------------|-15------15------15--15--15--15----|
G#|-5----5----5-----|-8-----6---6-----|-5--------------13----|-----13------13--------------------|
 E|-7----7----7-----|-10----8---8-----|-7--------------------|-----------------------------------|
 B|-----------------|-----------------|----------------------|-----------------------------------|
F#|-----------------|-----------------|------0---------------|-----------------------------------|
C#|-----------------|-----------------|----------------------|-----------------------------------|


C#|-15-----|-15---------------|--------------------------------------|-------------------------------------|
G#|--------|------------------|--------------------------------------|-------------------------------------|
 E|--------|------------------|---------------------7-----5--7--5----|-------------9-----7-----5-----4-----|
 B|--------|------------------|---------------5--7-----7-------------|-------6--7--------------------------|
F#|--------|--------0---------|-3-------5--7-------------------------|-7-----------------------------------|
C#|--------|------------------|--------------------------------------|-------------------------------------|


C#|------0-----17--17------------|-------------17-15-------------------17-15-------------22---|
G#|----------------------17161716|-15----15-17-------17-16-15----15-17-------17-16-15---------|
 E|-2----------------------------|----17----------------------17----------------------17------|
 B|------------------------------|------------------------------------------------------------|
F#|------------------------------|------------------------------------------------------------|
C#|------------------------------|------------------------------------------------------------|


C#|-22--0---17-20-15-------------------------22-15----------22-15-|-------2215------22---22----|
G#|------------------17-15-------------------------17-15----------|-1715------1715-------------|
 E|------------------------17----------------------------17-------|-----17--------17-----------|
 B|---------------------------------------------------------------|----------------------------|
F#|---------------------------------------------------------------|----------------------------|
C#|---------------------------------------------------------------|----------------------------|


C#|---------------------------|------13--15------------------------------|------------------|
G#|-17--17--17---15--13---15--|-15-----------15--15--13------------------|------------------|
 E|---------------------------|--------------------------14--------------|-12-----0-----10--|
 B|---------------------------|------------------------------14----------|------------------|
F#|---------------------------|----------------------------------12--10--|------------------|
C#|---------------------------|------------------------------------------|------------------|


C#|-------------------------------|-----------------------|------17--19------------------------------|
G#|-------------------------------|-20----18--17--18--18--|-18-----------18--18--17------------------|
 E|-9--10----8--9--7-----0--5-----|-----------------------|--------------------------17--16--17--16--|
 B|-------------------------------|-----------------------|------------------------------------------|
F#|-------------------------------|-----------------------|------------------------------------------|
C#|-------------------------------|-----------------------|------------------------------------------|


C#|-22-----|-22-----|-22-----|-22----------|-----------------------|-------------------------0-------|
G#|--------|--------|--------|-------------|-----------------------|-----------------------------0---|
 E|--------|--------|--------|-------------|---------0---6---6-----|---------0---6---6---7-----------|
 B|--------|--------|--------|-------------|-----2-----------------|-----2---------------------------|
F#|--------|--------|--------|-------------|-----------------------|---------------------------------|
C#|--------|--------|--------|-------------|-0---------------------|-0-------------------------------|


C#|------------------------------|------------------------------|-----------------------|
G#|------------------------------|------------------------------|-------------2---2-----|
 E|---------0---6---6----0-------|---------0-----------0---0----|---------0-------------|
 B|-----2--------------------2---|-----2-----------2-------2----|-----2-----------------|
F#|------------------------------|-1-----------0----------------|-----------------------|
C#|-0----------------------------|------------------------------|-0---------------------|


C#|-------------------------0-------|------------------------------|------------------------------|
G#|-------------2---2---3-------0---|-------------2---2------------|------------------------------|
 E|---------0-----------------------|---------0------------0-------|---------0-----------0---0----|
 B|-----2---------------------------|-----2--------------------2---|-----2-----------2-------2----|
F#|---------------------------------|------------------------------|-1-----------0----------------|
C#|-0-------------------------------|-0----------------------------|------------------------------|


C#|-----------------------------------------|-----------------------------------------|
G#|-----------------------------------------|-----------------------------------------|
 E|-----------------------------------------|-----------------------------------------|
 B|-----------------------------------------|-----------------------------------------|
F#|-2---------------------------------------|-2---------------------------------------|
C#|-0---0--0--0--0---0--0---0---0--0--0--0--|-0---0--0--0--0---0--0---0---0--0--0--0--|


C#|-----------------------------------------|-------------------------------------------|
G#|-----------------------------------------|-------------------------------------------|
 E|-----------------------------------------|-------------------------------------------|
 B|-----------------------------------------|-------------------------------------------|
F#|-2---------------------------------------|-0--0--0--2------0--0--0--2---0--0---------|
C#|-0---0--0--0--0---0--0---0---0--0--0--0--|-0--0--0--3------0--0--0--3---0--0--3--2---|


C#|-----------------------------------------|-----------------------------------------|
G#|-----------------------------------------|-----------------------------------------|
 E|-----------------------------------------|-----------------------------------------|
 B|-----------------------------------------|-----------------------------------------|
F#|-2---------------------------------------|-2---------------------------------------|
C#|-0---0--0--0--0---0--0---0---0--0--0--0--|-0---0--0--0--0---0--0---0---0--0--0--0--|


C#|-----------------------------------------|---------------------------------------------|
G#|-----------------------------------------|---------------------------------------------|
 E|-----------------------------------------|---------------------------------------------|
 B|-----------------------------------------|---------------------------------------------|
F#|-2---------------------------------------|-0--0--0--2--2-----0--0--0-------0--0--0-----|
C#|-0---0--0--0--0---0--0---0---0--0--0--0--|-0--0--0--3--3-----0--0--0--3----0--0--0--3--|


C#|-------------------------------|-----------------------------|--------------------------|
G#|-------------------------------|-----------------------------|--------------------------|
 E|-------------------------------|-----------10----------------|-----------12-------------|
 B|--------------------------4----|-4-----12--------------------|-----0--12-----------4----|
F#|-----0--0--0--0-----------2----|-2--------------0----4---4---|-4--------------0----2----|
C#|-3---0--0--0--3----------------|---------------------2---2---|-2------------------------|


C#|--------------------------|------------------------|-----------------------------|
G#|--------------------------|------------------------|-----------------------------|
 E|-----------10-------------|------------------------|-----------10----------------|
 B|-4-----12--12-------------|-------------------4----|-4-----12--------------------|
F#|-2--------------0----3----|-----4---4----5----2----|-2--------------0----4---4---|
C#|---------------------1----|-----2---2----3---------|---------------------2---2---|


C#|--------------------------|--------------------------|------------------------|
G#|--------------------------|--------------------------|------------------------|
 E|-----------12-------------|-----------10-------------|------------------------|
 B|-----0--12-----------4----|-4-----12--12-------------|------------------------|
F#|-4--------------0----2----|-2--------------0----3----|-0--4----4----5----3----|
C#|-2------------------------|---------------------1----|-0--2----2----3---------|


C#|------------------------|---------------------|---------------------------|------------------------------|
G#|------------------------|---------------------|---------------------------|------------------------------|
 E|------------------------|---------------------|-5----5------------3-------|------------------------------|
 B|------4----4------------|------4--------------|----------3---3---------3--|-3---4------------------------|
F#|-6-------------3---3----|-2---------6----3----|---------------------------|---------3---------------3----|
C#|------------------------|---------------------|---------------------------|--------------2--2---1--------|


C#|------------------------|---------------------|---------------------------|------------------------------|
G#|------------------------|---------------------|---------------------------|------------------------------|
 E|------------------------|---------------------|-5----5------------3-------|------------------------------|
 B|------4----4------------|------4--------------|----------3---3---------3--|-3---4-------------------5----|
F#|-6-------------3---3----|-2---------6----3----|---------------------------|---------3---------------3----|
C#|------------------------|---------------------|---------------------------|--------------2--2---1--------|


C#|-------------------------------|---------------------|------------------------|
G#|-------------------------------|---------------------|------------------------|
 E|-------------------------------|---------------------|-5----5-----------------|
 B|------0---------0-----5--------|------4--------------|----------3---3----3----|
F#|------0---------0-----3---3----|-2---------6----3----|------------------------|
C#|-------------------------------|---------------------|------------------------|


C#|-----------------|------------------------|---------------------|-------------------------------------|
G#|-----------------|------------------------|---------------------|-------------------------------------|
 E|-----------------|------------------------|---------------------|-5---5---3---------------------------|
 B|-----------------|------4----4------------|------4--------------|--------------5--5--4----3--2-----1--|
F#|------------3----|-6-------------3---3----|-2---------6----3----|-------------------------------------|
C#|------6----------|------------------------|---------------------|-------------------------------------|


C#|-----------------|------------------------|---------------------|---------------------------|
G#|-----------------|------------------------|---------------------|---------------------------|
 E|-----------------|------------------------|---------------------|-5---5---5-----------------|
 B|-----------------|------4----4------------|------4--------------|-------------3---3----3----|
F#|-0----0-----3----|-6-------------3---3----|-2---------6----3----|---------------------------|
C#|-----------------|------------------------|---------------------|---------------------------|


C#|-----------------|------------------------|---------------------|-------------------------------------|
G#|-----------------|------------------------|---------------------|-------------------------------------|
 E|-----------------|------------------------|---------------------|-5---5---3---------------------------|
 B|-----------------|------4----4------------|------4--------------|--------------5--5--4----3--2-----1--|
F#|------------3----|-6-------------3---3----|-2---------6----3----|-------------------------------------|
C#|------6----------|------------------------|---------------------|-------------------------------------|


C#|-----------------|
G#|-----------------|
 E|-----------------|
 B|-----------------|
F#|-3----3----------|
C#|-----------------|





Track 3: Rex - Bass

 E|--------|--------|--------|------------------------|--------|------------------|
 B|--------|--------|--------|------------------------|--------|--------------5---|
F#|--------|--------|--------|-1-----0---0----3-------|--------|--------7---------|
C#|-0------|-0------|-0------|------------------------|-0------|-0----------------|


 E|-------7---9---12--7-----|---------------------|-----------------|-----------------|
 B|-9-----------------------|---------------------|-----------------|-----------------|
F#|-------------------------|-1-----0---0---------|-----------------|-----------------|
C#|-------------------------|----------------3----|-0-----0-----0---|-0----0----0-----|


 E|-----------------|---------------------------------|-----------------|-----------------|
 B|-----------------|---------------------------------|-----------------|-----------------|
F#|-----------------|-0---0---0-----------------------|-----------------|-----------------|
C#|-0-----0-----3---|-------------1---3---3---3---1---|-0-----0-----0---|-0----0----0-----|


 E|-----------------|---------------------------------|-----------------|-----------------|
 B|-----------------|---------------------------------|-----------------|-----------------|
F#|-----------------|-0---0---0-----------------------|-----------------|-----------------|
C#|-0-----0-----3---|-------------1---3---3---3---1---|-0-----0-----0---|-0----0----0-----|


 E|-----------------|---------------------------------|-----------------|-----------------|
 B|-----------------|---------------------------------|-----------------|-----------------|
F#|-----------------|-0---0---0-----------------------|-----------------|-----------------|
C#|-0-----0-----3---|-------------1---3---3---3---1---|-0-----0-----0---|-0----0----0-----|


 E|-----------------|---------------------------------|-----------------------------------------|
 B|-----------------|---------------------------------|-----------------------------------------|
F#|-----------------|-0---0---0-----------------------|-----------------------------------------|
C#|-0-----0-----3---|-------------1---3---3---3---2---|-0---0--0--0--0---0--0---0---0--0--0--0--|


 E|-----------------------------------------|-----------------------------------------|
 B|-----------------------------------------|-----------------------------------------|
F#|-----------------------------------------|-----------------------------------------|
C#|-0---0--0--0--0---0--0---0---0--0--0--0--|-0---0--0--0--0---0--0---0---0--0--0--0--|


 E|-----------------------------------------|-----------------------------------------|
 B|-----------------------------------------|-----------------------------------------|
F#|-------------------------------0---------|-----------------------------------------|
C#|-0--0--0--3--3---0--0--0--3-------3--2---|-0---0--0--0--0---0--0---0---0--0--0--0--|


 E|-----------------------------------------|-----------------------------------------|
 B|-----------------------------------------|-----------------------------------------|
F#|-----------------------------------------|-----------------------------------------|
C#|-0---0--0--0--0---0--0---0---0--0--0--0--|-0---0--0--0--0---0--0---0---0--0--0--0--|


 E|-----------------------------------------|-----------------------------------------|
 B|-----------------------------------------|-----------------------------------------|
F#|-------------------------------0---------|-----------------------------------------|
C#|-0--0--0--3--3---0--0--0--3-------3--2---|-0---0--0--0--0---0--0---0---0--0--0--0--|


 E|-----------------------------------------|-----------------------------------------|
 B|-----------------------------------------|-----------------------------------------|
F#|-----------------------------------------|-----------------------------------------|
C#|-0---0--0--0--0---0--0---0---0--0--0--0--|-0---0--0--0--0---0--0---0---0--0--0--0--|


 E|-----------------------------------------|-----------------------------------------|
 B|-----------------------------------------|-----------------------------------------|
F#|-------------------------------0---------|-----------------------------------------|
C#|-0--0--0--3--3---0--0--0--3-------3--2---|-0---0--0--0--0---0--0---0---0--0--0--0--|


 E|-----------------------------------------|-----------------------------------------|
 B|-----------------------------------------|-----------------------------------------|
F#|-----------------------------------------|-----------------------------------------|
C#|-0---0--0--0--0---0--0---0---0--0--0--0--|-0---0--0--0--0---0--0---0---0--0--0--0--|


 E|------------------------------------|--------------------------|---------------------------|
 B|------------------------------------|----------------12--------|---------------------------|
F#|------------------------------------|------0-----14------------|---------------------------|
C#|-0--0--0--3--3---0--0--0--3---------|-0-------------------0----|-2---2---2---2---0----0----|


 E|--------------------------|---------------------|--------------------------|---------------------------|
 B|----------------12--------|---------------------|----------------12--------|---------------------------|
F#|------0-----14------------|---------------------|------0-----14------------|---------------------------|
C#|-0-------------------0----|-1-----2---2----3----|-0-------------------0----|-2---2---2---2---0----0----|


 E|--------------------------|---------------------|-----------------|-----------------|
 B|----------------12--------|---------------------|-----------------|-----------------|
F#|------0-----14------------|---------------------|-----------------|-----------------|
C#|-0-------------------0----|-1-----2---2----3----|-0-----0-----0---|-0----0----0-----|


 E|-----------------|---------------------------------|-----------------|-----------------|
 B|-----------------|---------------------------------|-----------------|-----------------|
F#|-----------------|-0---0---0-----------------------|-----------------|-----------------|
C#|-0-----0-----3---|-------------1---3---3---3---1---|-0-----0-----0---|-0----0----0-----|


 E|-----------------|---------------------------------|-----------------------------------------|
 B|-----------------|---------------------------------|-----------------------------------------|
F#|-----------------|-0---0---0-----------------------|-----------------------------------------|
C#|-0-----0-----3---|-------------1---3---3---3---2---|-0---0--0--0--0---0--0---0---0--0--0--0--|


 E|-----------------------------------------|-----------------------------------------|
 B|-----------------------------------------|-----------------------------------------|
F#|-----------------------------------------|-----------------------------------------|
C#|-0---0--0--0--0---0--0---0---0--0--0--0--|-0---0--0--0--0---0--0---0---0--0--0--0--|


 E|-----------------------------------------|-----------------------------------------|
 B|-----------------------------------------|-----------------------------------------|
F#|-------------------------------0---------|-----------------------------------------|
C#|-0--0--0--3--3---0--0--0--3-------3--2---|-0---0--0--0--0---0--0---0---0--0--0--0--|


 E|-----------------------------------------|-----------------------------------------|
 B|-----------------------------------------|-----------------------------------------|
F#|-----------------------------------------|-----------------------------------------|
C#|-0---0--0--0--0---0--0---0---0--0--0--0--|-0---0--0--0--0---0--0---0---0--0--0--0--|


 E|-----------------------------------------|-----------------------------------------|
 B|-----------------------------------------|-----------------------------------------|
F#|-------------------------------0---------|-----------------------------------------|
C#|-0--0--0--3--3---0--0--0--3-------3--2---|-0---0--0--0--0---0--0---0---0--0--0--0--|


 E|-----------------------------------------|-----------------------------------------|
 B|-----------------------------------------|-----------------------------------------|
F#|-----------------------------------------|-----------------------------------------|
C#|-0---0--0--0--0---0--0---0---0--0--0--0--|-0---0--0--0--0---0--0---0---0--0--0--0--|


 E|-----------------------------------------|-----------------------------------------|
 B|-----------------------------------------|-----------------------------------------|
F#|-------------------------------0---------|-----------------------------------------|
C#|-0--0--0--3--3---0--0--0--3-------3--2---|-0---0--0--0--0---0--0---0---0--0--0--0--|


 E|-----------------------------------------|-----------------------------------------|
 B|-----------------------------------------|-----------------------------------------|
F#|-----------------------------------------|-----------------------------------------|
C#|-0---0--0--0--0---0--0---0---0--0--0--0--|-0---0--0--0--0---0--0---0---0--0--0--0--|


 E|-----------------------------------------|--------------------------|---------------------------|
 B|-----------------------------------------|----------------12--------|---------------------------|
F#|-------------------------------0---------|------0-----14------------|---------------------------|
C#|-0--0--0--3--3---0--0--0--3-------3--2---|-0-------------------0----|-2---2---2---2---0----0----|


 E|--------------------------|---------------------|--------------------------|---------------------------|
 B|----------------12--------|---------------------|----------------12--------|---------------------------|
F#|------0-----14------------|---------------------|------0-----14------------|---------------------------|
C#|-0-------------------0----|-1-----2---2----3----|-0-------------------0----|-2---2---2---2---0----0----|


 E|--------------------------|---------------------|------------------------|---------------------|
 B|----------------12--------|---------------------|------------------------|---------------------|
F#|------0-----14------------|---------------------|-3------------------3---|-3----2--------------|
C#|-0-------------------0----|-1-----2---2----3----|------0----2----3-------|-----------2----0----|


 E|------5----5------------|-3-------------------------------|------------------------|
 B|------------------------|---------------------------------|------------------------|
F#|-3-------------8---8----|------8--8---10------------------|-3------------------3---|
C#|------------------------|-----------------8----2--2---1---|------0----2----3-------|


 E|---------------------|------5----5------------|-3-------------------------------|
 B|---------------------|------------------------|---------------------------------|
F#|-3----2--------------|-3-------------8---8----|------8--8---10------------------|
C#|-----------2----0----|------------------------|-----------------8----2--2---1---|


 E|--------|-------------|-------------|------------------------|--------|-------------|
 B|--------|-------------|-------------|------------------------|--------|-------------|
F#|--------|--------5----|-7-----------|----------------3-------|--------|--------5----|
C#|-0------|-0-----------|-10----------|-6-----5---5----6-------|-0------|-0-----------|


 E|-------------|------------------------|------------------------|---------------------------|
 B|-------------|------------------------|------------------------|---------------------------|
F#|-7-----------|----------------3-------|-0----0---------0---3---|-0----7---8---7--------3---|
C#|-10----------|-6-----5---5----6-------|-----------0------------|------5---5---5----5-------|


 E|------------------------|---------------------------------|------------------------|
 B|------------------------|-5---5---5---7---7---7-----------|------------------------|
F#|-0----7---8---7---------|-3---3---3---5---5---5---5---5---|-0----0---------0-------|
C#|------5---5---5----5----|---------------------------------|-----------0--------8---|


 E|---------------------------|------------------------|------------------------------|
 B|---------------------------|------------------------|-----3-----------5-------5----|
F#|------7---8---7--------3---|-0----7---8---7----7----|------------------------------|
C#|-5----5---5---5----5-------|------5---5---5----5----|-1-------1---2-------2--------|


 E|--------|-----------------|------------------------|---------------------------|
 B|--------|-----------------|-----------7------------|---------------------------|
F#|-5------|-7---------------|--------------------3---|-0----7---8---7--------3---|
C#|--------|-------8----4----|-5----5---------5-------|------5---5---5----5-------|


 E|------------------------|-0---7-----------9---------------|----------------|-----------------|
 B|------------------------|---------------------------------|----------------|-----------------|
F#|-0----7---8---7----7----|---------10--11------11--11--11--|----------------|-7---------------|
C#|------5---5---5----5----|---------------------------------|-10-----8---10--|-10--------8-----|


 E|--------|--------|----------------|-------------------5----|--------|--------|--------|
 B|--------|--------|----------------|------------------------|--------|--------|--------|
F#|--------|--------|-5------3---5---|-7-------10-------------|--------|--------|--------|
C#|-5------|-5------|----------------|-10-----------8---------|-5------|-5------|-5------|


 E|--------|--------|--------|--------|------------------------|--------|-----------------|
 B|--------|--------|--------|--------|------------------------|--------|-----------------|
F#|--------|--------|--------|--------|----------------3-------|--------|-------------5---|
C#|-5------|-0------|-0------|-0------|-6-----5---5----6-------|-0------|-0-----0---------|


 E|-------------|---------------------|-----------------------------------------|-----------------------------------------|
 B|-------------|---------------------|-----------------------------------------|-----------------------------------------|
F#|-7-----------|---------------------|-----------------------------------------|-----------------------------------------|
C#|-10----------|-6-----5---5----3----|-0---0--0--0--0---0--0---0---0--0--0--0--|-0---0--0--0--0---0--0---0---0--0--0--0--|


 E|-----------------------------------------|-----------------------------------------|
 B|-----------------------------------------|-----------------------------------------|
F#|-----------------------------------------|-------------------------------0---------|
C#|-0---0--0--0--0---0--0---0---0--0--0--0--|-0--0--0--3--3---0--0--0--3-------3--2---|


 E|-----------------------------------------|-----------------------------------------|
 B|-----------------------------------------|-----------------------------------------|
F#|-----------------------------------------|-----------------------------------------|
C#|-0---0--0--0--0---0--0---0---0--0--0--0--|-0---0--0--0--0---0--0---0---0--0--0--0--|


 E|-----------------------------------------|-------------------------------------------|
 B|-----------------------------------------|-------------------------------------------|
F#|-----------------------------------------|-------------------------------------------|
C#|-0---0--0--0--0---0--0---0---0--0--0--0--|-0--0--0--3--3---0--0--0--3----0--0--0--3--|


 E|-----------------------------|-----------------------------|------------------------|
 B|-----------------------------|-----------12----------------|------------------------|
F#|-----------------------------|-0-----14--------------------|------------------------|
C#|-3---0--0--0--3---------0----|----------------0----2---2---|-2---2---0----0----0----|


 E|--------------------------|------------------------|-----------------------------|
 B|-----------12-------------|------------------------|-----------12----------------|
F#|-0-----14-----------------|------------------------|-0-----14--------------------|
C#|----------------0----1----|-----2---2----3----0----|----------------0----2---2---|


 E|------------------------|--------------------------|------------------------|------------------------|
 B|------------------------|-----------12-------------|------------------------|------------------------|
F#|------------------------|-0-----14-----------------|-------------------3----|---------------3---3----|
C#|-2---2---0----0----0----|----------------0----1----|-1--2----2----3---------|-0----2----3------------|


 E|---------------------|-5----5------------3-------|------------------------------|
 B|---------------------|---------------------------|------------------------------|
F#|-2--------------3----|----------8---8---------8--|-8---10------------------3----|
C#|------2----0---------|---------------------------|---------8----2--2---1--------|


 E|------------------------|---------------------|-5----5------------3-------|------------------------------|
 B|------------------------|---------------------|---------------------------|------------------------------|
F#|---------------3---3----|-2--------------3----|----------8---8---------8--|-8---10------------------3----|
C#|-0----2----3------------|------2----0---------|---------------------------|---------8----2--2---1--------|


 E|------------------------|---------------------|------------------------|---------------------|
 B|------------------------|---------------------|------------------------|---------------------|
F#|---------------3---3----|-2--------------3----|---------------3---3----|-2--------------3----|
C#|-0----2----3------------|------2----0---------|-0----2----3------------|------2----0---------|


 E|------------------------|---------------------|------------------------|---------------------|
 B|------------------------|---------------------|------------------------|---------------------|
F#|---------------3---3----|-2--------------3----|---------------3---3----|-2--------------3----|
C#|-0----2----3------------|------2----0---------|-0----2----3------------|------2----0---------|


 E|------------------------|---------------------|------------------------|---------------------|
 B|------------------------|---------------------|------------------------|---------------------|
F#|---------------3---3----|-2--------------3----|---------------3---3----|-2--------------3----|
C#|-0----2----3------------|------2----0---------|-0----2----3------------|------2----0---------|


 E|------------------------|---------------------|------------------------|---------------------|
 B|------------------------|---------------------|------------------------|---------------------|
F#|---------------3---3----|-2--------------3----|---------------3---3----|-2-------------------|
C#|-0----2----3------------|------2----0---------|-0----2----3------------|------2----0---------|