Menu:

 

Search:

 

pantera - drag the waters:

 



Title: Drag The Waters
Artist: 
Album: The Great Southern Trendkill
Author: Pantera


Track 1: Distortion (L)

C#|---------------------------------|---------------------------------|---------------------------------|
G#|---------------------------------|---------------------------------|---------------------------------|
 E|---------------------------------|---------------------------------|---------------------------------|
 B|---------------------------------|---------------------------------|---------------------------------|
F#|---------------------------------|---------------------------------|---------------------------------|
C#|-1---0-------0---1---0-------0---|-1---0-------0---1---0-------0---|-1---0-------0---1---0-------0---|


C#|-----------------------------------|---------------------------------|-----------------------------------|
G#|-----------------------------------|---------------------------------|-----------------------------------|
 E|-----------------------------------|---------------------------------|-----------------------------------|
 B|-----7---7---5---7--5--------------|---------------------------------|-----7---7---5---7--5--------------|
F#|-----------------------7-----------|-3---2-----------3---2-----------|-----------------------7-----------|
C#|-0-------------------------5---5---|-1---0-------0---1---0-------0---|-0-------------------------5---5---|


C#|---------------------------------|-----------------------------------|---------------------------------|
G#|---------------------------------|-----------------------------------|---------------------------------|
 E|---------------------------------|-----------------------------------|---------------------------------|
 B|---------------------------------|-----7---7---5---7--5--------------|---------------------------------|
F#|-3---2-----------3---2-----------|-----------------------7-----------|-3---2-----------3---2-----------|
C#|-1---0-------0---1---0-------0---|-0-------------------------5---5---|-1---0-------0---1---0-------0---|


C#|-----------------------------------|---------------------------------|-----------------------------------|
G#|-----------------------------------|---------------------------------|-----------------------------------|
 E|-----------------------------------|---------------------------------|-----------------------------------|
 B|-----7---7---5---7--5--------------|---------------------------------|-----7---7---5---7--5--------------|
F#|-----------------------7-----------|-3---2-----------3---2-----------|-----------------------7-----------|
C#|-0-------------------------5---5---|-1---0-------0---1---0-------0---|-0-------------------------5---5---|


C#|-----------------------|--------|--------|-------------------------------|-----------------------|
G#|-----------------------|--------|--------|-------------------------------|-----------------------|
 E|-----------------------|--------|--------|-------------------------------|-----------------------|
 B|-----------------------|--------|--------|-------------------------------|-----------------------|
F#|-3---2-----------------|--------|--------|-------5----------7------------|-3---2-----------------|
C#|-1---0-----------------|--------|--------|-3--5-------5--7-------8---7---|-1---0-----------------|


C#|--------|--------|-------------------------------|-----------------------|--------|
G#|--------|--------|-------------------------------|-----------------------|--------|
 E|--------|--------|-------------------------------|-----------------------|--------|
 B|--------|--------|-------------------------------|-----------------------|--------|
F#|--------|--------|-------5----------7----10--9---|-3---2-----------------|--------|
C#|--------|--------|-3--5-------5--7-------8---7---|-1---0-----------------|--------|


C#|--------|-------------------------------|-----------------------|--------|--------|
G#|--------|-------------------------------|-----------------------|--------|--------|
 E|--------|-------------------------------|-----------------------|--------|--------|
 B|--------|-------------------------------|-----------------------|--------|--------|
F#|--------|-------5----------7------------|-3---2-----------------|--------|--------|
C#|--------|-3--5-------5--7-------8---7---|-1---0-----------------|--------|--------|


C#|-----------------------------------|---------------------------------|-----------------------------------|
G#|-----------------------------------|---------------------------------|-----------------------------------|
 E|-----------------------------------|---------------------------------|-----------------------------------|
 B|-----7---7---5---7--5--------------|---------------------------------|-----7---7---5---7--5--------------|
F#|-----------------------7-----------|-3---2-----------3---2-----------|-----------------------7-----------|
C#|-0-------------------------5---5---|-1---0-------0---1---0-------0---|-0-------------------------5---5---|


C#|---------------------------------|-----------------------------------|-------------------------------------------|
G#|---------------------------------|-----------------------------------|-------------------------------------------|
 E|---------------------------------|-----------------------------------|-------------------------------------------|
 B|---------------------------------|-----7---7---5---7--5--------------|-------------------------------------------|
F#|-3---2-----------3---2-----------|-----------------------1---0-------|---------1--1--------3--3------------------|
C#|-1---0-------0---1---0-------0---|-0-----------------------------1---|-1---3---------3--1-----------1--1--1--3---|


C#|---------------------------------------|-----------------------------------------------|
G#|---------------------------------------|-----------------------------------------------|
 E|---------------------------------------|-----------------------------------------------|
 B|---------------------------------------|-----------------------------------------------|
F#|-1--1--------1----1--1-----------------|-1--1--------3--3------------------1--1--------|
C#|-------3--1--------------1---1--1--3---|-------3--1-----------1--1--1--3---------3--1--|


C#|---------------------------------------|-------------------------------------------|
G#|---------------------------------------|-------------------------------------------|
 E|---------------------------------------|-------------------------------------------|
 B|---------------------------------------|-------------------------------------------|
F#|-3----1--1-----------------3--3--------|-5--5------------------3--3--------5----3--|
C#|-------------3---3--3--5---------5--3--|----------3--3--3--5---------5--3----------|


C#|-------------------------------------------|---------------------------------------|
G#|-------------------------------------------|---------------------------------------|
 E|-------------------------------------------|---------------------------------------|
 B|-------------------------------------------|-----------------------5----7--7---8---|
F#|-3-----------------3--3--------5--5--------|-----------3--3--------3----5--5---6---|
C#|-----3---3--3--5---------5--3-----------3--|-3--3--5---------5--3--3----5--5---6---|


C#|---------------------------------|-----------------------------------|---------------------------------|
G#|---------------------------------|-----------------------------------|---------------------------------|
 E|---------------------------------|-----------------------------------|---------------------------------|
 B|---------------------------------|-----7---7---5---7--5--------------|---------------------------------|
F#|-3---2-----------3---2-----------|-----------------------7-----------|-3---2-----------3---2-----------|
C#|-1---0-------0---1---0-------0---|-0-------------------------5---5---|-1---0-------0---1---0-------0---|


C#|-----------------------------------|---------------------------------|-----------------------------------|
G#|-----------------------------------|---------------------------------|-----------------------------------|
 E|-----------------------------------|---------------------------------|-----------------------------------|
 B|-----7---7---5---7--5--------------|---------------------------------|-----7---7---5---7--5--------------|
F#|-----------------------7-----------|-3---2-----------3---2-----------|-----------------------7-----------|
C#|-0-------------------------5---5---|-1---0-------0---1---0-------0---|-0-------------------------5---5---|


C#|---------------------------------|-----------------------------------|-----------------------|
G#|---------------------------------|-----------------------------------|-----------------------|
 E|---------------------------------|-----------------------------------|-----------------------|
 B|---------------------------------|-----7---7---5---7--5--------------|-----------------------|
F#|-3---2-----------3---2-----------|-----------------------7-----------|-3---2-----------------|
C#|-1---0-------0---1---0-------0---|-0-------------------------5---5---|-1---0-----------------|


C#|--------|--------|-------------------------------|-----------------------|--------|
G#|--------|--------|-------------------------------|-----------------------|--------|
 E|--------|--------|-------------------------------|-----------------------|--------|
 B|--------|--------|-------------------------------|-----------------------|--------|
F#|--------|--------|-------5----------7------------|-3---2-----------------|--------|
C#|--------|--------|-3--5-------5--7-------8---7---|-1---0-----------------|--------|


C#|--------|-------------------------------|-----------------------|--------|--------|
G#|--------|-------------------------------|-----------------------|--------|--------|
 E|--------|-------------------------------|-----------------------|--------|--------|
 B|--------|-------------------------------|-----------------------|--------|--------|
F#|--------|-------5----------7----10--9---|-3---2-----------------|--------|--------|
C#|--------|-3--5-------5--7-------8---7---|-1---0-----------------|--------|--------|


C#|-------------------------------|-----------------------|--------|--------|-----------------------------------|
G#|-------------------------------|-----------------------|--------|--------|-----------------------------------|
 E|-------------------------------|-----------------------|--------|--------|-----------------------------------|
 B|-------------------------------|-----------------------|--------|--------|-----7---7---5---7--5--------------|
F#|-------5----------7------------|-3---2-----------------|--------|--------|-----------------------7-----------|
C#|-3--5-------5--7-------8---7---|-1---0-----------------|--------|--------|-0-------------------------5---5---|


C#|---------------------------------|-----------------------------------|---------------------------------|
G#|---------------------------------|-----------------------------------|---------------------------------|
 E|---------------------------------|-----------------------------------|---------------------------------|
 B|---------------------------------|-----7---7---5---7--5--------------|---------------------------------|
F#|-3---2-----------3---2-----------|-----------------------7-----------|-3---2-----------3---2-----------|
C#|-1---0-------0---1---0-------0---|-0-------------------------5---5---|-1---0-------0---1---0-------0---|


C#|-----------------------------------|-------------------------------------------|
G#|-----------------------------------|-------------------------------------------|
 E|-----------------------------------|-------------------------------------------|
 B|-----7---7---5---7--5--------------|-------------------------------------------|
F#|-----------------------1---0-------|---------1--1--------3--3------------------|
C#|-0-----------------------------1---|-1---3---------3--1-----------1--1--1--3---|


C#|---------------------------------------|-----------------------------------------------|
G#|---------------------------------------|-----------------------------------------------|
 E|---------------------------------------|-----------------------------------------------|
 B|---------------------------------------|-----------------------------------------------|
F#|-1--1--------1----1--1-----------------|-1--1--------3--3------------------1--1--------|
C#|-------3--1--------------1---1--1--3---|-------3--1-----------1--1--1--3---------3--1--|


C#|---------------------------------------|-------------------------------------------|
G#|---------------------------------------|-------------------------------------------|
 E|---------------------------------------|-------------------------------------------|
 B|---------------------------------------|-------------------------------------------|
F#|-3----1--1-----------------3--3--------|-5--5------------------3--3--------5----3--|
C#|-------------3---3--3--5---------5--3--|----------3--3--3--5---------5--3----------|


C#|-------------------------------------------|---------------------------------------|
G#|-------------------------------------------|---------------------------------------|
 E|-------------------------------------------|---------------------------------------|
 B|-------------------------------------------|-----------------------5----7--7---8---|
F#|-3-----------------3--3--------5--5--------|-----------3--3--------3----5--5---6---|
C#|-----3---3--3--5---------5--3-----------3--|-3--3--5---------5--3--3----5--5---6---|


C#|---------------------------------|-----------------------------------|---------------------------------|
G#|---------------------------------|-----------------------------------|---------------------------------|
 E|---------------------------------|-----------------------------------|---------------------------------|
 B|---------------------------------|-----7---7---5---7--5--------------|---------------------------------|
F#|-3---2-----------3---2-----------|-----------------------7-----------|-3---2-----------3---2-----------|
C#|-1---0-------0---1---0-------0---|-0-------------------------5---5---|-1---0-------0---1---0-------0---|


C#|-----------------------------------|---------------------------------|-----------------------------------|
G#|-----------------------------------|---------------------------------|-----------------------------------|
 E|-----------------------------------|---------------------------------|-----------------------------------|
 B|-----7---7---5---7--5--------------|---------------------------------|-----7---7---5---7--5--------------|
F#|-----------------------7-----------|-3---2-----------3---2-----------|-----------------------7-----------|
C#|-0-------------------------5---5---|-1---0-------0---1---0-------0---|-0-------------------------5---5---|


C#|---------------------------------|-----------------------------------|-------------|
G#|---------------------------------|-----------------------------------|-------------|
 E|---------------------------------|-----------------------------------|-------------|
 B|---------------------------------|-----7---7---5---7--5--------------|-------------|
F#|-3---2-----------3---2-----------|-----------------------7-----------|-------------|
C#|-1---0-------0---1---0-------0---|-0-------------------------5---5---|-------------|


C#|--------|--------|--------|--------|--------|------------------------------|--------|
G#|--------|--------|--------|--------|--------|------------------------------|--------|
 E|--------|--------|--------|--------|--------|------------------------------|--------|
 B|--------|--------|--------|--------|--------|------------------------------|--------|
F#|--------|--------|--------|--------|--------|-3---2------------------------|--------|
C#|--------|--------|--------|--------|--------|-1---0---0---0---0---0--------|--------|


C#|--------|--------|--------|--------|--------|--------|--------|--------|--------|
G#|--------|--------|--------|--------|--------|--------|--------|--------|--------|
 E|--------|--------|--------|--------|--------|--------|--------|--------|--------|
 B|--------|--------|--------|--------|--------|--------|--------|--------|--------|
F#|--------|--------|--------|--------|--------|--------|--------|--------|--------|
C#|--------|--------|--------|--------|--------|--------|--------|--------|--------|


C#|--------|--------|--------------------------------|--------|--------|--------|-----------------------------------|
G#|--------|--------|--------------------------------|--------|--------|--------|-----------------------------------|
 E|--------|--------|--------------------------------|--------|--------|--------|-----------------------------------|
 B|--------|--------|-----7---7---5---7--5-----------|--------|--------|--------|-----7---7---5---7--5--------------|
F#|--------|--------|-----------------------7--------|--------|--------|--------|-----------------------7-----------|
C#|--------|--------|--------------------------------|--------|--------|--------|---------------------------5---5---|


C#|---------------------------------|-----------------------------------|---------------------------------|
G#|---------------------------------|-----------------------------------|---------------------------------|
 E|---------------------------------|-----------------------------------|---------------------------------|
 B|---------------------------------|-----7---7---5---7--5--------------|---------------------------------|
F#|-3---2-----------3---2-----------|-----------------------7-----------|-3---2-----------3---2-----------|
C#|-1---0-------0---1---0-------0---|-0-------------------------5---5---|-1---0-------0---1---0-------0---|


C#|-----------------------------------|---------------------------------|-----------------------------------|
G#|-----------------------------------|---------------------------------|-----------------------------------|
 E|-----------------------------------|---------------------------------|-----------------------------------|
 B|-----7---7---5---7--5--------------|---------------------------------|-----7---7---5---7--5--------------|
F#|-----------------------7-----------|-3---2-----------3---2-----------|-----------------------7-----------|
C#|-0-------------------------5---5---|-1---0-------0---1---0-------0---|-0-------------------------5---5---|


C#|---------------------------------|-----------------------------------|-------------------------------------|
G#|---------------------------------|-----------------------------------|-------------------------------------|
 E|---------------------------------|-----------------------------------|-------------------------------------|
 B|---------------------------------|-----7---7---5---7--5--------------|-------------------------------------|
F#|-3---2-----------3---2-----------|-----------------------7-----------|-3---2-------------3---2-------------|
C#|-1---0-------0---1---0-------0---|-0-------------------------5---5---|-1---0-------0--0--1---0-------0--0--|


C#|-----------------------------------|-------------------------------------|-----------------------------------|
G#|-----------------------------------|-------------------------------------|-----------------------------------|
 E|-----------------------------------|-------------------------------------|-----------------------------------|
 B|-----7---7---5---7--5--------------|-------------------------------------|-----7---7---5---7--5--------------|
F#|-----------------------7-----------|-3---2-------------3---2-------------|-----------------------7-----------|
C#|-0-------------------------5---5---|-1---0-------0--0--1---0-------0--0--|-0-------------------------5---5---|


C#|-------------------------------------|-----------------------------------|-------------------------------------|
G#|-------------------------------------|-----------------------------------|-------------------------------------|
 E|-------------------------------------|-----------------------------------|-------------------------------------|
 B|-------------------------------------|-----7---7---5---7--5--------------|-------------------------------------|
F#|-3---2-------------3---2-------------|-----------------------7-----------|-3---2-------------3---2-------------|
C#|-1---0-------0--0--1---0-------0--0--|-0-------------------------5---5---|-1---0-------0--0--1---0-------0--0--|


C#|-----------------------------------|-----------------|----------------------|---------------------------------|
G#|-----------------------------------|-----------------|----------------------|---------------------------------|
 E|-----------------------------------|-----------------|----------------------|---------------------------------|
 B|-----7---7---5---7--5--------------|-----------------|----------------------|---------------------------------|
F#|-----------------------7-----------|-----------------|----------------0--0--|---------------------------------|
C#|-0-------------------------5---5---|-5----5-----5----|-5----5-----5---0--0--|-1---0-------0---1---0-------0---|


C#|---------------------------------|-----------------------------------|---------------------------------|
G#|---------------------------------|-----------------------------------|---------------------------------|
 E|---------------------------------|-----------------------------------|---------------------------------|
 B|---------------------------------|-----7---7---5---7--5--------------|---------------------------------|
F#|---------------------------------|-----------------------7-----------|-3---2-----------3---2-----------|
C#|-1---0-------0---1---0-------0---|-0-------------------------5---5---|-1---0-------0---1---0-------0---|


C#|-----------------------------------|---------------------------------|-----------------------------------|
G#|-----------------------------------|---------------------------------|-----------------------------------|
 E|-----------------------------------|---------------------------------|-----------------------------------|
 B|-----7---7---5---7--5--------------|---------------------------------|-----7---7---5---7--5--------------|
F#|-----------------------7-----------|-3---2-----------3---2-----------|-----------------------7-----------|
C#|-0-------------------------5---5---|-1---0-------0---1---0-------0---|-0-------------------------5---5---|


C#|-----------------------------------|-------------------------------|---------------------------------|
G#|-----------------------------------|-------------------------------|---------------------------------|
 E|-----------------------------------|-------------------------------|---------------------------------|
 B|-----------------------------------|-------------------------------|---------------------------------|
F#|-3---2-----------3---2-------------|-5----7----8----7----8----9----|-3---2-----------3---2-----------|
C#|-1---0-------0---1---0-------0--0--|-3----5----6----5----6----7----|-1---0-------0---1---0-------0---|


C#|-----------------------------------|-----------------------------------|-------------------------------|
G#|-----------------------------------|-----------------------------------|-------------------------------|
 E|-----------------------------------|-----------------------------------|-------------------------------|
 B|-----7---7---5---7--5--------------|-----------------------------------|-------------------------------|
F#|-----------------------7-----------|-3---2-----------3---2-------------|-5----7----8----7----8----9----|
C#|-0-------------------------5---5---|-1---0-------0---1---0-------0--0--|-3----5----6----5----6----7----|


C#|--------|--------|--------|--------|--------|--------|--------|--------|--------|
G#|--------|--------|--------|--------|--------|--------|--------|--------|--------|
 E|--------|--------|--------|--------|--------|--------|--------|--------|--------|
 B|--------|--------|--------|--------|--------|--------|--------|--------|--------|
F#|--------|--------|--------|--------|--------|--------|--------|--------|--------|
C#|--------|--------|--------|--------|--------|--------|--------|--------|--------|





Track 2: Guitar Crunches

C#|--------|--------|--------|--------|--------|--------|--------|--------|--------|
G#|--------|--------|--------|--------|--------|--------|--------|--------|--------|
 E|--------|--------|--------|--------|--------|--------|--------|--------|--------|
 B|--------|--------|--------|--------|--------|--------|--------|--------|--------|
F#|--------|--------|--------|--------|--------|--------|--------|--------|--------|
C#|--------|--------|--------|--------|--------|--------|--------|--------|--------|


C#|--------|--------|--------|---------------------------|---------------------------------|
G#|--------|--------|--------|---------------------------|---------------------------------|
 E|--------|--------|--------|---------------------------|---------------------------------|
 B|--------|--------|--------|---------------------------|---------------------------------|
F#|--------|--------|--------|-------0-------0---0---0---|-----0---0---0-------0---0---0---|
C#|--------|--------|--------|-------0-------0---0---0---|-----0---0---0-------0---0---0---|


C#|---------------------------------|--------|---------------------------|---------------------------------|
G#|---------------------------------|--------|---------------------------|---------------------------------|
 E|---------------------------------|--------|---------------------------|---------------------------------|
 B|---------------------------------|--------|---------------------------|---------------------------------|
F#|-----0---0---0-------0---0---0---|--------|-------0-------0---0---0---|-----0---0---0-------0---0---0---|
C#|-----0---0---0-------0---0---0---|--------|-------0-------0---0---0---|-----0---0---0-------0---0---0---|


C#|---------------------------------|--------|---------------------------|---------------------------------|
G#|---------------------------------|--------|---------------------------|---------------------------------|
 E|---------------------------------|--------|---------------------------|---------------------------------|
 B|---------------------------------|--------|---------------------------|---------------------------------|
F#|-----0---0---0-------0---0---0---|--------|-------0-------0---0---0---|-----0---0---0-------0---0---0---|
C#|-----0---0---0-------0---0---0---|--------|-------0-------0---0---0---|-----0---0---0-------0---0---0---|


C#|---------------------------------|--------|---------------------------|---------------------------------|
G#|---------------------------------|--------|---------------------------|---------------------------------|
 E|---------------------------------|--------|---------------------------|---------------------------------|
 B|---------------------------------|--------|---------------------------|---------------------------------|
F#|-----0---0---0-------0---0---0---|--------|-------0-------0---0---0---|-----0---0---0-------0---0---0---|
C#|-----0---0---0-------0---0---0---|--------|-------0-------0---0---0---|-----0---0---0-------0---0---0---|


C#|---------------------------------|--------|--------|--------|--------|--------|
G#|---------------------------------|--------|--------|--------|--------|--------|
 E|---------------------------------|--------|--------|--------|--------|--------|
 B|---------------------------------|--------|--------|--------|--------|--------|
F#|-----0---0---0-------0---0---0---|--------|--------|--------|--------|--------|
C#|-----0---0---0-------0---0---0---|--------|--------|--------|--------|--------|


C#|--------|--------|--------|--------|--------|--------|--------|--------|--------|
G#|--------|--------|--------|--------|--------|--------|--------|--------|--------|
 E|--------|--------|--------|--------|--------|--------|--------|--------|--------|
 B|--------|--------|--------|--------|--------|--------|--------|--------|--------|
F#|--------|--------|--------|--------|--------|--------|--------|--------|--------|
C#|--------|--------|--------|--------|--------|--------|--------|--------|--------|


C#|--------|--------|--------|--------|--------|--------|---------------------------|
G#|--------|--------|--------|--------|--------|--------|---------------------------|
 E|--------|--------|--------|--------|--------|--------|---------------------------|
 B|--------|--------|--------|--------|--------|--------|---------------------------|
F#|--------|--------|--------|--------|--------|--------|-------0-------0---0---0---|
C#|--------|--------|--------|--------|--------|--------|-------0-------0---0---0---|


C#|---------------------------------|---------------------------------|--------|---------------------------|
G#|---------------------------------|---------------------------------|--------|---------------------------|
 E|---------------------------------|---------------------------------|--------|---------------------------|
 B|---------------------------------|---------------------------------|--------|---------------------------|
F#|-----0---0---0-------0---0---0---|-----0---0---0-------0---0---0---|--------|-------0-------0---0---0---|
C#|-----0---0---0-------0---0---0---|-----0---0---0-------0---0---0---|--------|-------0-------0---0---0---|


C#|---------------------------------|---------------------------------|--------|---------------------------|
G#|---------------------------------|---------------------------------|--------|---------------------------|
 E|---------------------------------|---------------------------------|--------|---------------------------|
 B|---------------------------------|---------------------------------|--------|---------------------------|
F#|-----0---0---0-------0---0---0---|-----0---0---0-------0---0---0---|--------|-------0-------0---0---0---|
C#|-----0---0---0-------0---0---0---|-----0---0---0-------0---0---0---|--------|-------0-------0---0---0---|


C#|---------------------------------|---------------------------------|--------|---------------------------|
G#|---------------------------------|---------------------------------|--------|---------------------------|
 E|---------------------------------|---------------------------------|--------|---------------------------|
 B|---------------------------------|---------------------------------|--------|---------------------------|
F#|-----0---0---0-------0---0---0---|-----0---0---0-------0---0---0---|--------|-------0-------0---0---0---|
C#|-----0---0---0-------0---0---0---|-----0---0---0-------0---0---0---|--------|-------0-------0---0---0---|


C#|---------------------------------|---------------------------------|--------|--------|
G#|---------------------------------|---------------------------------|--------|--------|
 E|---------------------------------|---------------------------------|--------|--------|
 B|---------------------------------|---------------------------------|--------|--------|
F#|-----0---0---0-------0---0---0---|-----0---0---0-------0---0---0---|--------|--------|
C#|-----0---0---0-------0---0---0---|-----0---0---0-------0---0---0---|--------|--------|


C#|--------|--------|--------|--------|--------|--------|--------|--------|--------|
G#|--------|--------|--------|--------|--------|--------|--------|--------|--------|
 E|--------|--------|--------|--------|--------|--------|--------|--------|--------|
 B|--------|--------|--------|--------|--------|--------|--------|--------|--------|
F#|--------|--------|--------|--------|--------|--------|--------|--------|--------|
C#|--------|--------|--------|--------|--------|--------|--------|--------|--------|


C#|--------|--------|--------|--------|--------|--------|--------|--------|--------|
G#|--------|--------|--------|--------|--------|--------|--------|--------|--------|
 E|--------|--------|--------|--------|--------|--------|--------|--------|--------|
 B|--------|--------|--------|--------|--------|--------|--------|--------|--------|
F#|--------|--------|--------|--------|--------|--------|--------|--------|--------|
C#|--------|--------|--------|--------|--------|--------|--------|--------|--------|


C#|--------|--------|--------|--------|--------|--------|--------|--------|--------|
G#|--------|--------|--------|--------|--------|--------|--------|--------|--------|
 E|--------|--------|--------|--------|--------|--------|--------|--------|--------|
 B|--------|--------|--------|--------|--------|--------|--------|--------|--------|
F#|--------|--------|--------|--------|--------|--------|--------|--------|--------|
C#|--------|--------|--------|--------|--------|--------|--------|--------|--------|


C#|--------|--------|--------|--------|--------|--------|--------|---------------------------------|
G#|--------|--------|--------|--------|--------|--------|--------|---------------------------------|
 E|--------|--------|--------|--------|--------|--------|--------|---------------------------------|
 B|--------|--------|--------|--------|--------|--------|--------|---------------------------------|
F#|--------|--------|--------|--------|--------|--------|--------|---------------------------------|
C#|--------|--------|--------|--------|--------|--------|--------|-----0-------0-------0---0---0---|


C#|---------------------------------|--------|--------|-----15--17--18--19--------|
G#|---------------------------------|--------|--------|---------------------------|
 E|---------------------------------|--------|--------|---------------------------|
 B|---------------------------------|--------|--------|---------------------------|
F#|---------------------------------|--------|--------|---------------------------|
C#|-----0---0---0-------0---0---0---|--------|--------|---------------------------|


C#|-15------17------18------------|-19----20----21----22----22---22------|--------|
G#|-----17------17------17--------|----20----20----20----20--------------|--------|
 E|-------------------------------|--------------------------------------|--------|
 B|-------------------------------|--------------------------------------|--------|
F#|-------------------------------|--------------------------------------|--------|
C#|-------------------------------|--------------------------------------|--------|


C#|--------|--------|--------|--------|--------|--------|--------|--------|--------|
G#|--------|--------|--------|--------|--------|--------|--------|--------|--------|
 E|--------|--------|--------|--------|--------|--------|--------|--------|--------|
 B|--------|--------|--------|--------|--------|--------|--------|--------|--------|
F#|--------|--------|--------|--------|--------|--------|--------|--------|--------|
C#|--------|--------|--------|--------|--------|--------|--------|--------|--------|


C#|--------|--------|--------|--------|--------|--------|--------|--------|--------|
G#|--------|--------|--------|--------|--------|--------|--------|--------|--------|
 E|--------|--------|--------|--------|--------|--------|--------|--------|--------|
 B|--------|--------|--------|--------|--------|--------|--------|--------|--------|
F#|--------|--------|--------|--------|--------|--------|--------|--------|--------|
C#|--------|--------|--------|--------|--------|--------|--------|--------|--------|


C#|--------|--------|--------|--------|--------|--------|--------|--------|--------|
G#|--------|--------|--------|--------|--------|--------|--------|--------|--------|
 E|--------|--------|--------|--------|--------|--------|--------|--------|--------|
 B|--------|--------|--------|--------|--------|--------|--------|--------|--------|
F#|--------|--------|--------|--------|--------|--------|--------|--------|--------|
C#|--------|--------|--------|--------|--------|--------|--------|--------|--------|


C#|--------|--------|--------|--------|--------|--------|--------|--------|--------|
G#|--------|--------|--------|--------|--------|--------|--------|--------|--------|
 E|--------|--------|--------|--------|--------|--------|--------|--------|--------|
 B|--------|--------|--------|--------|--------|--------|--------|--------|--------|
F#|--------|--------|--------|--------|--------|--------|--------|--------|--------|
C#|--------|--------|--------|--------|--------|--------|--------|--------|--------|


C#|--------|--------|--------|--------|
G#|--------|--------|--------|--------|
 E|--------|--------|--------|--------|
 B|--------|--------|--------|--------|
F#|--------|--------|--------|--------|
C#|--------|--------|--------|--------|





Track 3: Distortion (L)

C#|--------|--------|--------|--------|--------|--------|--------|--------|--------|
G#|--------|--------|--------|--------|--------|--------|--------|--------|--------|
 E|--------|--------|--------|--------|--------|--------|--------|--------|--------|
 B|--------|--------|--------|--------|--------|--------|--------|--------|--------|
F#|--------|--------|--------|--------|--------|--------|--------|--------|--------|
C#|--------|--------|--------|--------|--------|--------|--------|--------|--------|


C#|--------|--------|--------|--------|--------|--------|--------|--------|--------|
G#|--------|--------|--------|--------|--------|--------|--------|--------|--------|
 E|--------|--------|--------|--------|--------|--------|--------|--------|--------|
 B|--------|--------|--------|--------|--------|--------|--------|--------|--------|
F#|--------|--------|--------|--------|--------|--------|--------|--------|--------|
C#|--------|--------|--------|--------|--------|--------|--------|--------|--------|


C#|--------|--------|--------|--------|--------|--------|--------|--------|--------|
G#|--------|--------|--------|--------|--------|--------|--------|--------|--------|
 E|--------|--------|--------|--------|--------|--------|--------|--------|--------|
 B|--------|--------|--------|--------|--------|--------|--------|--------|--------|
F#|--------|--------|--------|--------|--------|--------|--------|--------|--------|
C#|--------|--------|--------|--------|--------|--------|--------|--------|--------|


C#|--------|--------|--------|--------|--------|--------|--------|--------|--------|
G#|--------|--------|--------|--------|--------|--------|--------|--------|--------|
 E|--------|--------|--------|--------|--------|--------|--------|--------|--------|
 B|--------|--------|--------|--------|--------|--------|--------|--------|--------|
F#|--------|--------|--------|--------|--------|--------|--------|--------|--------|
C#|--------|--------|--------|--------|--------|--------|--------|--------|--------|


C#|--------|--------|--------|--------|--------|--------|--------|--------|--------|
G#|--------|--------|--------|--------|--------|--------|--------|--------|--------|
 E|--------|--------|--------|--------|--------|--------|--------|--------|--------|
 B|--------|--------|--------|--------|--------|--------|--------|--------|--------|
F#|--------|--------|--------|--------|--------|--------|--------|--------|--------|
C#|--------|--------|--------|--------|--------|--------|--------|--------|--------|


C#|--------|--------|--------|--------|--------|--------|--------|--------|--------|
G#|--------|--------|--------|--------|--------|--------|--------|--------|--------|
 E|--------|--------|--------|--------|--------|--------|--------|--------|--------|
 B|--------|--------|--------|--------|--------|--------|--------|--------|--------|
F#|--------|--------|--------|--------|--------|--------|--------|--------|--------|
C#|--------|--------|--------|--------|--------|--------|--------|--------|--------|


C#|--------|--------|--------|--------|--------|--------|--------|--------|--------|
G#|--------|--------|--------|--------|--------|--------|--------|--------|--------|
 E|--------|--------|--------|--------|--------|--------|--------|--------|--------|
 B|--------|--------|--------|--------|--------|--------|--------|--------|--------|
F#|--------|--------|--------|--------|--------|--------|--------|--------|--------|
C#|--------|--------|--------|--------|--------|--------|--------|--------|--------|


C#|--------|--------|--------|--------|--------|--------|--------|--------|--------|
G#|--------|--------|--------|--------|--------|--------|--------|--------|--------|
 E|--------|--------|--------|--------|--------|--------|--------|--------|--------|
 B|--------|--------|--------|--------|--------|--------|--------|--------|--------|
F#|--------|--------|--------|--------|--------|--------|--------|--------|--------|
C#|--------|--------|--------|--------|--------|--------|--------|--------|--------|


C#|--------|--------|--------|--------|--------|--------|--------|--------|--------|
G#|--------|--------|--------|--------|--------|--------|--------|--------|--------|
 E|--------|--------|--------|--------|--------|--------|--------|--------|--------|
 B|--------|--------|--------|--------|--------|--------|--------|--------|--------|
F#|--------|--------|--------|--------|--------|--------|--------|--------|--------|
C#|--------|--------|--------|--------|--------|--------|--------|--------|--------|


C#|--------|----------------|--------|--------|--------|--------|--------|--------|
G#|--------|----------------|--------|--------|--------|--------|--------|--------|
 E|--------|----------------|--------|--------|--------|--------|--------|--------|
 B|--------|----------------|--------|--------|--------|--------|--------|--------|
F#|--------|-3---2----------|--------|--------|--------|--------|--------|--------|
C#|--------|-1---0----------|--------|--------|--------|--------|--------|--------|


C#|--------|--------|--------|--------|--------|--------|--------|--------|--------|
G#|--------|--------|--------|--------|--------|--------|--------|--------|--------|
 E|--------|--------|--------|--------|--------|--------|--------|--------|--------|
 B|--------|--------|--------|--------|--------|--------|--------|--------|--------|
F#|--------|--------|--------|--------|--------|--------|--------|--------|--------|
C#|--------|--------|--------|--------|--------|--------|--------|--------|--------|


C#|--------|--------|--------|--------|--------|--------|--------|--------|--------|
G#|--------|--------|--------|--------|--------|--------|--------|--------|--------|
 E|--------|--------|--------|--------|--------|--------|--------|--------|--------|
 B|--------|--------|--------|--------|--------|--------|--------|--------|--------|
F#|--------|--------|--------|--------|--------|--------|--------|--------|--------|
C#|--------|--------|--------|--------|--------|--------|--------|--------|--------|


C#|--------|--------|--------|--------|--------|--------|--------|--------|--------|
G#|--------|--------|--------|--------|--------|--------|--------|--------|--------|
 E|--------|--------|--------|--------|--------|--------|--------|--------|--------|
 B|--------|--------|--------|--------|--------|--------|--------|--------|--------|
F#|--------|--------|--------|--------|--------|--------|--------|--------|--------|
C#|--------|--------|--------|--------|--------|--------|--------|--------|--------|


C#|--------|--------|--------|--------|--------|--------|--------|--------|--------|
G#|--------|--------|--------|--------|--------|--------|--------|--------|--------|
 E|--------|--------|--------|--------|--------|--------|--------|--------|--------|
 B|--------|--------|--------|--------|--------|--------|--------|--------|--------|
F#|--------|--------|--------|--------|--------|--------|--------|--------|--------|
C#|--------|--------|--------|--------|--------|--------|--------|--------|--------|


C#|--------|--------|--------|--------|--------|--------|--------|--------|--------|
G#|--------|--------|--------|--------|--------|--------|--------|--------|--------|
 E|--------|--------|--------|--------|--------|--------|--------|--------|--------|
 B|--------|--------|--------|--------|--------|--------|--------|--------|--------|
F#|--------|--------|--------|--------|--------|--------|--------|--------|--------|
C#|--------|--------|--------|--------|--------|--------|--------|--------|--------|


C#|--------|--------|--------|---------------------------------|-----------------------------------|
G#|--------|--------|--------|---------------------------------|-----------------------------------|
 E|--------|--------|--------|---------------------------------|-----------------------------------|
 B|--------|--------|--------|---------------------------------|-----7---7---5---7--5--------------|
F#|--------|--------|--------|-3---2-----------3---2-----------|-----------------------7-----------|
C#|--------|--------|--------|-1---0-------0---1---0-------0---|-0-------------------------5---5---|


C#|---------------------------------|-----------------------------------|---------------------------------|
G#|---------------------------------|-----------------------------------|---------------------------------|
 E|---------------------------------|-----------------------------------|---------------------------------|
 B|---------------------------------|-----7---7---5---7--5--------------|---------------------------------|
F#|-3---2-----------3---2-----------|-----------------------7-----------|-3---2-----------3---2-----------|
C#|-1---0-------0---1---0-------0---|-0-------------------------5---5---|-1---0-------0---1---0-------0---|


C#|-----------------------------------|---------------------------------|-----------------------------------|
G#|-----------------------------------|---------------------------------|-----------------------------------|
 E|-----------------------------------|---------------------------------|-----------------------------------|
 B|-----7---7---5---7--5--------------|---------------------------------|-----7---7---5---7--5--------------|
F#|-----------------------7-----------|-3---2-----------3---2-----------|-----------------------7-----------|
C#|-0-------------------------5---5---|-1---0-------0---1---0-------0---|-0-------------------------5---5---|


C#|--------|
G#|--------|
 E|--------|
 B|--------|
F#|--------|
C#|--------|





Track 4: Lead Guitar

C#|--------|--------|--------|--------|--------|--------|--------|--------|--------|
G#|--------|--------|--------|--------|--------|--------|--------|--------|--------|
 E|--------|--------|--------|--------|--------|--------|--------|--------|--------|
 B|--------|--------|--------|--------|--------|--------|--------|--------|--------|
F#|--------|--------|--------|--------|--------|--------|--------|--------|--------|
C#|--------|--------|--------|--------|--------|--------|--------|--------|--------|


C#|--------|--------|--------|--------|--------|--------|--------|--------|--------|
G#|--------|--------|--------|--------|--------|--------|--------|--------|--------|
 E|--------|--------|--------|--------|--------|--------|--------|--------|--------|
 B|--------|--------|--------|--------|--------|--------|--------|--------|--------|
F#|--------|--------|--------|--------|--------|--------|--------|--------|--------|
C#|--------|--------|--------|--------|--------|--------|--------|--------|--------|


C#|--------|--------|--------|--------|--------|--------|--------|--------|--------|
G#|--------|--------|--------|--------|--------|--------|--------|--------|--------|
 E|--------|--------|--------|--------|--------|--------|--------|--------|--------|
 B|--------|--------|--------|--------|--------|--------|--------|--------|--------|
F#|--------|--------|--------|--------|--------|--------|--------|--------|--------|
C#|--------|--------|--------|--------|--------|--------|--------|--------|--------|


C#|--------|--------|--------|--------|--------|--------|--------|--------|--------|
G#|--------|--------|--------|--------|--------|--------|--------|--------|--------|
 E|--------|--------|--------|--------|--------|--------|--------|--------|--------|
 B|--------|--------|--------|--------|--------|--------|--------|--------|--------|
F#|--------|--------|--------|--------|--------|--------|--------|--------|--------|
C#|--------|--------|--------|--------|--------|--------|--------|--------|--------|


C#|--------|--------|--------|--------|--------|--------|--------|--------|--------|
G#|--------|--------|--------|--------|--------|--------|--------|--------|--------|
 E|--------|--------|--------|--------|--------|--------|--------|--------|--------|
 B|--------|--------|--------|--------|--------|--------|--------|--------|--------|
F#|--------|--------|--------|--------|--------|--------|--------|--------|--------|
C#|--------|--------|--------|--------|--------|--------|--------|--------|--------|


C#|--------|--------|--------|--------|--------|--------|--------|--------|--------|
G#|--------|--------|--------|--------|--------|--------|--------|--------|--------|
 E|--------|--------|--------|--------|--------|--------|--------|--------|--------|
 B|--------|--------|--------|--------|--------|--------|--------|--------|--------|
F#|--------|--------|--------|--------|--------|--------|--------|--------|--------|
C#|--------|--------|--------|--------|--------|--------|--------|--------|--------|


C#|--------|--------|--------|--------|--------|--------|--------|--------|--------|
G#|--------|--------|--------|--------|--------|--------|--------|--------|--------|
 E|--------|--------|--------|--------|--------|--------|--------|--------|--------|
 B|--------|--------|--------|--------|--------|--------|--------|--------|--------|
F#|--------|--------|--------|--------|--------|--------|--------|--------|--------|
C#|--------|--------|--------|--------|--------|--------|--------|--------|--------|


C#|--------|--------|--------|--------|--------|--------|--------|--------|--------|
G#|--------|--------|--------|--------|--------|--------|--------|--------|--------|
 E|--------|--------|--------|--------|--------|--------|--------|--------|--------|
 B|--------|--------|--------|--------|--------|--------|--------|--------|--------|
F#|--------|--------|--------|--------|--------|--------|--------|--------|--------|
C#|--------|--------|--------|--------|--------|--------|--------|--------|--------|


C#|--------|--------|--------|--------|--------|--------|--------|--------|--------|
G#|--------|--------|--------|--------|--------|--------|--------|--------|--------|
 E|--------|--------|--------|--------|--------|--------|--------|--------|--------|
 B|--------|--------|--------|--------|--------|--------|--------|--------|--------|
F#|--------|--------|--------|--------|--------|--------|--------|--------|--------|
C#|--------|--------|--------|--------|--------|--------|--------|--------|--------|


C#|--------|------------------------------------|-----------------------------------|
G#|--------|------------------------------------|-----------------------------------|
 E|--------|------12-12-15--15--15--15------15--|-----15------15--------------------|
 B|--------|------12-12-14--14--14------14------|-14------14-----14-14-12-14---14---|
F#|--------|------12-12-------------------------|-----------------------------------|
C#|--------|------------------------------------|-----------------------------------|


C#|--------------------------------------------|-------------------------------------|
G#|--------------17-15-12-15-17-17-15-12-17-17-|-15-12-17-17-15-12-17-17-15-12-17----|
 E|----------12--------------------------------|-------------------------------------|
 B|----------12--------------------------------|-------------------------------------|
F#|----------12--------------------------------|-------------------------------------|
C#|--------------------------------------------|-------------------------------------|


C#|--------|--------|--------|--------|---------------------------------------------|
G#|--------|--------|--------|--------|---------------------------------------------|
 E|--------|--------|--------|--------|---------------------------7--9--9-----7--9--|
 B|--------|--------|--------|--------|-------5-----7---5--7--9------------9--------|
F#|--------|--------|--------|--------|-5--7-----7----------------------------------|
C#|--------|--------|--------|--------|---------------------------------------------|


C#|--------------------------------------|-----------------------------------|-----------------------------------|
G#|-7------------------------------------|-8-----10-8------8--------8--8-----|-8----8----------------------------|
 E|----9--7-----9-----7--9--7----3---9---|----9--------9------9--12----10----|-10---10---------12----14----12-14-|
 B|----------9-----9---------------------|-----------------------------------|--------------14----14----14-------|
F#|--------------------------------------|-----------------------------------|-----------------------------------|
C#|--------------------------------------|-----------------------------------|-----------------------------------|


C#|--------------------------------------------|------------------------------------|
G#|--------------------------------------------|------------------------------------|
 E|-14--14--14--14--14--14--14--14-14-14-14-12-|-14-14--14-14-14-12-14-14-12----12--|
 B|--------------------------------------------|------------------------------------|
F#|--------------------------------------------|------------------------------------|
C#|--------------------------------------------|------------------------------------|


C#|-12----15----12-------------------------------|-15--15----15--------|---------12--------------12-----------12-------|
G#|----15----15----15--15-15---19-15-20-15-19-15-|---------------------|------------15-12-15-15-----15-12-15-----15-12-|
 E|----------------------------------------------|---------------------|-----12----------------------------------------|
 B|----------------------------------------------|---------------------|-----------------------------------------------|
F#|----------------------------------------------|---------------------|-----------------------------------------------|
C#|----------------------------------------------|---------------------|-----------------------------------------------|


C#|-----12-----------12-----------12-----------12-------|-15-15---15---15----|-15------------------|
G#|--------15-12-15-----15-12--------15-12-15-----15-12-|--------------------|----------------10---|
 E|-14------------------------14------------------------|--------------------|---------------------|
 B|-----------------------------------------------------|--------------------|---------------------|
F#|-----------------------------------------------------|--------------------|---------------------|
C#|-----------------------------------------------------|--------------------|---------------------|


C#|-----------19----------|-------19--19----------|------------22--|-22----22---22---|
G#|-17----------------17--|-------------------20--|----------------|-----------------|
 E|-----------------------|-----------------------|----------------|-----------------|
 B|-----------------------|-----------------------|----------------|-----------------|
F#|-----------------------|-----------------------|----------------|-----------------|
C#|-----------------------|-----------------------|----------------|-----------------|


C#|-22-----22---|--------|--------|--------|--------|--------|---------------------------|
G#|-------------|--------|--------|--------|--------|--------|---------------------------|
 E|-------------|--------|--------|--------|--------|--------|---------------------------|
 B|-------------|--------|--------|--------|--------|--------|-----7---7----7----7---7---|
F#|-------------|--------|--------|--------|--------|--------|---------------------------|
C#|-------------|--------|--------|--------|--------|--------|---------------------------|


C#|-------------------------------|-------------|-----------------|--------|----------------15--|
G#|-------------------------------|-------------|-----------------|--------|--------------------|
 E|------12---14---14---14---14---|-14----14----|-14---14----14---|--------|--------------------|
 B|-------------------------------|-------------|-----------------|--------|--------------------|
F#|-------------------------------|-------------|-----------------|--------|--------------------|
C#|-------------------------------|-------------|-----------------|--------|--------------------|


C#|-15--------15--15--12------|-------------|--------|-----17---15--17-15-------------|
G#|-----------------------15--|-15----------|--------|--------------------17--17------|
 E|---------------------------|-------------|--------|----------------------------14--|
 B|---------------------------|-------------|--------|--------------------------------|
F#|---------------------------|-------------|--------|--------------------------------|
C#|---------------------------|-------------|--------|--------------------------------|


C#|-------------|--------|--------|--------|--------|--------|--------|--------|--------|
G#|-------------|--------|--------|--------|--------|--------|--------|--------|--------|
 E|-14---14-----|-14-----|--------|--------|--------|--------|--------|--------|--------|
 B|-------------|--------|--------|--------|--------|--------|--------|--------|--------|
F#|-------------|--------|--------|--------|--------|--------|--------|--------|--------|
C#|-------------|--------|--------|--------|--------|--------|--------|--------|--------|


C#|--------|--------|--------|--------|--------|--------|--------|--------|--------|
G#|--------|--------|--------|--------|--------|--------|--------|--------|--------|
 E|--------|--------|--------|--------|--------|--------|--------|--------|--------|
 B|--------|--------|--------|--------|--------|--------|--------|--------|--------|
F#|--------|--------|--------|--------|--------|--------|--------|--------|--------|
C#|--------|--------|--------|--------|--------|--------|--------|--------|--------|


C#|--------|--------|--------|--------|--------|-22--------------|
G#|--------|--------|--------|--------|--------|-----------------|
 E|--------|--------|--------|--------|--------|-----------------|
 B|--------|--------|--------|--------|--------|-----------------|
F#|--------|--------|--------|--------|--------|-----------------|
C#|--------|--------|--------|--------|--------|-----------------|





Track 5: Distortion (L)

C#|--------|--------|--------|--------|--------|--------|--------|--------|--------|
G#|--------|--------|--------|--------|--------|--------|--------|--------|--------|
 E|--------|--------|--------|--------|--------|--------|--------|--------|--------|
 B|--------|--------|--------|--------|--------|--------|--------|--------|--------|
F#|--------|--------|--------|--------|--------|--------|--------|--------|--------|
C#|--------|--------|--------|--------|--------|--------|--------|--------|--------|


C#|--------|--------|--------|--------|--------|--------|--------|--------|--------|
G#|--------|--------|--------|--------|--------|--------|--------|--------|--------|
 E|--------|--------|--------|--------|--------|--------|--------|--------|--------|
 B|--------|--------|--------|--------|--------|--------|--------|--------|--------|
F#|--------|--------|--------|--------|--------|--------|--------|--------|--------|
C#|--------|--------|--------|--------|--------|--------|--------|--------|--------|


C#|--------|--------|--------|--------|--------|--------|--------|--------|--------|
G#|--------|--------|--------|--------|--------|--------|--------|--------|--------|
 E|--------|--------|--------|--------|--------|--------|--------|--------|--------|
 B|--------|--------|--------|--------|--------|--------|--------|--------|--------|
F#|--------|--------|--------|--------|--------|--------|--------|--------|--------|
C#|--------|--------|--------|--------|--------|--------|--------|--------|--------|


C#|--------|--------|--------|--------|--------|--------|--------|--------|--------|
G#|--------|--------|--------|--------|--------|--------|--------|--------|--------|
 E|--------|--------|--------|--------|--------|--------|--------|--------|--------|
 B|--------|--------|--------|--------|--------|--------|--------|--------|--------|
F#|--------|--------|--------|--------|--------|--------|--------|--------|--------|
C#|--------|--------|--------|--------|--------|--------|--------|--------|--------|


C#|--------|--------|--------|--------|--------|--------|--------|--------|--------|
G#|--------|--------|--------|--------|--------|--------|--------|--------|--------|
 E|--------|--------|--------|--------|--------|--------|--------|--------|--------|
 B|--------|--------|--------|--------|--------|--------|--------|--------|--------|
F#|--------|--------|--------|--------|--------|--------|--------|--------|--------|
C#|--------|--------|--------|--------|--------|--------|--------|--------|--------|


C#|--------|--------|--------|--------|--------|--------|--------|--------|--------|
G#|--------|--------|--------|--------|--------|--------|--------|--------|--------|
 E|--------|--------|--------|--------|--------|--------|--------|--------|--------|
 B|--------|--------|--------|--------|--------|--------|--------|--------|--------|
F#|--------|--------|--------|--------|--------|--------|--------|--------|--------|
C#|--------|--------|--------|--------|--------|--------|--------|--------|--------|


C#|--------|--------|--------|--------|--------|--------|--------|--------|--------|
G#|--------|--------|--------|--------|--------|--------|--------|--------|--------|
 E|--------|--------|--------|--------|--------|--------|--------|--------|--------|
 B|--------|--------|--------|--------|--------|--------|--------|--------|--------|
F#|--------|--------|--------|--------|--------|--------|--------|--------|--------|
C#|--------|--------|--------|--------|--------|--------|--------|--------|--------|


C#|--------|--------|--------|--------|--------|--------|--------|--------|--------|
G#|--------|--------|--------|--------|--------|--------|--------|--------|--------|
 E|--------|--------|--------|--------|--------|--------|--------|--------|--------|
 B|--------|--------|--------|--------|--------|--------|--------|--------|--------|
F#|--------|--------|--------|--------|--------|--------|--------|--------|--------|
C#|--------|--------|--------|--------|--------|--------|--------|--------|--------|


C#|--------|--------|--------|--------|--------|--------|--------|--------|--------|
G#|--------|--------|--------|--------|--------|--------|--------|--------|--------|
 E|--------|--------|--------|--------|--------|--------|--------|--------|--------|
 B|--------|--------|--------|--------|--------|--------|--------|--------|--------|
F#|--------|--------|--------|--------|--------|--------|--------|--------|--------|
C#|--------|--------|--------|--------|--------|--------|--------|--------|--------|


C#|--------|-----------------|--------|--------------------|--------|---------------------------------|
G#|--------|-----------------|--------|--------------------|--------|---------------------------------|
 E|--------|-----------------|--------|--------------------|--------|---------------------------------|
 B|--------|-----------------|--------|--------------------|--------|-------------7---7---7---7---5---|
F#|--------|-----------------|--------|-3---2--------------|--------|-3---2---------------------------|
C#|--------|-----------------|--------|-1---0--------------|--------|-1---0---------------------------|


C#|-----------------------------|--------|--------|--------|--------|--------|--------|
G#|-----------------------------|--------|--------|--------|--------|--------|--------|
 E|-----------------------------|--------|--------|--------|--------|--------|--------|
 B|-7--5------5-----------------|--------|--------|--------|--------|--------|--------|
F#|-------7---------------------|--------|--------|--------|--------|--------|--------|
C#|---------------5---5---5-----|--------|--------|--------|--------|--------|--------|


C#|--------|--------|--------|--------|--------|--------|--------|--------|--------|
G#|--------|--------|--------|--------|--------|--------|--------|--------|--------|
 E|--------|--------|--------|--------|--------|--------|--------|--------|--------|
 B|--------|--------|--------|--------|--------|--------|--------|--------|--------|
F#|--------|--------|--------|--------|--------|--------|--------|--------|--------|
C#|--------|--------|--------|--------|--------|--------|--------|--------|--------|


C#|--------|--------|--------|--------|--------|--------|--------|--------|--------|
G#|--------|--------|--------|--------|--------|--------|--------|--------|--------|
 E|--------|--------|--------|--------|--------|--------|--------|--------|--------|
 B|--------|--------|--------|--------|--------|--------|--------|--------|--------|
F#|--------|--------|--------|--------|--------|--------|--------|--------|--------|
C#|--------|--------|--------|--------|--------|--------|--------|--------|--------|


C#|--------|--------|--------|--------|--------|--------|--------|--------|--------|
G#|--------|--------|--------|--------|--------|--------|--------|--------|--------|
 E|--------|--------|--------|--------|--------|--------|--------|--------|--------|
 B|--------|--------|--------|--------|--------|--------|--------|--------|--------|
F#|--------|--------|--------|--------|--------|--------|--------|--------|--------|
C#|--------|--------|--------|--------|--------|--------|--------|--------|--------|


C#|--------|--------|--------|--------|--------|--------|--------|--------|--------|
G#|--------|--------|--------|--------|--------|--------|--------|--------|--------|
 E|--------|--------|--------|--------|--------|--------|--------|--------|--------|
 B|--------|--------|--------|--------|--------|--------|--------|--------|--------|
F#|--------|--------|--------|--------|--------|--------|--------|--------|--------|
C#|--------|--------|--------|--------|--------|--------|--------|--------|--------|


C#|--------|--------|--------|--------|--------|--------|--------|--------|--------|
G#|--------|--------|--------|--------|--------|--------|--------|--------|--------|
 E|--------|--------|--------|--------|--------|--------|--------|--------|--------|
 B|--------|--------|--------|--------|--------|--------|--------|--------|--------|
F#|--------|--------|--------|--------|--------|--------|--------|--------|--------|
C#|--------|--------|--------|--------|--------|--------|--------|--------|--------|


C#|--------|--------|--------|--------|--------|--------|--------|
G#|--------|--------|--------|--------|--------|--------|--------|
 E|--------|--------|--------|--------|--------|--------|--------|
 B|--------|--------|--------|--------|--------|--------|--------|
F#|--------|--------|--------|--------|--------|--------|--------|
C#|--------|--------|--------|--------|--------|--------|--------|





Track 6: Distortion (L)

C#|--------|--------|--------|--------|--------|--------|--------|--------|--------|
G#|--------|--------|--------|--------|--------|--------|--------|--------|--------|
 E|--------|--------|--------|--------|--------|--------|--------|--------|--------|
 B|--------|--------|--------|--------|--------|--------|--------|--------|--------|
F#|--------|--------|--------|--------|--------|--------|--------|--------|--------|
C#|--------|--------|--------|--------|--------|--------|--------|--------|--------|


C#|--------|--------|--------|--------|--------|--------|--------|--------|--------|
G#|--------|--------|--------|--------|--------|--------|--------|--------|--------|
 E|--------|--------|--------|--------|--------|--------|--------|--------|--------|
 B|--------|--------|--------|--------|--------|--------|--------|--------|--------|
F#|--------|--------|--------|--------|--------|--------|--------|--------|--------|
C#|--------|--------|--------|--------|--------|--------|--------|--------|--------|


C#|--------|--------|--------|--------|--------|--------|--------|--------|--------|
G#|--------|--------|--------|--------|--------|--------|--------|--------|--------|
 E|--------|--------|--------|--------|--------|--------|--------|--------|--------|
 B|--------|--------|--------|--------|--------|--------|--------|--------|--------|
F#|--------|--------|--------|--------|--------|--------|--------|--------|--------|
C#|--------|--------|--------|--------|--------|--------|--------|--------|--------|


C#|--------|--------|--------|--------|--------|--------|--------|--------|--------|
G#|--------|--------|--------|--------|--------|--------|--------|--------|--------|
 E|--------|--------|--------|--------|--------|--------|--------|--------|--------|
 B|--------|--------|--------|--------|--------|--------|--------|--------|--------|
F#|--------|--------|--------|--------|--------|--------|--------|--------|--------|
C#|--------|--------|--------|--------|--------|--------|--------|--------|--------|


C#|--------|--------|--------|--------|--------|--------|--------|--------|--------|
G#|--------|--------|--------|--------|--------|--------|--------|--------|--------|
 E|--------|--------|--------|--------|--------|--------|--------|--------|--------|
 B|--------|--------|--------|--------|--------|--------|--------|--------|--------|
F#|--------|--------|--------|--------|--------|--------|--------|--------|--------|
C#|--------|--------|--------|--------|--------|--------|--------|--------|--------|


C#|--------|--------|--------|--------|--------|--------|--------|--------|--------|
G#|--------|--------|--------|--------|--------|--------|--------|--------|--------|
 E|--------|--------|--------|--------|--------|--------|--------|--------|--------|
 B|--------|--------|--------|--------|--------|--------|--------|--------|--------|
F#|--------|--------|--------|--------|--------|--------|--------|--------|--------|
C#|--------|--------|--------|--------|--------|--------|--------|--------|--------|


C#|--------|--------|--------|--------|--------|--------|--------|--------|--------|
G#|--------|--------|--------|--------|--------|--------|--------|--------|--------|
 E|--------|--------|--------|--------|--------|--------|--------|--------|--------|
 B|--------|--------|--------|--------|--------|--------|--------|--------|--------|
F#|--------|--------|--------|--------|--------|--------|--------|--------|--------|
C#|--------|--------|--------|--------|--------|--------|--------|--------|--------|


C#|--------|--------|--------|--------|--------|--------|--------|--------|--------|
G#|--------|--------|--------|--------|--------|--------|--------|--------|--------|
 E|--------|--------|--------|--------|--------|--------|--------|--------|--------|
 B|--------|--------|--------|--------|--------|--------|--------|--------|--------|
F#|--------|--------|--------|--------|--------|--------|--------|--------|--------|
C#|--------|--------|--------|--------|--------|--------|--------|--------|--------|


C#|--------|--------|--------|--------|--------|--------|--------|--------|--------|
G#|--------|--------|--------|--------|--------|--------|--------|--------|--------|
 E|--------|--------|--------|--------|--------|--------|--------|--------|--------|
 B|--------|--------|--------|--------|--------|--------|--------|--------|--------|
F#|--------|--------|--------|--------|--------|--------|--------|--------|--------|
C#|--------|--------|--------|--------|--------|--------|--------|--------|--------|


C#|--------|--------|--------|--------|--------|--------|--------|--------|--------|
G#|--------|--------|--------|--------|--------|--------|--------|--------|--------|
 E|--------|--------|--------|--------|--------|--------|--------|--------|--------|
 B|--------|--------|--------|--------|--------|--------|--------|--------|--------|
F#|--------|--------|--------|--------|--------|--------|--------|--------|--------|
C#|--------|--------|--------|--------|--------|--------|--------|--------|--------|


C#|--------|--------|--------|-----------------------------|--------|--------|--------|
G#|--------|--------|--------|-----------------------------|--------|--------|--------|
 E|--------|--------|--------|-----2---2---0---2-----------|--------|--------|--------|
 B|--------|--------|--------|-----------------------------|--------|--------|--------|
F#|--------|--------|--------|-----------------------------|--------|--------|--------|
C#|--------|--------|--------|-----------------------------|--------|--------|--------|


C#|--------|--------|--------|--------|--------|--------|--------|--------|--------|
G#|--------|--------|--------|--------|--------|--------|--------|--------|--------|
 E|--------|--------|--------|--------|--------|--------|--------|--------|--------|
 B|--------|--------|--------|--------|--------|--------|--------|--------|--------|
F#|--------|--------|--------|--------|--------|--------|--------|--------|--------|
C#|--------|--------|--------|--------|--------|--------|--------|--------|--------|


C#|--------|--------|--------|--------|--------|--------|--------|--------|--------|
G#|--------|--------|--------|--------|--------|--------|--------|--------|--------|
 E|--------|--------|--------|--------|--------|--------|--------|--------|--------|
 B|--------|--------|--------|--------|--------|--------|--------|--------|--------|
F#|--------|--------|--------|--------|--------|--------|--------|--------|--------|
C#|--------|--------|--------|--------|--------|--------|--------|--------|--------|


C#|--------|--------|--------|--------|--------|--------|--------|--------|--------|
G#|--------|--------|--------|--------|--------|--------|--------|--------|--------|
 E|--------|--------|--------|--------|--------|--------|--------|--------|--------|
 B|--------|--------|--------|--------|--------|--------|--------|--------|--------|
F#|--------|--------|--------|--------|--------|--------|--------|--------|--------|
C#|--------|--------|--------|--------|--------|--------|--------|--------|--------|


C#|--------|--------|--------|--------|--------|--------|--------|--------|--------|
G#|--------|--------|--------|--------|--------|--------|--------|--------|--------|
 E|--------|--------|--------|--------|--------|--------|--------|--------|--------|
 B|--------|--------|--------|--------|--------|--------|--------|--------|--------|
F#|--------|--------|--------|--------|--------|--------|--------|--------|--------|
C#|--------|--------|--------|--------|--------|--------|--------|--------|--------|


C#|--------|--------|--------|--------|--------|--------|--------|--------|--------|
G#|--------|--------|--------|--------|--------|--------|--------|--------|--------|
 E|--------|--------|--------|--------|--------|--------|--------|--------|--------|
 B|--------|--------|--------|--------|--------|--------|--------|--------|--------|
F#|--------|--------|--------|--------|--------|--------|--------|--------|--------|
C#|--------|--------|--------|--------|--------|--------|--------|--------|--------|


C#|--------|--------|--------|--------|
G#|--------|--------|--------|--------|
 E|--------|--------|--------|--------|
 B|--------|--------|--------|--------|
F#|--------|--------|--------|--------|
C#|--------|--------|--------|--------|





Track 7: Distortion (L)

C#|--------|--------|--------|--------|--------|--------|--------|--------|--------|
G#|--------|--------|--------|--------|--------|--------|--------|--------|--------|
 E|--------|--------|--------|--------|--------|--------|--------|--------|--------|
 B|--------|--------|--------|--------|--------|--------|--------|--------|--------|
F#|--------|--------|--------|--------|--------|--------|--------|--------|--------|
C#|--------|--------|--------|--------|--------|--------|--------|--------|--------|


C#|--------|--------|--------|--------|--------|--------|--------|--------|--------|
G#|--------|--------|--------|--------|--------|--------|--------|--------|--------|
 E|--------|--------|--------|--------|--------|--------|--------|--------|--------|
 B|--------|--------|--------|--------|--------|--------|--------|--------|--------|
F#|--------|--------|--------|--------|--------|--------|--------|--------|--------|
C#|--------|--------|--------|--------|--------|--------|--------|--------|--------|


C#|--------|--------|--------|--------|--------|--------|--------|--------|--------|
G#|--------|--------|--------|--------|--------|--------|--------|--------|--------|
 E|--------|--------|--------|--------|--------|--------|--------|--------|--------|
 B|--------|--------|--------|--------|--------|--------|--------|--------|--------|
F#|--------|--------|--------|--------|--------|--------|--------|--------|--------|
C#|--------|--------|--------|--------|--------|--------|--------|--------|--------|


C#|--------|--------|--------|--------|--------|--------|--------|--------|--------|
G#|--------|--------|--------|--------|--------|--------|--------|--------|--------|
 E|--------|--------|--------|--------|--------|--------|--------|--------|--------|
 B|--------|--------|--------|--------|--------|--------|--------|--------|--------|
F#|--------|--------|--------|--------|--------|--------|--------|--------|--------|
C#|--------|--------|--------|--------|--------|--------|--------|--------|--------|


C#|--------|--------|--------|--------|--------|--------|--------|--------|--------|
G#|--------|--------|--------|--------|--------|--------|--------|--------|--------|
 E|--------|--------|--------|--------|--------|--------|--------|--------|--------|
 B|--------|--------|--------|--------|--------|--------|--------|--------|--------|
F#|--------|--------|--------|--------|--------|--------|--------|--------|--------|
C#|--------|--------|--------|--------|--------|--------|--------|--------|--------|


C#|--------|--------|--------|--------|--------|--------|--------|--------|--------|
G#|--------|--------|--------|--------|--------|--------|--------|--------|--------|
 E|--------|--------|--------|--------|--------|--------|--------|--------|--------|
 B|--------|--------|--------|--------|--------|--------|--------|--------|--------|
F#|--------|--------|--------|--------|--------|--------|--------|--------|--------|
C#|--------|--------|--------|--------|--------|--------|--------|--------|--------|


C#|--------|--------|--------|--------|--------|--------|--------|--------|--------|
G#|--------|--------|--------|--------|--------|--------|--------|--------|--------|
 E|--------|--------|--------|--------|--------|--------|--------|--------|--------|
 B|--------|--------|--------|--------|--------|--------|--------|--------|--------|
F#|--------|--------|--------|--------|--------|--------|--------|--------|--------|
C#|--------|--------|--------|--------|--------|--------|--------|--------|--------|


C#|--------|--------|--------|--------|--------|--------|--------|--------|--------|
G#|--------|--------|--------|--------|--------|--------|--------|--------|--------|
 E|--------|--------|--------|--------|--------|--------|--------|--------|--------|
 B|--------|--------|--------|--------|--------|--------|--------|--------|--------|
F#|--------|--------|--------|--------|--------|--------|--------|--------|--------|
C#|--------|--------|--------|--------|--------|--------|--------|--------|--------|


C#|--------|--------|--------|--------|--------|--------|--------|--------|--------|
G#|--------|--------|--------|--------|--------|--------|--------|--------|--------|
 E|--------|--------|--------|--------|--------|--------|--------|--------|--------|
 B|--------|--------|--------|--------|--------|--------|--------|--------|--------|
F#|--------|--------|--------|--------|--------|--------|--------|--------|--------|
C#|--------|--------|--------|--------|--------|--------|--------|--------|--------|


C#|--------|--------|--------|--------|--------|--------|--------|--------|--------|
G#|--------|--------|--------|--------|--------|--------|--------|--------|--------|
 E|--------|--------|--------|--------|--------|--------|--------|--------|--------|
 B|--------|--------|--------|--------|--------|--------|--------|--------|--------|
F#|--------|--------|--------|--------|--------|--------|--------|--------|--------|
C#|--------|--------|--------|--------|--------|--------|--------|--------|--------|


C#|--------|--------|--------|-------------------------|--------------------|--------|
G#|--------|--------|--------|-------------------------|--------------------|--------|
 E|--------|--------|--------|----------0--------------|--------------------|--------|
 B|--------|--------|--------|-------------2-----------|--------------------|--------|
F#|--------|--------|--------|-------------------------|--------------------|--------|
C#|--------|--------|--------|-----------------5---5---|-1---0--------------|--------|


C#|--------|--------|--------|--------|--------|--------|--------|--------|--------|
G#|--------|--------|--------|--------|--------|--------|--------|--------|--------|
 E|--------|--------|--------|--------|--------|--------|--------|--------|--------|
 B|--------|--------|--------|--------|--------|--------|--------|--------|--------|
F#|--------|--------|--------|--------|--------|--------|--------|--------|--------|
C#|--------|--------|--------|--------|--------|--------|--------|--------|--------|


C#|--------|--------|--------|--------|--------|--------|--------|--------|--------|
G#|--------|--------|--------|--------|--------|--------|--------|--------|--------|
 E|--------|--------|--------|--------|--------|--------|--------|--------|--------|
 B|--------|--------|--------|--------|--------|--------|--------|--------|--------|
F#|--------|--------|--------|--------|--------|--------|--------|--------|--------|
C#|--------|--------|--------|--------|--------|--------|--------|--------|--------|


C#|--------|--------|--------|--------|--------|--------|--------|--------|--------|
G#|--------|--------|--------|--------|--------|--------|--------|--------|--------|
 E|--------|--------|--------|--------|--------|--------|--------|--------|--------|
 B|--------|--------|--------|--------|--------|--------|--------|--------|--------|
F#|--------|--------|--------|--------|--------|--------|--------|--------|--------|
C#|--------|--------|--------|--------|--------|--------|--------|--------|--------|


C#|--------|--------|--------|--------|--------|--------|--------|--------|--------|
G#|--------|--------|--------|--------|--------|--------|--------|--------|--------|
 E|--------|--------|--------|--------|--------|--------|--------|--------|--------|
 B|--------|--------|--------|--------|--------|--------|--------|--------|--------|
F#|--------|--------|--------|--------|--------|--------|--------|--------|--------|
C#|--------|--------|--------|--------|--------|--------|--------|--------|--------|


C#|--------|--------|--------|--------|--------|--------|--------|--------|--------|
G#|--------|--------|--------|--------|--------|--------|--------|--------|--------|
 E|--------|--------|--------|--------|--------|--------|--------|--------|--------|
 B|--------|--------|--------|--------|--------|--------|--------|--------|--------|
F#|--------|--------|--------|--------|--------|--------|--------|--------|--------|
C#|--------|--------|--------|--------|--------|--------|--------|--------|--------|


C#|--------|--------|--------|--------|--------|
G#|--------|--------|--------|--------|--------|
 E|--------|--------|--------|--------|--------|
 B|--------|--------|--------|--------|--------|
F#|--------|--------|--------|--------|--------|
C#|--------|--------|--------|--------|--------|





Track 8: Distortion (L)

C#|--------|--------|--------|--------|--------|--------|--------|--------|--------|
G#|--------|--------|--------|--------|--------|--------|--------|--------|--------|
 E|--------|--------|--------|--------|--------|--------|--------|--------|--------|
 B|--------|--------|--------|--------|--------|--------|--------|--------|--------|
F#|--------|--------|--------|--------|--------|--------|--------|--------|--------|
C#|--------|--------|--------|--------|--------|--------|--------|--------|--------|


C#|--------|--------|--------|--------|--------|--------|--------|--------|--------|
G#|--------|--------|--------|--------|--------|--------|--------|--------|--------|
 E|--------|--------|--------|--------|--------|--------|--------|--------|--------|
 B|--------|--------|--------|--------|--------|--------|--------|--------|--------|
F#|--------|--------|--------|--------|--------|--------|--------|--------|--------|
C#|--------|--------|--------|--------|--------|--------|--------|--------|--------|


C#|--------|--------|--------|--------|--------|--------|--------|--------|--------|
G#|--------|--------|--------|--------|--------|--------|--------|--------|--------|
 E|--------|--------|--------|--------|--------|--------|--------|--------|--------|
 B|--------|--------|--------|--------|--------|--------|--------|--------|--------|
F#|--------|--------|--------|--------|--------|--------|--------|--------|--------|
C#|--------|--------|--------|--------|--------|--------|--------|--------|--------|


C#|--------|--------|--------|--------|--------|--------|--------|--------|--------|
G#|--------|--------|--------|--------|--------|--------|--------|--------|--------|
 E|--------|--------|--------|--------|--------|--------|--------|--------|--------|
 B|--------|--------|--------|--------|--------|--------|--------|--------|--------|
F#|--------|--------|--------|--------|--------|--------|--------|--------|--------|
C#|--------|--------|--------|--------|--------|--------|--------|--------|--------|


C#|--------|--------|--------|--------|--------|--------|--------|--------|--------|
G#|--------|--------|--------|--------|--------|--------|--------|--------|--------|
 E|--------|--------|--------|--------|--------|--------|--------|--------|--------|
 B|--------|--------|--------|--------|--------|--------|--------|--------|--------|
F#|--------|--------|--------|--------|--------|--------|--------|--------|--------|
C#|--------|--------|--------|--------|--------|--------|--------|--------|--------|


C#|--------|--------|--------|--------|--------|--------|--------|--------|--------|
G#|--------|--------|--------|--------|--------|--------|--------|--------|--------|
 E|--------|--------|--------|--------|--------|--------|--------|--------|--------|
 B|--------|--------|--------|--------|--------|--------|--------|--------|--------|
F#|--------|--------|--------|--------|--------|--------|--------|--------|--------|
C#|--------|--------|--------|--------|--------|--------|--------|--------|--------|


C#|--------|--------|--------|--------|--------|--------|--------|--------|--------|
G#|--------|--------|--------|--------|--------|--------|--------|--------|--------|
 E|--------|--------|--------|--------|--------|--------|--------|--------|--------|
 B|--------|--------|--------|--------|--------|--------|--------|--------|--------|
F#|--------|--------|--------|--------|--------|--------|--------|--------|--------|
C#|--------|--------|--------|--------|--------|--------|--------|--------|--------|


C#|--------|--------|--------|--------|--------|--------|--------|--------|--------|
G#|--------|--------|--------|--------|--------|--------|--------|--------|--------|
 E|--------|--------|--------|--------|--------|--------|--------|--------|--------|
 B|--------|--------|--------|--------|--------|--------|--------|--------|--------|
F#|--------|--------|--------|--------|--------|--------|--------|--------|--------|
C#|--------|--------|--------|--------|--------|--------|--------|--------|--------|


C#|--------|--------|--------|--------|--------|--------|--------|--------|--------|
G#|--------|--------|--------|--------|--------|--------|--------|--------|--------|
 E|--------|--------|--------|--------|--------|--------|--------|--------|--------|
 B|--------|--------|--------|--------|--------|--------|--------|--------|--------|
F#|--------|--------|--------|--------|--------|--------|--------|--------|--------|
C#|--------|--------|--------|--------|--------|--------|--------|--------|--------|


C#|--------|--------|--------|--------|--------|--------|--------|--------|--------|
G#|--------|--------|--------|--------|--------|--------|--------|--------|--------|
 E|--------|--------|--------|--------|--------|--------|--------|--------|--------|
 B|--------|--------|--------|--------|--------|--------|--------|--------|--------|
F#|--------|--------|--------|--------|--------|--------|--------|--------|--------|
C#|--------|--------|--------|--------|--------|--------|--------|--------|--------|


C#|--------|--------|--------|--------|--------|--------|--------|-----------------------------------|
G#|--------|--------|--------|--------|--------|--------|--------|-----------------------------------|
 E|--------|--------|--------|--------|--------|--------|--------|-----------------------------------|
 B|--------|--------|--------|--------|--------|--------|--------|-----7---7---5---7--5--------------|
F#|--------|--------|--------|--------|--------|--------|--------|-----------------------7-----------|
C#|--------|--------|--------|--------|--------|--------|--------|---------------------------5---5---|


C#|----------------|--------|--------|--------|--------|--------|--------|--------|
G#|----------------|--------|--------|--------|--------|--------|--------|--------|
 E|----------------|--------|--------|--------|--------|--------|--------|--------|
 B|----------------|--------|--------|--------|--------|--------|--------|--------|
F#|----------------|--------|--------|--------|--------|--------|--------|--------|
C#|-1--------------|--------|--------|--------|--------|--------|--------|--------|


C#|--------|--------|--------|--------|--------|--------|--------|--------|--------|
G#|--------|--------|--------|--------|--------|--------|--------|--------|--------|
 E|--------|--------|--------|--------|--------|--------|--------|--------|--------|
 B|--------|--------|--------|--------|--------|--------|--------|--------|--------|
F#|--------|--------|--------|--------|--------|--------|--------|--------|--------|
C#|--------|--------|--------|--------|--------|--------|--------|--------|--------|


C#|--------|--------|--------|--------|--------|--------|--------|--------|--------|
G#|--------|--------|--------|--------|--------|--------|--------|--------|--------|
 E|--------|--------|--------|--------|--------|--------|--------|--------|--------|
 B|--------|--------|--------|--------|--------|--------|--------|--------|--------|
F#|--------|--------|--------|--------|--------|--------|--------|--------|--------|
C#|--------|--------|--------|--------|--------|--------|--------|--------|--------|


C#|--------|--------|--------|--------|--------|--------|--------|--------|--------|
G#|--------|--------|--------|--------|--------|--------|--------|--------|--------|
 E|--------|--------|--------|--------|--------|--------|--------|--------|--------|
 B|--------|--------|--------|--------|--------|--------|--------|--------|--------|
F#|--------|--------|--------|--------|--------|--------|--------|--------|--------|
C#|--------|--------|--------|--------|--------|--------|--------|--------|--------|


C#|--------|--------|--------|--------|--------|--------|--------|--------|--------|
G#|--------|--------|--------|--------|--------|--------|--------|--------|--------|
 E|--------|--------|--------|--------|--------|--------|--------|--------|--------|
 B|--------|--------|--------|--------|--------|--------|--------|--------|--------|
F#|--------|--------|--------|--------|--------|--------|--------|--------|--------|
C#|--------|--------|--------|--------|--------|--------|--------|--------|--------|


C#|--------|--------|--------|--------|
G#|--------|--------|--------|--------|
 E|--------|--------|--------|--------|
 B|--------|--------|--------|--------|
F#|--------|--------|--------|--------|
C#|--------|--------|--------|--------|





Track 9: Distortion (L)

C#|--------|--------|--------|--------|--------|--------|--------|--------|--------|
G#|--------|--------|--------|--------|--------|--------|--------|--------|--------|
 E|--------|--------|--------|--------|--------|--------|--------|--------|--------|
 B|--------|--------|--------|--------|--------|--------|--------|--------|--------|
F#|--------|--------|--------|--------|--------|--------|--------|--------|--------|
C#|--------|--------|--------|--------|--------|--------|--------|--------|--------|


C#|--------|--------|--------|--------|--------|--------|--------|--------|--------|
G#|--------|--------|--------|--------|--------|--------|--------|--------|--------|
 E|--------|--------|--------|--------|--------|--------|--------|--------|--------|
 B|--------|--------|--------|--------|--------|--------|--------|--------|--------|
F#|--------|--------|--------|--------|--------|--------|--------|--------|--------|
C#|--------|--------|--------|--------|--------|--------|--------|--------|--------|


C#|--------|--------|--------|--------|--------|--------|--------|--------|--------|
G#|--------|--------|--------|--------|--------|--------|--------|--------|--------|
 E|--------|--------|--------|--------|--------|--------|--------|--------|--------|
 B|--------|--------|--------|--------|--------|--------|--------|--------|--------|
F#|--------|--------|--------|--------|--------|--------|--------|--------|--------|
C#|--------|--------|--------|--------|--------|--------|--------|--------|--------|


C#|--------|--------|--------|--------|--------|--------|--------|--------|--------|
G#|--------|--------|--------|--------|--------|--------|--------|--------|--------|
 E|--------|--------|--------|--------|--------|--------|--------|--------|--------|
 B|--------|--------|--------|--------|--------|--------|--------|--------|--------|
F#|--------|--------|--------|--------|--------|--------|--------|--------|--------|
C#|--------|--------|--------|--------|--------|--------|--------|--------|--------|


C#|--------|--------|--------|--------|--------|--------|--------|--------|--------|
G#|--------|--------|--------|--------|--------|--------|--------|--------|--------|
 E|--------|--------|--------|--------|--------|--------|--------|--------|--------|
 B|--------|--------|--------|--------|--------|--------|--------|--------|--------|
F#|--------|--------|--------|--------|--------|--------|--------|--------|--------|
C#|--------|--------|--------|--------|--------|--------|--------|--------|--------|


C#|--------|--------|--------|--------|--------|--------|--------|--------|--------|
G#|--------|--------|--------|--------|--------|--------|--------|--------|--------|
 E|--------|--------|--------|--------|--------|--------|--------|--------|--------|
 B|--------|--------|--------|--------|--------|--------|--------|--------|--------|
F#|--------|--------|--------|--------|--------|--------|--------|--------|--------|
C#|--------|--------|--------|--------|--------|--------|--------|--------|--------|


C#|--------|--------|--------|--------|--------|--------|--------|--------|--------|
G#|--------|--------|--------|--------|--------|--------|--------|--------|--------|
 E|--------|--------|--------|--------|--------|--------|--------|--------|--------|
 B|--------|--------|--------|--------|--------|--------|--------|--------|--------|
F#|--------|--------|--------|--------|--------|--------|--------|--------|--------|
C#|--------|--------|--------|--------|--------|--------|--------|--------|--------|


C#|--------|--------|--------|--------|--------|--------|--------|--------|--------|
G#|--------|--------|--------|--------|--------|--------|--------|--------|--------|
 E|--------|--------|--------|--------|--------|--------|--------|--------|--------|
 B|--------|--------|--------|--------|--------|--------|--------|--------|--------|
F#|--------|--------|--------|--------|--------|--------|--------|--------|--------|
C#|--------|--------|--------|--------|--------|--------|--------|--------|--------|


C#|--------|--------|--------|--------|--------|--------|--------|--------|--------|
G#|--------|--------|--------|--------|--------|--------|--------|--------|--------|
 E|--------|--------|--------|--------|--------|--------|--------|--------|--------|
 B|--------|--------|--------|--------|--------|--------|--------|--------|--------|
F#|--------|--------|--------|--------|--------|--------|--------|--------|--------|
C#|--------|--------|--------|--------|--------|--------|--------|--------|--------|


C#|--------|--------|--------|--------|--------|--------|--------|--------|--------|
G#|--------|--------|--------|--------|--------|--------|--------|--------|--------|
 E|--------|--------|--------|--------|--------|--------|--------|--------|--------|
 B|--------|--------|--------|--------|--------|--------|--------|--------|--------|
F#|--------|--------|--------|--------|--------|--------|--------|--------|--------|
C#|--------|--------|--------|--------|--------|--------|--------|--------|--------|


C#|--------|--------|--------|--------|--------|--------|--------|--------|--------|
G#|--------|--------|--------|--------|--------|--------|--------|--------|--------|
 E|--------|--------|--------|--------|--------|--------|--------|--------|--------|
 B|--------|--------|--------|--------|--------|--------|--------|--------|--------|
F#|--------|--------|--------|--------|--------|--------|--------|--------|--------|
C#|--------|--------|--------|--------|--------|--------|--------|--------|--------|


C#|--------|---------------------------------|----------------|--------|--------|--------|
G#|--------|---------------------------------|----------------|--------|--------|--------|
 E|--------|---------------------------------|----------------|--------|--------|--------|
 B|--------|---------------------------------|----------------|--------|--------|--------|
F#|--------|---------------------------------|-0--------------|--------|--------|--------|
C#|--------|-----0---0---0-------0---0---0---|-0--------------|--------|--------|--------|


C#|--------|--------|--------|--------|--------|--------|--------|--------|--------|
G#|--------|--------|--------|--------|--------|--------|--------|--------|--------|
 E|--------|--------|--------|--------|--------|--------|--------|--------|--------|
 B|--------|--------|--------|--------|--------|--------|--------|--------|--------|
F#|--------|--------|--------|--------|--------|--------|--------|--------|--------|
C#|--------|--------|--------|--------|--------|--------|--------|--------|--------|


C#|--------|--------|--------|--------|--------|--------|--------|--------|--------|
G#|--------|--------|--------|--------|--------|--------|--------|--------|--------|
 E|--------|--------|--------|--------|--------|--------|--------|--------|--------|
 B|--------|--------|--------|--------|--------|--------|--------|--------|--------|
F#|--------|--------|--------|--------|--------|--------|--------|--------|--------|
C#|--------|--------|--------|--------|--------|--------|--------|--------|--------|


C#|--------|--------|--------|--------|--------|--------|--------|--------|--------|
G#|--------|--------|--------|--------|--------|--------|--------|--------|--------|
 E|--------|--------|--------|--------|--------|--------|--------|--------|--------|
 B|--------|--------|--------|--------|--------|--------|--------|--------|--------|
F#|--------|--------|--------|--------|--------|--------|--------|--------|--------|
C#|--------|--------|--------|--------|--------|--------|--------|--------|--------|


C#|--------|--------|--------|--------|--------|--------|--------|--------|--------|
G#|--------|--------|--------|--------|--------|--------|--------|--------|--------|
 E|--------|--------|--------|--------|--------|--------|--------|--------|--------|
 B|--------|--------|--------|--------|--------|--------|--------|--------|--------|
F#|--------|--------|--------|--------|--------|--------|--------|--------|--------|
C#|--------|--------|--------|--------|--------|--------|--------|--------|--------|


C#|--------|--------|--------|--------|--------|
G#|--------|--------|--------|--------|--------|
 E|--------|--------|--------|--------|--------|
 B|--------|--------|--------|--------|--------|
F#|--------|--------|--------|--------|--------|
C#|--------|--------|--------|--------|--------|





Track 10: Distortion (L)

C#|--------|--------|--------|--------|--------|--------|--------|--------|--------|
G#|--------|--------|--------|--------|--------|--------|--------|--------|--------|
 E|--------|--------|--------|--------|--------|--------|--------|--------|--------|
 B|--------|--------|--------|--------|--------|--------|--------|--------|--------|
F#|--------|--------|--------|--------|--------|--------|--------|--------|--------|
C#|--------|--------|--------|--------|--------|--------|--------|--------|--------|


C#|--------|--------|--------|--------|--------|--------|--------|--------|--------|
G#|--------|--------|--------|--------|--------|--------|--------|--------|--------|
 E|--------|--------|--------|--------|--------|--------|--------|--------|--------|
 B|--------|--------|--------|--------|--------|--------|--------|--------|--------|
F#|--------|--------|--------|--------|--------|--------|--------|--------|--------|
C#|--------|--------|--------|--------|--------|--------|--------|--------|--------|


C#|--------|--------|--------|--------|--------|--------|--------|--------|--------|
G#|--------|--------|--------|--------|--------|--------|--------|--------|--------|
 E|--------|--------|--------|--------|--------|--------|--------|--------|--------|
 B|--------|--------|--------|--------|--------|--------|--------|--------|--------|
F#|--------|--------|--------|--------|--------|--------|--------|--------|--------|
C#|--------|--------|--------|--------|--------|--------|--------|--------|--------|


C#|--------|--------|--------|--------|--------|--------|--------|--------|--------|
G#|--------|--------|--------|--------|--------|--------|--------|--------|--------|
 E|--------|--------|--------|--------|--------|--------|--------|--------|--------|
 B|--------|--------|--------|--------|--------|--------|--------|--------|--------|
F#|--------|--------|--------|--------|--------|--------|--------|--------|--------|
C#|--------|--------|--------|--------|--------|--------|--------|--------|--------|


C#|--------|--------|--------|--------|--------|--------|--------|--------|--------|
G#|--------|--------|--------|--------|--------|--------|--------|--------|--------|
 E|--------|--------|--------|--------|--------|--------|--------|--------|--------|
 B|--------|--------|--------|--------|--------|--------|--------|--------|--------|
F#|--------|--------|--------|--------|--------|--------|--------|--------|--------|
C#|--------|--------|--------|--------|--------|--------|--------|--------|--------|


C#|--------|--------|--------|--------|--------|--------|--------|--------|--------|
G#|--------|--------|--------|--------|--------|--------|--------|--------|--------|
 E|--------|--------|--------|--------|--------|--------|--------|--------|--------|
 B|--------|--------|--------|--------|--------|--------|--------|--------|--------|
F#|--------|--------|--------|--------|--------|--------|--------|--------|--------|
C#|--------|--------|--------|--------|--------|--------|--------|--------|--------|


C#|--------|--------|--------|--------|--------|--------|--------|--------|--------|
G#|--------|--------|--------|--------|--------|--------|--------|--------|--------|
 E|--------|--------|--------|--------|--------|--------|--------|--------|--------|
 B|--------|--------|--------|--------|--------|--------|--------|--------|--------|
F#|--------|--------|--------|--------|--------|--------|--------|--------|--------|
C#|--------|--------|--------|--------|--------|--------|--------|--------|--------|


C#|--------|--------|--------|--------|--------|--------|--------|--------|--------|
G#|--------|--------|--------|--------|--------|--------|--------|--------|--------|
 E|--------|--------|--------|--------|--------|--------|--------|--------|--------|
 B|--------|--------|--------|--------|--------|--------|--------|--------|--------|
F#|--------|--------|--------|--------|--------|--------|--------|--------|--------|
C#|--------|--------|--------|--------|--------|--------|--------|--------|--------|


C#|--------|--------|--------|--------|--------|--------|--------|--------|--------|
G#|--------|--------|--------|--------|--------|--------|--------|--------|--------|
 E|--------|--------|--------|--------|--------|--------|--------|--------|--------|
 B|--------|--------|--------|--------|--------|--------|--------|--------|--------|
F#|--------|--------|--------|--------|--------|--------|--------|--------|--------|
C#|--------|--------|--------|--------|--------|--------|--------|--------|--------|


C#|--------|--------|--------|--------|--------|--------|--------|--------|--------|
G#|--------|--------|--------|--------|--------|--------|--------|--------|--------|
 E|--------|--------|--------|--------|--------|--------|--------|--------|--------|
 B|--------|--------|--------|--------|--------|--------|--------|--------|--------|
F#|--------|--------|--------|--------|--------|--------|--------|--------|--------|
C#|--------|--------|--------|--------|--------|--------|--------|--------|--------|


C#|--------|--------|--------|--------|--------|--------|--------|--------|--------|
G#|--------|--------|--------|--------|--------|--------|--------|--------|--------|
 E|--------|--------|--------|--------|--------|--------|--------|--------|--------|
 B|--------|--------|--------|--------|--------|--------|--------|--------|--------|
F#|--------|--------|--------|--------|--------|--------|--------|--------|--------|
C#|--------|--------|--------|--------|--------|--------|--------|--------|--------|


C#|--------|--------|----------------|----------------|--------|--------|--------|
G#|--------|--------|----------------|----------------|--------|--------|--------|
 E|--------|--------|----------------|----------------|--------|--------|--------|
 B|--------|--------|----------------|----------------|--------|--------|--------|
F#|--------|--------|----------------|----------------|--------|--------|--------|
C#|--------|--------|--------5---5---|-1--------------|--------|--------|--------|


C#|--------|--------|--------|--------|--------|--------|--------|--------|--------|
G#|--------|--------|--------|--------|--------|--------|--------|--------|--------|
 E|--------|--------|--------|--------|--------|--------|--------|--------|--------|
 B|--------|--------|--------|--------|--------|--------|--------|--------|--------|
F#|--------|--------|--------|--------|--------|--------|--------|--------|--------|
C#|--------|--------|--------|--------|--------|--------|--------|--------|--------|


C#|--------|--------|--------|--------|--------|--------|--------|--------|--------|
G#|--------|--------|--------|--------|--------|--------|--------|--------|--------|
 E|--------|--------|--------|--------|--------|--------|--------|--------|--------|
 B|--------|--------|--------|--------|--------|--------|--------|--------|--------|
F#|--------|--------|--------|--------|--------|--------|--------|--------|--------|
C#|--------|--------|--------|--------|--------|--------|--------|--------|--------|


C#|--------|--------|--------|--------|--------|--------|--------|--------|--------|
G#|--------|--------|--------|--------|--------|--------|--------|--------|--------|
 E|--------|--------|--------|--------|--------|--------|--------|--------|--------|
 B|--------|--------|--------|--------|--------|--------|--------|--------|--------|
F#|--------|--------|--------|--------|--------|--------|--------|--------|--------|
C#|--------|--------|--------|--------|--------|--------|--------|--------|--------|


C#|--------|--------|--------|--------|--------|--------|--------|--------|--------|
G#|--------|--------|--------|--------|--------|--------|--------|--------|--------|
 E|--------|--------|--------|--------|--------|--------|--------|--------|--------|
 B|--------|--------|--------|--------|--------|--------|--------|--------|--------|
F#|--------|--------|--------|--------|--------|--------|--------|--------|--------|
C#|--------|--------|--------|--------|--------|--------|--------|--------|--------|


C#|--------|--------|--------|--------|
G#|--------|--------|--------|--------|
 E|--------|--------|--------|--------|
 B|--------|--------|--------|--------|
F#|--------|--------|--------|--------|
C#|--------|--------|--------|--------|





Track 11: Distortion (L)

C#|--------|--------|--------|--------|--------|--------|--------|--------|--------|
G#|--------|--------|--------|--------|--------|--------|--------|--------|--------|
 E|--------|--------|--------|--------|--------|--------|--------|--------|--------|
 B|--------|--------|--------|--------|--------|--------|--------|--------|--------|
F#|--------|--------|--------|--------|--------|--------|--------|--------|--------|
C#|--------|--------|--------|--------|--------|--------|--------|--------|--------|


C#|--------|--------|--------|--------|--------|--------|--------|--------|--------|
G#|--------|--------|--------|--------|--------|--------|--------|--------|--------|
 E|--------|--------|--------|--------|--------|--------|--------|--------|--------|
 B|--------|--------|--------|--------|--------|--------|--------|--------|--------|
F#|--------|--------|--------|--------|--------|--------|--------|--------|--------|
C#|--------|--------|--------|--------|--------|--------|--------|--------|--------|


C#|--------|--------|--------|--------|--------|--------|--------|--------|--------|
G#|--------|--------|--------|--------|--------|--------|--------|--------|--------|
 E|--------|--------|--------|--------|--------|--------|--------|--------|--------|
 B|--------|--------|--------|--------|--------|--------|--------|--------|--------|
F#|--------|--------|--------|--------|--------|--------|--------|--------|--------|
C#|--------|--------|--------|--------|--------|--------|--------|--------|--------|


C#|--------|--------|--------|--------|--------|--------|--------|--------|--------|
G#|--------|--------|--------|--------|--------|--------|--------|--------|--------|
 E|--------|--------|--------|--------|--------|--------|--------|--------|--------|
 B|--------|--------|--------|--------|--------|--------|--------|--------|--------|
F#|--------|--------|--------|--------|--------|--------|--------|--------|--------|
C#|--------|--------|--------|--------|--------|--------|--------|--------|--------|


C#|--------|--------|--------|--------|--------|--------|--------|--------|--------|
G#|--------|--------|--------|--------|--------|--------|--------|--------|--------|
 E|--------|--------|--------|--------|--------|--------|--------|--------|--------|
 B|--------|--------|--------|--------|--------|--------|--------|--------|--------|
F#|--------|--------|--------|--------|--------|--------|--------|--------|--------|
C#|--------|--------|--------|--------|--------|--------|--------|--------|--------|


C#|--------|--------|--------|--------|--------|--------|--------|--------|--------|
G#|--------|--------|--------|--------|--------|--------|--------|--------|--------|
 E|--------|--------|--------|--------|--------|--------|--------|--------|--------|
 B|--------|--------|--------|--------|--------|--------|--------|--------|--------|
F#|--------|--------|--------|--------|--------|--------|--------|--------|--------|
C#|--------|--------|--------|--------|--------|--------|--------|--------|--------|


C#|--------|--------|--------|--------|--------|--------|--------|--------|--------|
G#|--------|--------|--------|--------|--------|--------|--------|--------|--------|
 E|--------|--------|--------|--------|--------|--------|--------|--------|--------|
 B|--------|--------|--------|--------|--------|--------|--------|--------|--------|
F#|--------|--------|--------|--------|--------|--------|--------|--------|--------|
C#|--------|--------|--------|--------|--------|--------|--------|--------|--------|


C#|--------|--------|--------|--------|--------|--------|--------|--------|--------|
G#|--------|--------|--------|--------|--------|--------|--------|--------|--------|
 E|--------|--------|--------|--------|--------|--------|--------|--------|--------|
 B|--------|--------|--------|--------|--------|--------|--------|--------|--------|
F#|--------|--------|--------|--------|--------|--------|--------|--------|--------|
C#|--------|--------|--------|--------|--------|--------|--------|--------|--------|


C#|--------|--------|--------|--------|--------|--------|--------|--------|--------|
G#|--------|--------|--------|--------|--------|--------|--------|--------|--------|
 E|--------|--------|--------|--------|--------|--------|--------|--------|--------|
 B|--------|--------|--------|--------|--------|--------|--------|--------|--------|
F#|--------|--------|--------|--------|--------|--------|--------|--------|--------|
C#|--------|--------|--------|--------|--------|--------|--------|--------|--------|


C#|--------|--------|--------|--------|--------|--------|--------|--------|--------|
G#|--------|--------|--------|--------|--------|--------|--------|--------|--------|
 E|--------|--------|--------|--------|--------|--------|--------|--------|--------|
 B|--------|--------|--------|--------|--------|--------|--------|--------|--------|
F#|--------|--------|--------|--------|--------|--------|--------|--------|--------|
C#|--------|--------|--------|--------|--------|--------|--------|--------|--------|


C#|--------|--------|--------|--------|--------|--------|--------|--------|--------|
G#|--------|--------|--------|--------|--------|--------|--------|--------|--------|
 E|--------|--------|--------|--------|--------|--------|--------|--------|--------|
 B|--------|--------|--------|--------|--------|--------|--------|--------|--------|
F#|--------|--------|--------|--------|--------|--------|--------|--------|--------|
C#|--------|--------|--------|--------|--------|--------|--------|--------|--------|


C#|--------|--------|--------|-----------------------|--------|--------|--------|--------|
G#|--------|--------|--------|-----------------------|--------|--------|--------|--------|
 E|--------|--------|--------|-----------------------|--------|--------|--------|--------|
 B|--------|--------|--------|-----------------------|--------|--------|--------|--------|
F#|--------|--------|--------|-----------------------|--------|--------|--------|--------|
C#|--------|--------|--------|-----0-----------------|--------|--------|--------|--------|


C#|--------|--------|--------|--------|--------|--------|--------|--------|--------|
G#|--------|--------|--------|--------|--------|--------|--------|--------|--------|
 E|--------|--------|--------|--------|--------|--------|--------|--------|--------|
 B|--------|--------|--------|--------|--------|--------|--------|--------|--------|
F#|--------|--------|--------|--------|--------|--------|--------|--------|--------|
C#|--------|--------|--------|--------|--------|--------|--------|--------|--------|


C#|--------|--------|--------|--------|--------|--------|--------|--------|--------|
G#|--------|--------|--------|--------|--------|--------|--------|--------|--------|
 E|--------|--------|--------|--------|--------|--------|--------|--------|--------|
 B|--------|--------|--------|--------|--------|--------|--------|--------|--------|
F#|--------|--------|--------|--------|--------|--------|--------|--------|--------|
C#|--------|--------|--------|--------|--------|--------|--------|--------|--------|


C#|--------|--------|--------|--------|--------|--------|--------|--------|--------|
G#|--------|--------|--------|--------|--------|--------|--------|--------|--------|
 E|--------|--------|--------|--------|--------|--------|--------|--------|--------|
 B|--------|--------|--------|--------|--------|--------|--------|--------|--------|
F#|--------|--------|--------|--------|--------|--------|--------|--------|--------|
C#|--------|--------|--------|--------|--------|--------|--------|--------|--------|


C#|--------|--------|--------|--------|--------|--------|--------|--------|--------|
G#|--------|--------|--------|--------|--------|--------|--------|--------|--------|
 E|--------|--------|--------|--------|--------|--------|--------|--------|--------|
 B|--------|--------|--------|--------|--------|--------|--------|--------|--------|
F#|--------|--------|--------|--------|--------|--------|--------|--------|--------|
C#|--------|--------|--------|--------|--------|--------|--------|--------|--------|


C#|--------|--------|--------|
G#|--------|--------|--------|
 E|--------|--------|--------|
 B|--------|--------|--------|
F#|--------|--------|--------|
C#|--------|--------|--------|





Track 12: Guitar Crunches

C#|--------|--------|--------|--------|--------|--------|--------|--------|--------|
G#|--------|--------|--------|--------|--------|--------|--------|--------|--------|
 E|--------|--------|--------|--------|--------|--------|--------|--------|--------|
 B|--------|--------|--------|--------|--------|--------|--------|--------|--------|
F#|--------|--------|--------|--------|--------|--------|--------|--------|--------|
C#|--------|--------|--------|--------|--------|--------|--------|--------|--------|


C#|--------|--------|--------|--------|--------|--------|--------|--------|--------|
G#|--------|--------|--------|--------|--------|--------|--------|--------|--------|
 E|--------|--------|--------|--------|--------|--------|--------|--------|--------|
 B|--------|--------|--------|--------|--------|--------|--------|--------|--------|
F#|--------|--------|--------|--------|--------|--------|--------|--------|--------|
C#|--------|--------|--------|--------|--------|--------|--------|--------|--------|


C#|--------|--------|--------|--------|--------|--------|--------|--------|--------|
G#|--------|--------|--------|--------|--------|--------|--------|--------|--------|
 E|--------|--------|--------|--------|--------|--------|--------|--------|--------|
 B|--------|--------|--------|--------|--------|--------|--------|--------|--------|
F#|--------|--------|--------|--------|--------|--------|--------|--------|--------|
C#|--------|--------|--------|--------|--------|--------|--------|--------|--------|


C#|--------|--------|--------|--------|--------|--------|--------|--------|--------|
G#|--------|--------|--------|--------|--------|--------|--------|--------|--------|
 E|--------|--------|--------|--------|--------|--------|--------|--------|--------|
 B|--------|--------|--------|--------|--------|--------|--------|--------|--------|
F#|--------|--------|--------|--------|--------|--------|--------|--------|--------|
C#|--------|--------|--------|--------|--------|--------|--------|--------|--------|


C#|--------|--------|--------|--------|--------|--------|--------|--------|--------|
G#|--------|--------|--------|--------|--------|--------|--------|--------|--------|
 E|--------|--------|--------|--------|--------|--------|--------|--------|--------|
 B|--------|--------|--------|--------|--------|--------|--------|--------|--------|
F#|--------|--------|--------|--------|--------|--------|--------|--------|--------|
C#|--------|--------|--------|--------|--------|--------|--------|--------|--------|


C#|--------|--------|--------|--------|--------|--------|--------|--------|--------|
G#|--------|--------|--------|--------|--------|--------|--------|--------|--------|
 E|--------|--------|--------|--------|--------|--------|--------|--------|--------|
 B|--------|--------|--------|--------|--------|--------|--------|--------|--------|
F#|--------|--------|--------|--------|--------|--------|--------|--------|--------|
C#|--------|--------|--------|--------|--------|--------|--------|--------|--------|


C#|--------|--------|--------|--------|--------|--------|--------|--------|--------|
G#|--------|--------|--------|--------|--------|--------|--------|--------|--------|
 E|--------|--------|--------|--------|--------|--------|--------|--------|--------|
 B|--------|--------|--------|--------|--------|--------|--------|--------|--------|
F#|--------|--------|--------|--------|--------|--------|--------|--------|--------|
C#|--------|--------|--------|--------|--------|--------|--------|--------|--------|


C#|--------|--------|--------|--------|--------|--------|--------|--------|--------|
G#|--------|--------|--------|--------|--------|--------|--------|--------|--------|
 E|--------|--------|--------|--------|--------|--------|--------|--------|--------|
 B|--------|--------|--------|--------|--------|--------|--------|--------|--------|
F#|--------|--------|--------|--------|--------|--------|--------|--------|--------|
C#|--------|--------|--------|--------|--------|--------|--------|--------|--------|


C#|--------|--------|--------|--------|--------|--------|--------|--------|--------|
G#|--------|--------|--------|--------|--------|--------|--------|--------|--------|
 E|--------|--------|--------|--------|--------|--------|--------|--------|--------|
 B|--------|--------|--------|--------|--------|--------|--------|--------|--------|
F#|--------|--------|--------|--------|--------|--------|--------|--------|--------|
C#|--------|--------|--------|--------|--------|--------|--------|--------|--------|


C#|--------|--------|--------|--------|--------|--------|--------|--------|--------|
G#|--------|--------|--------|--------|--------|--------|--------|--------|--------|
 E|--------|--------|--------|--------|--------|--------|--------|--------|--------|
 B|--------|--------|--------|--------|--------|--------|--------|--------|--------|
F#|--------|--------|--------|--------|--------|--------|--------|--------|--------|
C#|--------|--------|--------|--------|--------|--------|--------|--------|--------|


C#|--------|--------|--------|--------|--------|--------|--------|--------|--------|
G#|--------|--------|--------|--------|--------|--------|--------|--------|--------|
 E|--------|--------|--------|--------|--------|--------|--------|--------|--------|
 B|--------|--------|--------|--------|--------|--------|--------|--------|--------|
F#|--------|--------|--------|--------|--------|--------|--------|--------|--------|
C#|--------|--------|--------|--------|--------|--------|--------|--------|--------|


C#|--------|--------|--------|---------------------|-----------------------|--------|
G#|--------|--------|--------|---------------------|-----------------------|--------|
 E|--------|--------|--------|---------------------|-----------------------|--------|
 B|--------|--------|--------|---------------------|-----------------------|--------|
F#|--------|--------|--------|---------------------|-----------------------|--------|
C#|--------|--------|--------|-------0-------------|-----0---0---0---------|--------|


C#|--------|--------|--------|--------|--------|--------|--------|--------|--------|
G#|--------|--------|--------|--------|--------|--------|--------|--------|--------|
 E|--------|--------|--------|--------|--------|--------|--------|--------|--------|
 B|--------|--------|--------|--------|--------|--------|--------|--------|--------|
F#|--------|--------|--------|--------|--------|--------|--------|--------|--------|
C#|--------|--------|--------|--------|--------|--------|--------|--------|--------|


C#|--------|--------|--------|--------|--------|--------|--------|--------|--------|
G#|--------|--------|--------|--------|--------|--------|--------|--------|--------|
 E|--------|--------|--------|--------|--------|--------|--------|--------|--------|
 B|--------|--------|--------|--------|--------|--------|--------|--------|--------|
F#|--------|--------|--------|--------|--------|--------|--------|--------|--------|
C#|--------|--------|--------|--------|--------|--------|--------|--------|--------|


C#|--------|--------|--------|--------|--------|--------|--------|--------|--------|
G#|--------|--------|--------|--------|--------|--------|--------|--------|--------|
 E|--------|--------|--------|--------|--------|--------|--------|--------|--------|
 B|--------|--------|--------|--------|--------|--------|--------|--------|--------|
F#|--------|--------|--------|--------|--------|--------|--------|--------|--------|
C#|--------|--------|--------|--------|--------|--------|--------|--------|--------|


C#|--------|--------|--------|--------|--------|--------|--------|--------|--------|
G#|--------|--------|--------|--------|--------|--------|--------|--------|--------|
 E|--------|--------|--------|--------|--------|--------|--------|--------|--------|
 B|--------|--------|--------|--------|--------|--------|--------|--------|--------|
F#|--------|--------|--------|--------|--------|--------|--------|--------|--------|
C#|--------|--------|--------|--------|--------|--------|--------|--------|--------|


C#|--------|--------|--------|--------|--------|
G#|--------|--------|--------|--------|--------|
 E|--------|--------|--------|--------|--------|
 B|--------|--------|--------|--------|--------|
F#|--------|--------|--------|--------|--------|
C#|--------|--------|--------|--------|--------|





Track 13: Distortion (L)

C#|--------|--------|--------|--------|--------|--------|--------|--------|--------|
G#|--------|--------|--------|--------|--------|--------|--------|--------|--------|
 E|--------|--------|--------|--------|--------|--------|--------|--------|--------|
 B|--------|--------|--------|--------|--------|--------|--------|--------|--------|
F#|--------|--------|--------|--------|--------|--------|--------|--------|--------|
C#|--------|--------|--------|--------|--------|--------|--------|--------|--------|


C#|--------|--------|--------|--------|--------|--------|--------|--------|--------|
G#|--------|--------|--------|--------|--------|--------|--------|--------|--------|
 E|--------|--------|--------|--------|--------|--------|--------|--------|--------|
 B|--------|--------|--------|--------|--------|--------|--------|--------|--------|
F#|--------|--------|--------|--------|--------|--------|--------|--------|--------|
C#|--------|--------|--------|--------|--------|--------|--------|--------|--------|


C#|--------|--------|--------|--------|--------|--------|--------|--------|--------|
G#|--------|--------|--------|--------|--------|--------|--------|--------|--------|
 E|--------|--------|--------|--------|--------|--------|--------|--------|--------|
 B|--------|--------|--------|--------|--------|--------|--------|--------|--------|
F#|--------|--------|--------|--------|--------|--------|--------|--------|--------|
C#|--------|--------|--------|--------|--------|--------|--------|--------|--------|


C#|--------|--------|--------|--------|--------|--------|--------|--------|--------|
G#|--------|--------|--------|--------|--------|--------|--------|--------|--------|
 E|--------|--------|--------|--------|--------|--------|--------|--------|--------|
 B|--------|--------|--------|--------|--------|--------|--------|--------|--------|
F#|--------|--------|--------|--------|--------|--------|--------|--------|--------|
C#|--------|--------|--------|--------|--------|--------|--------|--------|--------|


C#|--------|--------|--------|--------|--------|--------|--------|--------|--------|
G#|--------|--------|--------|--------|--------|--------|--------|--------|--------|
 E|--------|--------|--------|--------|--------|--------|--------|--------|--------|
 B|--------|--------|--------|--------|--------|--------|--------|--------|--------|
F#|--------|--------|--------|--------|--------|--------|--------|--------|--------|
C#|--------|--------|--------|--------|--------|--------|--------|--------|--------|


C#|--------|--------|--------|--------|--------|--------|--------|--------|--------|
G#|--------|--------|--------|--------|--------|--------|--------|--------|--------|
 E|--------|--------|--------|--------|--------|--------|--------|--------|--------|
 B|--------|--------|--------|--------|--------|--------|--------|--------|--------|
F#|--------|--------|--------|--------|--------|--------|--------|--------|--------|
C#|--------|--------|--------|--------|--------|--------|--------|--------|--------|


C#|--------|--------|--------|--------|--------|--------|--------|--------|--------|
G#|--------|--------|--------|--------|--------|--------|--------|--------|--------|
 E|--------|--------|--------|--------|--------|--------|--------|--------|--------|
 B|--------|--------|--------|--------|--------|--------|--------|--------|--------|
F#|--------|--------|--------|--------|--------|--------|--------|--------|--------|
C#|--------|--------|--------|--------|--------|--------|--------|--------|--------|


C#|--------|--------|--------|--------|--------|--------|--------|--------|--------|
G#|--------|--------|--------|--------|--------|--------|--------|--------|--------|
 E|--------|--------|--------|--------|--------|--------|--------|--------|--------|
 B|--------|--------|--------|--------|--------|--------|--------|--------|--------|
F#|--------|--------|--------|--------|--------|--------|--------|--------|--------|
C#|--------|--------|--------|--------|--------|--------|--------|--------|--------|


C#|--------|--------|--------|--------|--------|--------|--------|--------|--------|
G#|--------|--------|--------|--------|--------|--------|--------|--------|--------|
 E|--------|--------|--------|--------|--------|--------|--------|--------|--------|
 B|--------|--------|--------|--------|--------|--------|--------|--------|--------|
F#|--------|--------|--------|--------|--------|--------|--------|--------|--------|
C#|--------|--------|--------|--------|--------|--------|--------|--------|--------|


C#|--------|--------|--------|--------|--------|--------|--------|--------|--------|
G#|--------|--------|--------|--------|--------|--------|--------|--------|--------|
 E|--------|--------|--------|--------|--------|--------|--------|--------|--------|
 B|--------|--------|--------|--------|--------|--------|--------|--------|--------|
F#|--------|--------|--------|--------|--------|--------|--------|--------|--------|
C#|--------|--------|--------|--------|--------|--------|--------|--------|--------|


C#|--------|--------|--------|--------|--------|--------|--------|--------|--------|
G#|--------|--------|--------|--------|--------|--------|--------|--------|--------|
 E|--------|--------|--------|--------|--------|--------|--------|--------|--------|
 B|--------|--------|--------|--------|--------|--------|--------|--------|--------|
F#|--------|--------|--------|--------|--------|--------|--------|--------|--------|
C#|--------|--------|--------|--------|--------|--------|--------|--------|--------|


C#|--------|--------|--------|-----------------------|--------|--------|--------|--------|
G#|--------|--------|--------|-----------------------|--------|--------|--------|--------|
 E|--------|--------|--------|-----------------------|--------|--------|--------|--------|
 B|--------|--------|--------|-----------------------|--------|--------|--------|--------|
F#|--------|--------|--------|-----------------------|--------|--------|--------|--------|
C#|--------|--------|--------|-----------0---0---0---|--------|--------|--------|--------|


C#|--------|--------|--------|--------|--------|--------|--------|--------|--------|
G#|--------|--------|--------|--------|--------|--------|--------|--------|--------|
 E|--------|--------|--------|--------|--------|--------|--------|--------|--------|
 B|--------|--------|--------|--------|--------|--------|--------|--------|--------|
F#|--------|--------|--------|--------|--------|--------|--------|--------|--------|
C#|--------|--------|--------|--------|--------|--------|--------|--------|--------|


C#|--------|--------|--------|--------|--------|--------|--------|--------|--------|
G#|--------|--------|--------|--------|--------|--------|--------|--------|--------|
 E|--------|--------|--------|--------|--------|--------|--------|--------|--------|
 B|--------|--------|--------|--------|--------|--------|--------|--------|--------|
F#|--------|--------|--------|--------|--------|--------|--------|--------|--------|
C#|--------|--------|--------|--------|--------|--------|--------|--------|--------|


C#|--------|--------|--------|--------|--------|--------|--------|--------|--------|
G#|--------|--------|--------|--------|--------|--------|--------|--------|--------|
 E|--------|--------|--------|--------|--------|--------|--------|--------|--------|
 B|--------|--------|--------|--------|--------|--------|--------|--------|--------|
F#|--------|--------|--------|--------|--------|--------|--------|--------|--------|
C#|--------|--------|--------|--------|--------|--------|--------|--------|--------|


C#|--------|--------|--------|--------|--------|--------|--------|--------|--------|
G#|--------|--------|--------|--------|--------|--------|--------|--------|--------|
 E|--------|--------|--------|--------|--------|--------|--------|--------|--------|
 B|--------|--------|--------|--------|--------|--------|--------|--------|--------|
F#|--------|--------|--------|--------|--------|--------|--------|--------|--------|
C#|--------|--------|--------|--------|--------|--------|--------|--------|--------|


C#|--------|--------|--------|
G#|--------|--------|--------|
 E|--------|--------|--------|
 B|--------|--------|--------|
F#|--------|--------|--------|
C#|--------|--------|--------|





Track 14: Distortion (L)

C#|--------|--------|--------|--------|--------|--------|--------|--------|--------|
G#|--------|--------|--------|--------|--------|--------|--------|--------|--------|
 E|--------|--------|--------|--------|--------|--------|--------|--------|--------|
 B|--------|--------|--------|--------|--------|--------|--------|--------|--------|
F#|--------|--------|--------|--------|--------|--------|--------|--------|--------|
C#|--------|--------|--------|--------|--------|--------|--------|--------|--------|


C#|--------|--------|--------|--------|--------|--------|--------|--------|--------|
G#|--------|--------|--------|--------|--------|--------|--------|--------|--------|
 E|--------|--------|--------|--------|--------|--------|--------|--------|--------|
 B|--------|--------|--------|--------|--------|--------|--------|--------|--------|
F#|--------|--------|--------|--------|--------|--------|--------|--------|--------|
C#|--------|--------|--------|--------|--------|--------|--------|--------|--------|


C#|--------|--------|--------|--------|--------|--------|--------|--------|--------|
G#|--------|--------|--------|--------|--------|--------|--------|--------|--------|
 E|--------|--------|--------|--------|--------|--------|--------|--------|--------|
 B|--------|--------|--------|--------|--------|--------|--------|--------|--------|
F#|--------|--------|--------|--------|--------|--------|--------|--------|--------|
C#|--------|--------|--------|--------|--------|--------|--------|--------|--------|


C#|--------|--------|--------|--------|--------|--------|--------|--------|--------|
G#|--------|--------|--------|--------|--------|--------|--------|--------|--------|
 E|--------|--------|--------|--------|--------|--------|--------|--------|--------|
 B|--------|--------|--------|--------|--------|--------|--------|--------|--------|
F#|--------|--------|--------|--------|--------|--------|--------|--------|--------|
C#|--------|--------|--------|--------|--------|--------|--------|--------|--------|


C#|--------|--------|--------|--------|--------|--------|--------|--------|--------|
G#|--------|--------|--------|--------|--------|--------|--------|--------|--------|
 E|--------|--------|--------|--------|--------|--------|--------|--------|--------|
 B|--------|--------|--------|--------|--------|--------|--------|--------|--------|
F#|--------|--------|--------|--------|--------|--------|--------|--------|--------|
C#|--------|--------|--------|--------|--------|--------|--------|--------|--------|


C#|--------|--------|--------|--------|--------|--------|--------|--------|--------|
G#|--------|--------|--------|--------|--------|--------|--------|--------|--------|
 E|--------|--------|--------|--------|--------|--------|--------|--------|--------|
 B|--------|--------|--------|--------|--------|--------|--------|--------|--------|
F#|--------|--------|--------|--------|--------|--------|--------|--------|--------|
C#|--------|--------|--------|--------|--------|--------|--------|--------|--------|


C#|--------|--------|--------|--------|--------|--------|--------|--------|--------|
G#|--------|--------|--------|--------|--------|--------|--------|--------|--------|
 E|--------|--------|--------|--------|--------|--------|--------|--------|--------|
 B|--------|--------|--------|--------|--------|--------|--------|--------|--------|
F#|--------|--------|--------|--------|--------|--------|--------|--------|--------|
C#|--------|--------|--------|--------|--------|--------|--------|--------|--------|


C#|--------|--------|--------|--------|--------|--------|--------|--------|--------|
G#|--------|--------|--------|--------|--------|--------|--------|--------|--------|
 E|--------|--------|--------|--------|--------|--------|--------|--------|--------|
 B|--------|--------|--------|--------|--------|--------|--------|--------|--------|
F#|--------|--------|--------|--------|--------|--------|--------|--------|--------|
C#|--------|--------|--------|--------|--------|--------|--------|--------|--------|


C#|--------|--------|--------|--------|--------|--------|--------|--------|--------|
G#|--------|--------|--------|--------|--------|--------|--------|--------|--------|
 E|--------|--------|--------|--------|--------|--------|--------|--------|--------|
 B|--------|--------|--------|--------|--------|--------|--------|--------|--------|
F#|--------|--------|--------|--------|--------|--------|--------|--------|--------|
C#|--------|--------|--------|--------|--------|--------|--------|--------|--------|


C#|--------|--------|--------|--------|--------|--------|--------|--------|--------|
G#|--------|--------|--------|--------|--------|--------|--------|--------|--------|
 E|--------|--------|--------|--------|--------|--------|--------|--------|--------|
 B|--------|--------|--------|--------|--------|--------|--------|--------|--------|
F#|--------|--------|--------|--------|--------|--------|--------|--------|--------|
C#|--------|--------|--------|--------|--------|--------|--------|--------|--------|


C#|--------|--------|--------|--------|--------|--------|--------|--------|--------|
G#|--------|--------|--------|--------|--------|--------|--------|--------|--------|
 E|--------|--------|--------|--------|--------|--------|--------|--------|--------|
 B|--------|--------|--------|--------|--------|--------|--------|--------|--------|
F#|--------|--------|--------|--------|--------|--------|--------|--------|--------|
C#|--------|--------|--------|--------|--------|--------|--------|--------|--------|


C#|--------|--------|--------|--------|----------------|--------|--------|--------|
G#|--------|--------|--------|--------|----------------|--------|--------|--------|
 E|--------|--------|--------|--------|----------------|--------|--------|--------|
 B|--------|--------|--------|--------|----------------|--------|--------|--------|
F#|--------|--------|--------|--------|----------------|--------|--------|--------|
C#|--------|--------|--------|--------|----------------|--------|--------|--------|


C#|--------|--------|--------|--------|--------|--------|--------|--------|--------|
G#|--------|--------|--------|--------|--------|--------|--------|--------|--------|
 E|--------|--------|--------|--------|--------|--------|--------|--------|--------|
 B|--------|--------|--------|--------|--------|--------|--------|--------|--------|
F#|--------|--------|--------|--------|--------|--------|--------|--------|--------|
C#|--------|--------|--------|--------|--------|--------|--------|--------|--------|


C#|--------|--------|--------|--------|--------|--------|--------|--------|--------|
G#|--------|--------|--------|--------|--------|--------|--------|--------|--------|
 E|--------|--------|--------|--------|--------|--------|--------|--------|--------|
 B|--------|--------|--------|--------|--------|--------|--------|--------|--------|
F#|--------|--------|--------|--------|--------|--------|--------|--------|--------|
C#|--------|--------|--------|--------|--------|--------|--------|--------|--------|


C#|--------|--------|--------|--------|--------|--------|--------|--------|--------|
G#|--------|--------|--------|--------|--------|--------|--------|--------|--------|
 E|--------|--------|--------|--------|--------|--------|--------|--------|--------|
 B|--------|--------|--------|--------|--------|--------|--------|--------|--------|
F#|--------|--------|--------|--------|--------|--------|--------|--------|--------|
C#|--------|--------|--------|--------|--------|--------|--------|--------|--------|


C#|--------|--------|--------|--------|--------|--------|--------|--------|--------|
G#|--------|--------|--------|--------|--------|--------|--------|--------|--------|
 E|--------|--------|--------|--------|--------|--------|--------|--------|--------|
 B|--------|--------|--------|--------|--------|--------|--------|--------|--------|
F#|--------|--------|--------|--------|--------|--------|--------|--------|--------|
C#|--------|--------|--------|--------|--------|--------|--------|--------|--------|


C#|--------|--------|--------|
G#|--------|--------|--------|
 E|--------|--------|--------|
 B|--------|--------|--------|
F#|--------|--------|--------|
C#|--------|--------|--------|





Track 15: Distortion (L)

C#|--------|--------|--------|--------|--------|--------|--------|--------|--------|
G#|--------|--------|--------|--------|--------|--------|--------|--------|--------|
 E|--------|--------|--------|--------|--------|--------|--------|--------|--------|
 B|--------|--------|--------|--------|--------|--------|--------|--------|--------|
F#|--------|--------|--------|--------|--------|--------|--------|--------|--------|
C#|--------|--------|--------|--------|--------|--------|--------|--------|--------|


C#|--------|--------|--------|--------|--------|--------|--------|--------|--------|
G#|--------|--------|--------|--------|--------|--------|--------|--------|--------|
 E|--------|--------|--------|--------|--------|--------|--------|--------|--------|
 B|--------|--------|--------|--------|--------|--------|--------|--------|--------|
F#|--------|--------|--------|--------|--------|--------|--------|--------|--------|
C#|--------|--------|--------|--------|--------|--------|--------|--------|--------|


C#|--------|--------|--------|--------|--------|--------|--------|--------|--------|
G#|--------|--------|--------|--------|--------|--------|--------|--------|--------|
 E|--------|--------|--------|--------|--------|--------|--------|--------|--------|
 B|--------|--------|--------|--------|--------|--------|--------|--------|--------|
F#|--------|--------|--------|--------|--------|--------|--------|--------|--------|
C#|--------|--------|--------|--------|--------|--------|--------|--------|--------|


C#|--------|--------|--------|--------|--------|--------|--------|--------|--------|
G#|--------|--------|--------|--------|--------|--------|--------|--------|--------|
 E|--------|--------|--------|--------|--------|--------|--------|--------|--------|
 B|--------|--------|--------|--------|--------|--------|--------|--------|--------|
F#|--------|--------|--------|--------|--------|--------|--------|--------|--------|
C#|--------|--------|--------|--------|--------|--------|--------|--------|--------|


C#|--------|--------|--------|--------|--------|--------|--------|--------|--------|
G#|--------|--------|--------|--------|--------|--------|--------|--------|--------|
 E|--------|--------|--------|--------|--------|--------|--------|--------|--------|
 B|--------|--------|--------|--------|--------|--------|--------|--------|--------|
F#|--------|--------|--------|--------|--------|--------|--------|--------|--------|
C#|--------|--------|--------|--------|--------|--------|--------|--------|--------|


C#|--------|--------|--------|--------|--------|--------|--------|--------|--------|
G#|--------|--------|--------|--------|--------|--------|--------|--------|--------|
 E|--------|--------|--------|--------|--------|--------|--------|--------|--------|
 B|--------|--------|--------|--------|--------|--------|--------|--------|--------|
F#|--------|--------|--------|--------|--------|--------|--------|--------|--------|
C#|--------|--------|--------|--------|--------|--------|--------|--------|--------|


C#|--------|--------|--------|--------|--------|--------|--------|--------|--------|
G#|--------|--------|--------|--------|--------|--------|--------|--------|--------|
 E|--------|--------|--------|--------|--------|--------|--------|--------|--------|
 B|--------|--------|--------|--------|--------|--------|--------|--------|--------|
F#|--------|--------|--------|--------|--------|--------|--------|--------|--------|
C#|--------|--------|--------|--------|--------|--------|--------|--------|--------|


C#|--------|--------|--------|--------|--------|--------|--------|--------|--------|
G#|--------|--------|--------|--------|--------|--------|--------|--------|--------|
 E|--------|--------|--------|--------|--------|--------|--------|--------|--------|
 B|--------|--------|--------|--------|--------|--------|--------|--------|--------|
F#|--------|--------|--------|--------|--------|--------|--------|--------|--------|
C#|--------|--------|--------|--------|--------|--------|--------|--------|--------|


C#|--------|--------|--------|--------|--------|--------|--------|--------|--------|
G#|--------|--------|--------|--------|--------|--------|--------|--------|--------|
 E|--------|--------|--------|--------|--------|--------|--------|--------|--------|
 B|--------|--------|--------|--------|--------|--------|--------|--------|--------|
F#|--------|--------|--------|--------|--------|--------|--------|--------|--------|
C#|--------|--------|--------|--------|--------|--------|--------|--------|--------|


C#|--------|--------|--------|--------|--------|--------|--------|--------|--------|
G#|--------|--------|--------|--------|--------|--------|--------|--------|--------|
 E|--------|--------|--------|--------|--------|--------|--------|--------|--------|
 B|--------|--------|--------|--------|--------|--------|--------|--------|--------|
F#|--------|--------|--------|--------|--------|--------|--------|--------|--------|
C#|--------|--------|--------|--------|--------|--------|--------|--------|--------|


C#|--------|--------|--------|--------|--------|--------|--------|--------|--------|
G#|--------|--------|--------|--------|--------|--------|--------|--------|--------|
 E|--------|--------|--------|--------|--------|--------|--------|--------|--------|
 B|--------|--------|--------|--------|--------|--------|--------|--------|--------|
F#|--------|--------|--------|--------|--------|--------|--------|--------|--------|
C#|--------|--------|--------|--------|--------|--------|--------|--------|--------|


C#|--------|--------|--------|--------|-----------------------|--------|--------|--------|
G#|--------|--------|--------|--------|-----------------------|--------|--------|--------|
 E|--------|--------|--------|--------|-----------------------|--------|--------|--------|
 B|--------|--------|--------|--------|-----------------------|--------|--------|--------|
F#|--------|--------|--------|--------|-----------------------|--------|--------|--------|
C#|--------|--------|--------|--------|-----------0---0---0---|--------|--------|--------|


C#|--------|--------|--------|--------|--------|--------|--------|--------|--------|
G#|--------|--------|--------|--------|--------|--------|--------|--------|--------|
 E|--------|--------|--------|--------|--------|--------|--------|--------|--------|
 B|--------|--------|--------|--------|--------|--------|--------|--------|--------|
F#|--------|--------|--------|--------|--------|--------|--------|--------|--------|
C#|--------|--------|--------|--------|--------|--------|--------|--------|--------|


C#|--------|--------|--------|--------|--------|--------|--------|--------|--------|
G#|--------|--------|--------|--------|--------|--------|--------|--------|--------|
 E|--------|--------|--------|--------|--------|--------|--------|--------|--------|
 B|--------|--------|--------|--------|--------|--------|--------|--------|--------|
F#|--------|--------|--------|--------|--------|--------|--------|--------|--------|
C#|--------|--------|--------|--------|--------|--------|--------|--------|--------|


C#|--------|--------|--------|--------|--------|--------|--------|--------|--------|
G#|--------|--------|--------|--------|--------|--------|--------|--------|--------|
 E|--------|--------|--------|--------|--------|--------|--------|--------|--------|
 B|--------|--------|--------|--------|--------|--------|--------|--------|--------|
F#|--------|--------|--------|--------|--------|--------|--------|--------|--------|
C#|--------|--------|--------|--------|--------|--------|--------|--------|--------|


C#|--------|--------|--------|--------|--------|--------|--------|--------|--------|
G#|--------|--------|--------|--------|--------|--------|--------|--------|--------|
 E|--------|--------|--------|--------|--------|--------|--------|--------|--------|
 B|--------|--------|--------|--------|--------|--------|--------|--------|--------|
F#|--------|--------|--------|--------|--------|--------|--------|--------|--------|
C#|--------|--------|--------|--------|--------|--------|--------|--------|--------|


C#|--------|--------|--------|
G#|--------|--------|--------|
 E|--------|--------|--------|
 B|--------|--------|--------|
F#|--------|--------|--------|
C#|--------|--------|--------|





Track 16: Distortion (L)

C#|--------|--------|--------|--------|--------|--------|--------|--------|--------|
G#|--------|--------|--------|--------|--------|--------|--------|--------|--------|
 E|--------|--------|--------|--------|--------|--------|--------|--------|--------|
 B|--------|--------|--------|--------|--------|--------|--------|--------|--------|
F#|--------|--------|--------|--------|--------|--------|--------|--------|--------|
C#|--------|--------|--------|--------|--------|--------|--------|--------|--------|


C#|--------|--------|--------|--------|--------|--------|--------|--------|--------|
G#|--------|--------|--------|--------|--------|--------|--------|--------|--------|
 E|--------|--------|--------|--------|--------|--------|--------|--------|--------|
 B|--------|--------|--------|--------|--------|--------|--------|--------|--------|
F#|--------|--------|--------|--------|--------|--------|--------|--------|--------|
C#|--------|--------|--------|--------|--------|--------|--------|--------|--------|


C#|--------|--------|--------|--------|--------|--------|--------|--------|--------|
G#|--------|--------|--------|--------|--------|--------|--------|--------|--------|
 E|--------|--------|--------|--------|--------|--------|--------|--------|--------|
 B|--------|--------|--------|--------|--------|--------|--------|--------|--------|
F#|--------|--------|--------|--------|--------|--------|--------|--------|--------|
C#|--------|--------|--------|--------|--------|--------|--------|--------|--------|


C#|--------|--------|--------|--------|--------|--------|--------|--------|--------|
G#|--------|--------|--------|--------|--------|--------|--------|--------|--------|
 E|--------|--------|--------|--------|--------|--------|--------|--------|--------|
 B|--------|--------|--------|--------|--------|--------|--------|--------|--------|
F#|--------|--------|--------|--------|--------|--------|--------|--------|--------|
C#|--------|--------|--------|--------|--------|--------|--------|--------|--------|


C#|--------|--------|--------|--------|--------|--------|--------|--------|--------|
G#|--------|--------|--------|--------|--------|--------|--------|--------|--------|
 E|--------|--------|--------|--------|--------|--------|--------|--------|--------|
 B|--------|--------|--------|--------|--------|--------|--------|--------|--------|
F#|--------|--------|--------|--------|--------|--------|--------|--------|--------|
C#|--------|--------|--------|--------|--------|--------|--------|--------|--------|


C#|--------|--------|--------|--------|--------|--------|--------|--------|--------|
G#|--------|--------|--------|--------|--------|--------|--------|--------|--------|
 E|--------|--------|--------|--------|--------|--------|--------|--------|--------|
 B|--------|--------|--------|--------|--------|--------|--------|--------|--------|
F#|--------|--------|--------|--------|--------|--------|--------|--------|--------|
C#|--------|--------|--------|--------|--------|--------|--------|--------|--------|


C#|--------|--------|--------|--------|--------|--------|--------|--------|--------|
G#|--------|--------|--------|--------|--------|--------|--------|--------|--------|
 E|--------|--------|--------|--------|--------|--------|--------|--------|--------|
 B|--------|--------|--------|--------|--------|--------|--------|--------|--------|
F#|--------|--------|--------|--------|--------|--------|--------|--------|--------|
C#|--------|--------|--------|--------|--------|--------|--------|--------|--------|


C#|--------|--------|--------|--------|--------|--------|--------|--------|--------|
G#|--------|--------|--------|--------|--------|--------|--------|--------|--------|
 E|--------|--------|--------|--------|--------|--------|--------|--------|--------|
 B|--------|--------|--------|--------|--------|--------|--------|--------|--------|
F#|--------|--------|--------|--------|--------|--------|--------|--------|--------|
C#|--------|--------|--------|--------|--------|--------|--------|--------|--------|


C#|--------|--------|--------|--------|--------|--------|--------|--------|--------|
G#|--------|--------|--------|--------|--------|--------|--------|--------|--------|
 E|--------|--------|--------|--------|--------|--------|--------|--------|--------|
 B|--------|--------|--------|--------|--------|--------|--------|--------|--------|
F#|--------|--------|--------|--------|--------|--------|--------|--------|--------|
C#|--------|--------|--------|--------|--------|--------|--------|--------|--------|


C#|--------|--------|--------|--------|--------|--------|--------|--------|--------|
G#|--------|--------|--------|--------|--------|--------|--------|--------|--------|
 E|--------|--------|--------|--------|--------|--------|--------|--------|--------|
 B|--------|--------|--------|--------|--------|--------|--------|--------|--------|
F#|--------|--------|--------|--------|--------|--------|--------|--------|--------|
C#|--------|--------|--------|--------|--------|--------|--------|--------|--------|


C#|--------|--------|--------|--------|--------|--------|--------|--------|--------|
G#|--------|--------|--------|--------|--------|--------|--------|--------|--------|
 E|--------|--------|--------|--------|--------|--------|--------|--------|--------|
 B|--------|--------|--------|--------|--------|--------|--------|--------|--------|
F#|--------|--------|--------|--------|--------|--------|--------|--------|--------|
C#|--------|--------|--------|--------|--------|--------|--------|--------|--------|


C#|--------|--------|--------|--------|--------|---------------------------------|
G#|--------|--------|--------|--------|--------|---------------------------------|
 E|--------|--------|--------|--------|--------|---------------------------------|
 B|--------|--------|--------|--------|--------|---------------------------------|
F#|--------|--------|--------|--------|--------|---------------------------------|
C#|--------|--------|--------|--------|--------|-----0---0---0-------0---0-------|


C#|--------|--------|--------|--------|--------|--------|--------|--------|--------|
G#|--------|--------|--------|--------|--------|--------|--------|--------|--------|
 E|--------|--------|--------|--------|--------|--------|--------|--------|--------|
 B|--------|--------|--------|--------|--------|--------|--------|--------|--------|
F#|--------|--------|--------|--------|--------|--------|--------|--------|--------|
C#|--------|--------|--------|--------|--------|--------|--------|--------|--------|


C#|--------|--------|--------|--------|--------|--------|--------|--------|--------|
G#|--------|--------|--------|--------|--------|--------|--------|--------|--------|
 E|--------|--------|--------|--------|--------|--------|--------|--------|--------|
 B|--------|--------|--------|--------|--------|--------|--------|--------|--------|
F#|--------|--------|--------|--------|--------|--------|--------|--------|--------|
C#|--------|--------|--------|--------|--------|--------|--------|--------|--------|


C#|--------|--------|--------|--------|--------|--------|--------|--------|--------|
G#|--------|--------|--------|--------|--------|--------|--------|--------|--------|
 E|--------|--------|--------|--------|--------|--------|--------|--------|--------|
 B|--------|--------|--------|--------|--------|--------|--------|--------|--------|
F#|--------|--------|--------|--------|--------|--------|--------|--------|--------|
C#|--------|--------|--------|--------|--------|--------|--------|--------|--------|


C#|--------|--------|--------|--------|--------|--------|--------|--------|--------|
G#|--------|--------|--------|--------|--------|--------|--------|--------|--------|
 E|--------|--------|--------|--------|--------|--------|--------|--------|--------|
 B|--------|--------|--------|--------|--------|--------|--------|--------|--------|
F#|--------|--------|--------|--------|--------|--------|--------|--------|--------|
C#|--------|--------|--------|--------|--------|--------|--------|--------|--------|


C#|--------|--------|--------|--------|--------|
G#|--------|--------|--------|--------|--------|
 E|--------|--------|--------|--------|--------|
 B|--------|--------|--------|--------|--------|
F#|--------|--------|--------|--------|--------|
C#|--------|--------|--------|--------|--------|





Track 17: Distortion (L)

C#|--------|--------|--------|--------|--------|--------|--------|--------|--------|
G#|--------|--------|--------|--------|--------|--------|--------|--------|--------|
 E|--------|--------|--------|--------|--------|--------|--------|--------|--------|
 B|--------|--------|--------|--------|--------|--------|--------|--------|--------|
F#|--------|--------|--------|--------|--------|--------|--------|--------|--------|
C#|--------|--------|--------|--------|--------|--------|--------|--------|--------|


C#|--------|--------|--------|--------|--------|--------|--------|--------|--------|
G#|--------|--------|--------|--------|--------|--------|--------|--------|--------|
 E|--------|--------|--------|--------|--------|--------|--------|--------|--------|
 B|--------|--------|--------|--------|--------|--------|--------|--------|--------|
F#|--------|--------|--------|--------|--------|--------|--------|--------|--------|
C#|--------|--------|--------|--------|--------|--------|--------|--------|--------|


C#|--------|--------|--------|--------|--------|--------|--------|--------|--------|
G#|--------|--------|--------|--------|--------|--------|--------|--------|--------|
 E|--------|--------|--------|--------|--------|--------|--------|--------|--------|
 B|--------|--------|--------|--------|--------|--------|--------|--------|--------|
F#|--------|--------|--------|--------|--------|--------|--------|--------|--------|
C#|--------|--------|--------|--------|--------|--------|--------|--------|--------|


C#|--------|--------|--------|--------|--------|--------|--------|--------|--------|
G#|--------|--------|--------|--------|--------|--------|--------|--------|--------|
 E|--------|--------|--------|--------|--------|--------|--------|--------|--------|
 B|--------|--------|--------|--------|--------|--------|--------|--------|--------|
F#|--------|--------|--------|--------|--------|--------|--------|--------|--------|
C#|--------|--------|--------|--------|--------|--------|--------|--------|--------|


C#|--------|--------|--------|--------|--------|--------|--------|--------|--------|
G#|--------|--------|--------|--------|--------|--------|--------|--------|--------|
 E|--------|--------|--------|--------|--------|--------|--------|--------|--------|
 B|--------|--------|--------|--------|--------|--------|--------|--------|--------|
F#|--------|--------|--------|--------|--------|--------|--------|--------|--------|
C#|--------|--------|--------|--------|--------|--------|--------|--------|--------|


C#|--------|--------|--------|--------|--------|--------|--------|--------|--------|
G#|--------|--------|--------|--------|--------|--------|--------|--------|--------|
 E|--------|--------|--------|--------|--------|--------|--------|--------|--------|
 B|--------|--------|--------|--------|--------|--------|--------|--------|--------|
F#|--------|--------|--------|--------|--------|--------|--------|--------|--------|
C#|--------|--------|--------|--------|--------|--------|--------|--------|--------|


C#|--------|--------|--------|--------|--------|--------|--------|--------|--------|
G#|--------|--------|--------|--------|--------|--------|--------|--------|--------|
 E|--------|--------|--------|--------|--------|--------|--------|--------|--------|
 B|--------|--------|--------|--------|--------|--------|--------|--------|--------|
F#|--------|--------|--------|--------|--------|--------|--------|--------|--------|
C#|--------|--------|--------|--------|--------|--------|--------|--------|--------|


C#|--------|--------|--------|--------|--------|--------|--------|--------|--------|
G#|--------|--------|--------|--------|--------|--------|--------|--------|--------|
 E|--------|--------|--------|--------|--------|--------|--------|--------|--------|
 B|--------|--------|--------|--------|--------|--------|--------|--------|--------|
F#|--------|--------|--------|--------|--------|--------|--------|--------|--------|
C#|--------|--------|--------|--------|--------|--------|--------|--------|--------|


C#|--------|--------|--------|--------|--------|--------|--------|--------|--------|
G#|--------|--------|--------|--------|--------|--------|--------|--------|--------|
 E|--------|--------|--------|--------|--------|--------|--------|--------|--------|
 B|--------|--------|--------|--------|--------|--------|--------|--------|--------|
F#|--------|--------|--------|--------|--------|--------|--------|--------|--------|
C#|--------|--------|--------|--------|--------|--------|--------|--------|--------|


C#|--------|--------|--------|--------|--------|--------|--------|--------|--------|
G#|--------|--------|--------|--------|--------|--------|--------|--------|--------|
 E|--------|--------|--------|--------|--------|--------|--------|--------|--------|
 B|--------|--------|--------|--------|--------|--------|--------|--------|--------|
F#|--------|--------|--------|--------|--------|--------|--------|--------|--------|
C#|--------|--------|--------|--------|--------|--------|--------|--------|--------|


C#|--------|--------|--------|--------|--------|--------|--------|--------|--------|
G#|--------|--------|--------|--------|--------|--------|--------|--------|--------|
 E|--------|--------|--------|--------|--------|--------|--------|--------|--------|
 B|--------|--------|--------|--------|--------|--------|--------|--------|--------|
F#|--------|--------|--------|--------|--------|--------|--------|--------|--------|
C#|--------|--------|--------|--------|--------|--------|--------|--------|--------|


C#|--------|--------|--------|--------|--------|----------------|----------------|
G#|--------|--------|--------|--------|--------|----------------|----------------|
 E|--------|--------|--------|--------|--------|----------------|----------------|
 B|--------|--------|--------|--------|--------|----------------|----------------|
F#|--------|--------|--------|--------|--------|----------------|----------------|
C#|--------|--------|--------|--------|--------|------------0---|----------------|


C#|--------|--------|--------|--------|--------|--------|--------|--------|--------|
G#|--------|--------|--------|--------|--------|--------|--------|--------|--------|
 E|--------|--------|--------|--------|--------|--------|--------|--------|--------|
 B|--------|--------|--------|--------|--------|--------|--------|--------|--------|
F#|--------|--------|--------|--------|--------|--------|--------|--------|--------|
C#|--------|--------|--------|--------|--------|--------|--------|--------|--------|


C#|--------|--------|--------|--------|--------|--------|--------|--------|--------|
G#|--------|--------|--------|--------|--------|--------|--------|--------|--------|
 E|--------|--------|--------|--------|--------|--------|--------|--------|--------|
 B|--------|--------|--------|--------|--------|--------|--------|--------|--------|
F#|--------|--------|--------|--------|--------|--------|--------|--------|--------|
C#|--------|--------|--------|--------|--------|--------|--------|--------|--------|


C#|--------|--------|--------|--------|--------|--------|--------|--------|--------|
G#|--------|--------|--------|--------|--------|--------|--------|--------|--------|
 E|--------|--------|--------|--------|--------|--------|--------|--------|--------|
 B|--------|--------|--------|--------|--------|--------|--------|--------|--------|
F#|--------|--------|--------|--------|--------|--------|--------|--------|--------|
C#|--------|--------|--------|--------|--------|--------|--------|--------|--------|


C#|--------|--------|--------|--------|--------|--------|--------|--------|--------|
G#|--------|--------|--------|--------|--------|--------|--------|--------|--------|
 E|--------|--------|--------|--------|--------|--------|--------|--------|--------|
 B|--------|--------|--------|--------|--------|--------|--------|--------|--------|
F#|--------|--------|--------|--------|--------|--------|--------|--------|--------|
C#|--------|--------|--------|--------|--------|--------|--------|--------|--------|


C#|--------|--------|--------|--------|
G#|--------|--------|--------|--------|
 E|--------|--------|--------|--------|
 B|--------|--------|--------|--------|
F#|--------|--------|--------|--------|
C#|--------|--------|--------|--------|





Track 18: Distortion (L)

C#|--------|--------|--------|--------|--------|--------|--------|--------|--------|
G#|--------|--------|--------|--------|--------|--------|--------|--------|--------|
 E|--------|--------|--------|--------|--------|--------|--------|--------|--------|
 B|--------|--------|--------|--------|--------|--------|--------|--------|--------|
F#|--------|--------|--------|--------|--------|--------|--------|--------|--------|
C#|--------|--------|--------|--------|--------|--------|--------|--------|--------|


C#|--------|--------|--------|--------|--------|--------|--------|--------|--------|
G#|--------|--------|--------|--------|--------|--------|--------|--------|--------|
 E|--------|--------|--------|--------|--------|--------|--------|--------|--------|
 B|--------|--------|--------|--------|--------|--------|--------|--------|--------|
F#|--------|--------|--------|--------|--------|--------|--------|--------|--------|
C#|--------|--------|--------|--------|--------|--------|--------|--------|--------|


C#|--------|--------|--------|--------|--------|--------|--------|--------|--------|
G#|--------|--------|--------|--------|--------|--------|--------|--------|--------|
 E|--------|--------|--------|--------|--------|--------|--------|--------|--------|
 B|--------|--------|--------|--------|--------|--------|--------|--------|--------|
F#|--------|--------|--------|--------|--------|--------|--------|--------|--------|
C#|--------|--------|--------|--------|--------|--------|--------|--------|--------|


C#|--------|--------|--------|--------|--------|--------|--------|--------|--------|
G#|--------|--------|--------|--------|--------|--------|--------|--------|--------|
 E|--------|--------|--------|--------|--------|--------|--------|--------|--------|
 B|--------|--------|--------|--------|--------|--------|--------|--------|--------|
F#|--------|--------|--------|--------|--------|--------|--------|--------|--------|
C#|--------|--------|--------|--------|--------|--------|--------|--------|--------|


C#|--------|--------|--------|--------|--------|--------|--------|--------|--------|
G#|--------|--------|--------|--------|--------|--------|--------|--------|--------|
 E|--------|--------|--------|--------|--------|--------|--------|--------|--------|
 B|--------|--------|--------|--------|--------|--------|--------|--------|--------|
F#|--------|--------|--------|--------|--------|--------|--------|--------|--------|
C#|--------|--------|--------|--------|--------|--------|--------|--------|--------|


C#|--------|--------|--------|--------|--------|--------|--------|--------|--------|
G#|--------|--------|--------|--------|--------|--------|--------|--------|--------|
 E|--------|--------|--------|--------|--------|--------|--------|--------|--------|
 B|--------|--------|--------|--------|--------|--------|--------|--------|--------|
F#|--------|--------|--------|--------|--------|--------|--------|--------|--------|
C#|--------|--------|--------|--------|--------|--------|--------|--------|--------|


C#|--------|--------|--------|--------|--------|--------|--------|--------|--------|
G#|--------|--------|--------|--------|--------|--------|--------|--------|--------|
 E|--------|--------|--------|--------|--------|--------|--------|--------|--------|
 B|--------|--------|--------|--------|--------|--------|--------|--------|--------|
F#|--------|--------|--------|--------|--------|--------|--------|--------|--------|
C#|--------|--------|--------|--------|--------|--------|--------|--------|--------|


C#|--------|--------|--------|--------|--------|--------|--------|--------|--------|
G#|--------|--------|--------|--------|--------|--------|--------|--------|--------|
 E|--------|--------|--------|--------|--------|--------|--------|--------|--------|
 B|--------|--------|--------|--------|--------|--------|--------|--------|--------|
F#|--------|--------|--------|--------|--------|--------|--------|--------|--------|
C#|--------|--------|--------|--------|--------|--------|--------|--------|--------|


C#|--------|--------|--------|--------|--------|--------|--------|--------|--------|
G#|--------|--------|--------|--------|--------|--------|--------|--------|--------|
 E|--------|--------|--------|--------|--------|--------|--------|--------|--------|
 B|--------|--------|--------|--------|--------|--------|--------|--------|--------|
F#|--------|--------|--------|--------|--------|--------|--------|--------|--------|
C#|--------|--------|--------|--------|--------|--------|--------|--------|--------|


C#|--------|--------|--------|--------|--------|--------|--------|--------|--------|
G#|--------|--------|--------|--------|--------|--------|--------|--------|--------|
 E|--------|--------|--------|--------|--------|--------|--------|--------|--------|
 B|--------|--------|--------|--------|--------|--------|--------|--------|--------|
F#|--------|--------|--------|--------|--------|--------|--------|--------|--------|
C#|--------|--------|--------|--------|--------|--------|--------|--------|--------|


C#|--------|--------|--------|--------|--------|--------|--------|--------|--------|
G#|--------|--------|--------|--------|--------|--------|--------|--------|--------|
 E|--------|--------|--------|--------|--------|--------|--------|--------|--------|
 B|--------|--------|--------|--------|--------|--------|--------|--------|--------|
F#|--------|--------|--------|--------|--------|--------|--------|--------|--------|
C#|--------|--------|--------|--------|--------|--------|--------|--------|--------|


C#|--------|--------|--------|--------|--------|--------|--------|--------|--------|
G#|--------|--------|--------|--------|--------|--------|--------|--------|--------|
 E|--------|--------|--------|--------|--------|--------|--------|--------|--------|
 B|--------|--------|--------|--------|--------|--------|--------|--------|--------|
F#|--------|--------|--------|--------|--------|--------|--------|--------|--------|
C#|--------|--------|--------|--------|--------|--------|--------|--------|--------|


C#|--------|--------|--------|--------|--------|--------|--------|--------|--------|
G#|--------|--------|--------|--------|--------|--------|--------|--------|--------|
 E|--------|--------|--------|--------|--------|--------|--------|--------|--------|
 B|--------|--------|--------|--------|--------|--------|--------|--------|--------|
F#|--------|--------|--------|--------|--------|--------|--------|--------|--------|
C#|--------|--------|--------|--------|--------|--------|--------|--------|--------|


C#|--------|--------|--------|--------|--------|--------|--------|--------|--------|
G#|--------|--------|--------|--------|--------|--------|--------|--------|--------|
 E|--------|--------|--------|--------|--------|--------|--------|--------|--------|
 B|--------|--------|--------|--------|--------|--------|--------|--------|--------|
F#|--------|--------|--------|--------|--------|--------|--------|--------|--------|
C#|--------|--------|--------|--------|--------|--------|--------|--------|--------|


C#|--------|--------|--------|--------|--------|--------|--------|--------|--------|
G#|--------|--------|--------|--------|--------|--------|--------|--------|--------|
 E|--------|--------|--------|--------|--------|--------|--------|--------|--------|
 B|--------|--------|--------|--------|--------|--------|--------|--------|--------|
F#|--------|--------|--------|--------|--------|--------|--------|--------|--------|
C#|--------|--------|--------|--------|--------|--------|--------|--------|--------|


C#|--------|--------|--------|--------|--------|--------|--------|--------|--------|
G#|--------|--------|--------|--------|--------|--------|--------|--------|--------|
 E|--------|--------|--------|--------|--------|--------|--------|--------|--------|
 B|--------|--------|--------|--------|--------|--------|--------|--------|--------|
F#|--------|--------|--------|--------|--------|--------|--------|--------|--------|
C#|--------|--------|--------|--------|--------|--------|--------|--------|--------|


C#|--------|--------------------|
G#|--------|--------------------|
 E|--------|--------------------|
 B|--------|--------------------|
F#|--------|-3---2--------------|
C#|--------|-1---0--------------|





Track 19: Untitled

 E|---------------------------------|---------------------------------|---------------------------------|
 B|---------------------------------|---------------------------------|---------------------------------|
F#|---------------------------------|---------------------------------|---------------------------------|
C#|-1---0-------0---1---0-------0---|-1---0-------0---1---0-------0---|-1---0-------0---1---0-------0---|


 E|-----2---2---0---2--0--------------|---------------------------------|-----2---2---0---2--0--------------|
 B|-----------------------0-----------|---------------------------------|-----------------------0-----------|
F#|-----------------------------------|---------------------------------|-----------------------------------|
C#|-0-------------------------5---5---|-1---0-------0---1---0-------0---|-0-------------------------5---5---|


 E|---------------------------------|-----2---2---0---2--0--------------|---------------------------------|
 B|---------------------------------|-----------------------0-----------|---------------------------------|
F#|---------------------------------|-----------------------------------|---------------------------------|
C#|-1---0-------0---1---0-------0---|-0-------------------------5---5---|-1---0-------0---1---0-------0---|


 E|-----2---2---0---2--0--------------|---------------------------------|-----2---2---0---2--0--------------|
 B|-----------------------0-----------|---------------------------------|-----------------------0-----------|
F#|-----------------------------------|---------------------------------|-----------------------------------|
C#|-0-------------------------5---5---|-1---0-------0---1---0-------0---|-0-------------------------5---5---|


 E|---------------------------------|---------------------------------|---------------------------------|
 B|---------------------------------|---------------------------------|---------------------------------|
F#|---------------------------------|---------------------------------|---------------------------------|
C#|-1---0---0---0---1---0---0---0---|-1---0---0---0---1---0---0---0---|-1---0---0---0---1---0---0---0---|


 E|-------------------------------|---------------------------------|---------------------------------|
 B|-------------------------------|---------------------------------|---------------------------------|
F#|-------5----------7------------|---------------------------------|---------------------------------|
C#|-3--5-------5--7-------8---7---|-1---0---0---0---1---0---0---0---|-1---0---0---0---1---0---0---0---|


 E|---------------------------------|-------------------------------|---------------------------------|
 B|---------------------------------|-------------------------------|---------------------------------|
F#|---------------------------------|-------5----------7------------|---------------------------------|
C#|-1---0---0---0---1---0---0---0---|-3--5-------5--7-------8---7---|-1---0---0---0---1---0---0---0---|


 E|---------------------------------|---------------------------------|-------------------------------|
 B|---------------------------------|---------------------------------|-------------------------------|
F#|---------------------------------|---------------------------------|-------5----------7------------|
C#|-1---0---0---0---1---0---0---0---|-1---0---0---0---1---0---0---0---|-3--5-------5--7-------8---7---|


 E|---------------------------------|---------------------------------|---------------------------------|
 B|---------------------------------|---------------------------------|---------------------------------|
F#|---------------------------------|---------------------------------|---------------------------------|
C#|-1---0---0---0---1---0---0---0---|-1---0---0---0---1---0---0---0---|-1---0---0---0---1---0---0---0---|


 E|-----2---2---0---2--0--------------|---------------------------------|-----2---2---0---2--0--------------|
 B|-----------------------0-----------|---------------------------------|-----------------------0-----------|
F#|-----------------------------------|---------------------------------|-----------------------------------|
C#|-0-------------------------5---5---|-1---0-------0---1---0-------0---|-0-------------------------5---5---|


 E|---------------------------------|-----2---2---0---2--0--------------|-------------------------------------------|
 B|---------------------------------|-----------------------------------|-------------------------------------------|
F#|---------------------------------|-----------------------1---0-------|---------1--1--------3--3------------------|
C#|-1---0-------0---1---0-------0---|-0-----------------------------1---|-1---3---------3--1-----------1--1--1--3---|


 E|---------------------------------------|-----------------------------------------------|
 B|---------------------------------------|-----------------------------------------------|
F#|-1--1--------1----1--1-----------------|-1--1--------3--3------------------1--1--------|
C#|-------3--1--------------1---1--1--3---|-------3--1-----------1--1--1--3---------3--1--|


 E|---------------------------------------|-------------------------------------------|
 B|---------------------------------------|-------------------------------------------|
F#|-3----1--1-----------------3--3--------|-5--5------------------3--3--------5----3--|
C#|-------------3---3--3--5---------5--3--|----------3--3--3--5---------5--3----------|


 E|-------------------------------------------|---------------------------------------|
 B|-------------------------------------------|---------------------------------------|
F#|-3-----------------3--3--------5--5--------|-----------3--3--------3----5--5---6---|
C#|-----3---3--3--5---------5--3-----------3--|-3--3--5---------5--3------------------|


 E|---------------------------------|-----2---2---0---2--0--------------|---------------------------------|
 B|---------------------------------|-----------------------0-----------|---------------------------------|
F#|---------------------------------|-----------------------------------|---------------------------------|
C#|-1---0-------0---1---0-------0---|-0-------------------------5---5---|-1---0-------0---1---0-------0---|


 E|-----2---2---0---2--0--------------|---------------------------------|-----2---2---0---2--0--------------|
 B|-----------------------0-----------|---------------------------------|-----------------------0-----------|
F#|-----------------------------------|---------------------------------|-----------------------------------|
C#|-0-------------------------5---5---|-1---0-------0---1---0-------0---|-0-------------------------5---5---|


 E|---------------------------------|-----2---2---0---2--0--------------|---------------------------------|
 B|---------------------------------|-----------------------0-----------|---------------------------------|
F#|---------------------------------|-----------------------------------|---------------------------------|
C#|-1---0-------0---1---0-------0---|-0-------------------------5---5---|-1---0---0---0---1---0---0---0---|


 E|---------------------------------|---------------------------------|-------------------------------|
 B|---------------------------------|---------------------------------|-------------------------------|
F#|---------------------------------|---------------------------------|-------5----------7------------|
C#|-1---0---0---0---1---0---0---0---|-1---0---0---0---1---0---0---0---|-3--5-------5--7-------8---7---|


 E|---------------------------------|---------------------------------|---------------------------------|
 B|---------------------------------|---------------------------------|---------------------------------|
F#|---------------------------------|---------------------------------|---------------------------------|
C#|-1---0---0---0---1---0---0---0---|-1---0---0---0---1---0---0---0---|-1---0---0---0---1---0---0---0---|


 E|-------------------------------|---------------------------------|---------------------------------|
 B|-------------------------------|---------------------------------|---------------------------------|
F#|-------5----------7------------|---------------------------------|---------------------------------|
C#|-3--5-------5--7-------8---7---|-1---0---0---0---1---0---0---0---|-1---0---0---0---1---0---0---0---|


 E|---------------------------------|-------------------------------|---------------------------------|
 B|---------------------------------|-------------------------------|---------------------------------|
F#|---------------------------------|-------5----------7------------|---------------------------------|
C#|-1---0---0---0---1---0---0---0---|-3--5-------5--7-------8---7---|-1---0---0---0---1---0---0---0---|


 E|---------------------------------|---------------------------------|-----2---2---0---2--0--------------|
 B|---------------------------------|---------------------------------|-----------------------0-----------|
F#|---------------------------------|---------------------------------|-----------------------------------|
C#|-1---0---0---0---1---0---0---0---|-1---0---0---0---1---0---0---0---|-0-------------------------5---5---|


 E|---------------------------------|-----2---2---0---2--0--------------|---------------------------------|
 B|---------------------------------|-----------------------0-----------|---------------------------------|
F#|---------------------------------|-----------------------------------|---------------------------------|
C#|-1---0-------0---1---0-------0---|-0-------------------------5---5---|-1---0-------0---1---0-------0---|


 E|-----2---2---0---2--0--------------|-------------------------------------------|
 B|-----------------------------------|-------------------------------------------|
F#|-----------------------1---0-------|---------1--1--------3--3------------------|
C#|-0-----------------------------1---|-1---3---------3--1-----------1--1--1--3---|


 E|---------------------------------------|-----------------------------------------------|
 B|---------------------------------------|-----------------------------------------------|
F#|-1--1--------1----1--1-----------------|-1--1--------3--3------------------1--1--------|
C#|-------3--1--------------1---1--1--3---|-------3--1-----------1--1--1--3---------3--1--|


 E|---------------------------------------|-------------------------------------------|
 B|---------------------------------------|-------------------------------------------|
F#|-3----1--1-----------------3--3--------|-5--5------------------3--3--------5----3--|
C#|-------------3---3--3--5---------5--3--|----------3--3--3--5---------5--3----------|


 E|-------------------------------------------|---------------------------------------|
 B|-------------------------------------------|---------------------------------------|
F#|-3-----------------3--3--------5--5--------|-----------3--3--------3----5--5---6---|
C#|-----3---3--3--5---------5--3-----------3--|-3--3--5---------5--3------------------|


 E|---------------------------------|-----2---2---0---2--0--------------|---------------------------------|
 B|---------------------------------|-----------------------0-----------|---------------------------------|
F#|---------------------------------|-----------------------------------|---------------------------------|
C#|-1---0-------0---1---0-------0---|-0-------------------------5---5---|-1---0-------0---1---0-------0---|


 E|-----2---2---0---2--0--------------|---------------------------------|-----2---2---0---2--0--------------|
 B|-----------------------0-----------|---------------------------------|-----------------------0-----------|
F#|-----------------------------------|---------------------------------|-----------------------------------|
C#|-0-------------------------5---5---|-1---0-------0---1---0-------0---|-0-------------------------5---5---|


 E|---------------------------------|-----2---2---0---2--0--------------|--------------------|
 B|---------------------------------|-----------------------0-----------|--------------------|
F#|---------------------------------|-----------------------------------|--------------------|
C#|-1---0-------0---1---0-------0---|-0-------------------------5---5---|-1---0--------------|


 E|--------|--------------------|--------|-------------2---2---2---2---0---|-2--0------0-----------------|
 B|--------|--------------------|--------|---------------------------------|-------2---------------------|
F#|--------|--------------------|--------|---------------------------------|-----------------------------|
C#|--------|-1---0--------------|--------|-1---0---------------------------|---------------5---5---5-----|


 E|---------------------------------|---------------------------------|---------------------------------|
 B|---------2---2---2---0-------2---|-----0---------------------------|---------------------------------|
F#|-------------------------2-------|-------------3---2---0-----------|---------------------------------|
C#|-1---0---------------------------|-------------------------3---2---|-1---0---0---0---1---0---0---0---|


 E|---------------------------------|---------------------------------|-----2---2---0---2--0--------------|
 B|---------------------------------|---------------------------------|-----------------------0-----------|
F#|---------------------------------|---------------------------------|-----------------------------------|
C#|-1---0---0---0---1---0---0---0---|-1---0---0---0---1---0---0---0---|-0-------------------------5---5---|


 E|---------------------------------|---------------------------------|---------------------------------|
 B|---------------------------------|---------------------------------|---------------------------------|
F#|---------------------------------|---------------------------------|---------------------------------|
C#|-1---0---0---0---1---0---0---0---|-1---0---0---0---1---0---0---0---|-1---0---0---0---1---0---0---0---|


 E|-----2---2---0---2--0--------------|---------------------------------|---------------------------------|
 B|-----------------------0-----------|---------------------------------|---------------------------------|
F#|-----------------------------------|---------------------------------|---------------------------------|
C#|-0-------------------------5---5---|-1---0---0---0---1---0---0---0---|-1---0---0---0---1---0---0---0---|


 E|---------------------------------|-----2---2---0---2--0--------------|---------------------------------|
 B|---------------------------------|-----------------------0-----------|---------------------------------|
F#|---------------------------------|-----------------------------------|---------------------------------|
C#|-1---0---0---0---1---0---0---0---|-0-------------------------5---5---|-1---0---0---0---1---0---0---0---|


 E|---------------------------------|---------------------------------|-----2---2---0---2--0--------------|
 B|---------------------------------|---------------------------------|-----------------------0-----------|
F#|---------------------------------|---------------------------------|-----------------------------------|
C#|-1---0---0---0---1---0---0---0---|-1---0---0---0---1---0---0---0---|-0-------------------------5---5---|


 E|---------------------------------|-----2---2---0---2--0--------------|---------------------------------|
 B|---------------------------------|-----------------------0-----------|---------------------------------|
F#|---------------------------------|-----------------------------------|---------------------------------|
C#|-1---0---0---0---1---0---0---0---|-0-------------------------5---5---|-1---0---0---0---1---0---0---0---|


 E|-----2---2---0---2--0--------------|---------------------------------|-----2---2---0---2--0--------------|
 B|-----------------------0-----------|---------------------------------|-----------------------0-----------|
F#|-----------------------------------|---------------------------------|-----------------------------------|
C#|-0-------------------------5---5---|-1---0---0---0---1---0---0---0---|-0-------------------------5---5---|


 E|---------------------------------|-----2---2---0---2--0--------------|-------------------------------------|
 B|---------------------------------|-----------------------0-----------|-------------------------------------|
F#|---------------------------------|-----------------------------------|-------------------------------------|
C#|-1---0---0---0---1---0---0---0---|-0-------------------------5---5---|-1---0-------0--0--1---0-------0--0--|


 E|-----2---2---0---2--0--------------|-------------------------------------|-----2---2---0---2--0--------------|
 B|-----------------------0-----------|-------------------------------------|-----------------------0-----------|
F#|-----------------------------------|-------------------------------------|-----------------------------------|
C#|-0-------------------------5---5---|-1---0-------0--0--1---0-------0--0--|-0-------------------------5---5---|


 E|-------------------------------------|-----2---2---0---2--0--------------|-------------------------------------|
 B|-------------------------------------|-----------------------0-----------|-------------------------------------|
F#|-------------------------------------|-----------------------------------|-------------------------------------|
C#|-1---0-------0--0--1---0-------0--0--|-0-------------------------5---5---|-1---0-------0--0--1---0-------0--0--|


 E|-----2---2---0---2--0-----------|-----------------|--------------|---------------------------------|
 B|-----------------------0--------|-----------------|--------------|---------------------------------|
F#|--------------------------------|-----------------|--------------|---------------------------------|
C#|-0-------------------------5----|-5----5-----5----|-5------1--1--|-1---0-------0---1---0-------0---|


 E|---------------------------------|-----2---2---0---2--0--------------|---------------------------------|
 B|---------------------------------|-----------------------0-----------|---------------------------------|
F#|---------------------------------|-----------------------------------|---------------------------------|
C#|-1---0-------0---1---0-------0---|-0-------------------------5---5---|-1---0-------0---1---0-------0---|


 E|-----2---2---0---2--0--------------|---------------------------------|-----2---2---0---2--0--------------|
 B|-----------------------0-----------|---------------------------------|-----------------------0-----------|
F#|-----------------------------------|---------------------------------|-----------------------------------|
C#|-0-------------------------5---5---|-1---0-------0---1---0-------0---|-0-------------------------5---5---|


 E|---------------------------------|-------------------------------|---------------------------------|
 B|---------------------------------|-------------------------------|---------------------------------|
F#|---------------------------------|-------------------------------|---------------------------------|
C#|-1---0-------0---1---0-------0---|-3----5----6----5----6----7----|-1---0-------0---1---0-------0---|


 E|-----2---2---0---2--0--------------|---------------------------------|-------------------------------|
 B|-----------------------0-----------|---------------------------------|-------------------------------|
F#|-----------------------------------|---------------------------------|-------------------------------|
C#|-0-------------------------5---5---|-1---0-------0---1---0-------0---|-3----5----6----5----6----7----|


 E|---------------------------------|-----2---2---0---2--0--------------|---------------------------------|
 B|---------------------------------|-----------------------0-----------|---------------------------------|
F#|---------------------------------|-----------------------------------|---------------------------------|
C#|-1---0-------0---1---0-------0---|-0-------------------------5---5---|-1---0-------0---1---0-------0---|


 E|-----2---2---0---2--0--------------|---------------------------------|-----2---2---0---2--0--------------|
 B|-----------------------0-----------|---------------------------------|-----------------------0-----------|
F#|-----------------------------------|---------------------------------|-----------------------------------|
C#|-0-------------------------5---5---|-1---0-------0---1---0-------0---|-0-------------------------5---5---|


 E|---------------------------------|-----2---2---0---2--0--------------|--------------------|
 B|---------------------------------|-----------------------0-----------|--------------------|
F#|---------------------------------|-----------------------------------|--------------------|
C#|-1---0-------0---1---0-------0---|-0-------------------------5---5---|-1---0--------------|