Menu:

 

Search:

 

pantera - domination:

 



Title: Domination
Artist: 
Album: Cowboys From Hell
Author: Pantera


Track 1: Dimebag

E|-------------|------------------------|------------------------|------------------------|
B|-------------|------------------------|------------------------|------------------------|
G|-------------|------------------------|------------------------|------------------------|
D|-------------|----------9----7---9----|----------9----7---9----|----------9----7---9----|
A|-------------|----------7----5---7----|----------7----5---7----|----------7----5---7----|
E|--------12---|-0----0-----------------|-0----0-----------------|-0----0-----------------|


E|------------------------|------------------------|------------------------|------------------------|
B|------------------------|------------------------|------------------------|------------------------|
G|------------------------|------------------------|------------------------|------------------------|
D|------------------------|----------9----7---9----|----------9----7---9----|----------9----7---9----|
A|----------5----7---5----|----------7----5---7----|----------7----5---7----|----------7----5---7----|
E|-0----0---3----5---3----|-0----0-----------------|-0----0-----------------|-0----0-----------------|


E|------------------------|---------------------------|---------------------------|
B|------------------------|---------------------------|---------------------------|
G|------------------------|---------------------------|---------------------------|
D|------------------------|-------------9----7---9----|-------------9----7---9----|
A|----------7----8---5----|-------------7----5---7----|-------------7----5---7----|
E|-0----0---5----6---3----|-0---0---0-----------------|-0---0---0-----------------|


E|---------------------------|---------------------------|---------------------------|
B|---------------------------|---------------------------|---------------------------|
G|---------------------------|---------------------------|---------------------------|
D|-------------9----7---9----|---------------------------|-------------9----7---9----|
A|-------------7----5---7----|-------------5----7---5----|-------------7----5---7----|
E|-0---0---0-----------------|-0---0---0---3----5---3----|-0---0---0-----------------|


E|---------------------------|---------------------------|------------------------|
B|---------------------------|---------------------------|------------------------|
G|---------------------------|---------------------------|------------------------|
D|-------------9----7---9----|-------------9----7---9----|------------------------|
A|-------------7----5---7----|-------------7----5---7----|----------7----8---5----|
E|-0---0---0-----------------|-0---0---0-----------------|-0----0---5----6---3----|


E|-------------------------------------|-------------------------------------|-------------------------------------|
B|-------------------------------------|-------------------------------------|-------------------------------------|
G|-------------------------------------|-------------------------------------|-------------------------------------|
D|--------9---7--9----------9---7--9---|--------9---7--9---------------------|--------9---7--9----------9---7--9---|
A|--------7---5--7----------7---5--7---|--------7---5--7----------5---7--5---|--------7---5--7----------7---5--7---|
E|-0---0-------------0---0-------------|-0---0-------------0---0--3---5--3---|-0---0-------------0---0-------------|


E|-------------------------------------|-----------------------------------------|
B|-------------------------------------|-----------------------------------------|
G|-------------------------------------|-----------------------------------------|
D|--------9---7--9---------------------|----------9---7--9------------9---7--9---|
A|--------7---5--7----------7---8--5---|----------7---5--7------------7---5--7---|
E|-0---0-------------0---0--5---6--3---|-0--0--0-------------0--0--0-------------|


E|-----------------------------------------|-----------------------------------------|
B|-----------------------------------------|-----------------------------------------|
G|-----------------------------------------|-----------------------------------------|
D|----------9---7--9-----------------------|----------9---7--9------------9---7--9---|
A|----------7---5--7------------5---7--5---|----------7---5--7------------7---5--7---|
E|-0--0--0-------------0--0--0--3---5--3---|-0--0--0-------------0--0--0-------------|


E|------------------------------------------|---------------------------|---------------------------|
B|------------------------------------------|---------------------------|---------------------------|
G|------------------------------------------|---------------------------|---------------------------|
D|-4---4---4---5---5---5---6---6---6---7----|---------------------------|---------------------------|
A|-2---2---2---3---3---3---4---4---4---5----|-------------2-------------|-------------2-------------|
E|------------------------------------------|-0--0--0--0--0-------------|-0--0--0--0--0-------------|


E|---------------------------|-------------------------------------|---------------------------|
B|---------------------------|-------------------------------------|---------------------------|
G|---------------------------|-------------------------------------|---------------------------|
D|---------------------------|-4--4---3--3---2--2------------------|---------------------------|
A|-------------2-------------|-2--2---1--1---0--0---5--5---4---3---|-------------2-------------|
E|-0--0--0--0--0-------------|----------------------3--3---2---1---|-0--0--0--0--0-------------|


E|---------------------------|---------------------------|---------------------------|
B|---------------------------|---------------------------|---------------------------|
G|---------------------------|---------------------------|---------------------------|
D|---------------------------|---------------------------|---------------------------|
A|-------------2-------------|-------------2-------------|-------------2-------------|
E|-0--0--0--0--0-------------|-0--0--0--0--0-------------|-0--0--0--0--0-------------|


E|---------------------------|---------------------------|---------------------------|
B|---------------------------|---------------------------|---------------------------|
G|---------------------------|---------------------------|---------------------------|
D|---------------------------|---------------------------|---------------------------|
A|-------------2-------------|-------------2-------------|-------------2-------------|
E|-0--0--0--0--0-------------|-0--0--0--0--0-------------|-0--0--0--0--0-------------|


E|-------------------------------------|---------------------------|---------------------------|
B|-------------------------------------|---------------------------|---------------------------|
G|-------------------------------------|---------------------------|---------------------------|
D|-4--4---3--3---2--2------------------|---------------------------|---------------------------|
A|-2--2---1--1---0--0---5--5---4---3---|-------------2-------------|-------------2-------------|
E|----------------------3--3---2---1---|-0--0--0--0--0-------------|-0--0--0--0--0-------------|


E|---------------------------|-------------------------------------------|---------------------------|
B|---------------------------|-------------------------------------------|---------------------------|
G|---------------------------|-------------------------------------------|---------------------------|
D|---------------------------|-----------------------------3---------3---|---------------------------|
A|-------------2-------------|-------------2---------------1---------1---|-------------2-------------|
E|-0--0--0--0--0-------------|-0--0--0--0--0---0--0--0--0------0--0------|-0--0--0--0--0-------------|


E|---------------------------|---------------------------|-------------------------------------|
B|---------------------------|---------------------------|-------------------------------------|
G|---------------------------|---------------------------|-------------------------------------|
D|---------------------------|---------------------------|-4--4---3--3---2--2------------------|
A|-------------2-------------|-------------2-------------|-2--2---1--1---0--0---5--5---4---3---|
E|-0--0--0--0--0-------------|-0--0--0--0--0-------------|----------------------3--3---2---1---|


E|--------|-------------|-----------------------------|-----------------------------|
B|--------|-------------|-----------------------------|-----------------------------|
G|--------|-------------|-----------------------------|-----------------------------|
D|-5------|-------7-----|--------------------12-12----|--------------------10-10----|
A|-3------|-5-----5-----|--------------------10-10----|--------------------8--8-----|
E|--------|-3-----------|-0--0--0--0--0---0-----------|-0--0--0--0--0---0-----------|


E|-----------------------------|-------------------------------------|--------|-------------|
B|-----------------------------|-------------------------------------|--------|-------------|
G|-----------------------------|-------------------------------------|--------|-------------|
D|--------------------12-12----|-4--4---3--3---2--2------------------|-5------|-------------|
A|--------------------10-10----|-2--2---1--1---0--0---5--5---4---3---|-3------|-5-----3-----|
E|-0--0--0--0--0---0-----------|----------------------3--3---2---1---|--------|-3-----1-----|


E|-----------------------------|-----------------------------|-----------------------------|
B|-----------------------------|-----------------------------|-----------------------------|
G|-----------------------------|-----------------------------|-----------------------------|
D|--------------------12-12----|--------------------10-10----|--------------------7--7-----|
A|--------------------10-10----|--------------------8--8-----|--------------------5--5-----|
E|-0--0--0--0--0---0-----------|-0--0--0--0--0---0-----------|-0--0--0--0--0---0-----------|


E|-------------------------------|-------------------------------------|-------------------------------------|
B|-------------------------------|-------------------------------------|-------------------------------------|
G|-------------------------------|-------------------------------------|-------------------------------------|
D|-------------------------------|--------9---7--9----------9---7--9---|--------9---7--9---------------------|
A|------5----7----9----10---12---|--------7---5--7----------7---5--7---|--------7---5--7----------5---7--5---|
E|-0----3----5----7----8----10---|-0---0-------------0---0-------------|-0---0-------------0---0--3---5--3---|


E|-------------------------------------|-------------------------------------|-----------------------------------------|
B|-------------------------------------|-------------------------------------|-----------------------------------------|
G|-------------------------------------|-------------------------------------|-----------------------------------------|
D|--------9---7--9----------9---7--9---|--------9---7--9---------------------|----------9---7--9------------9---7--9---|
A|--------7---5--7----------7---5--7---|--------7---5--7----------7---8--5---|----------7---5--7------------7---5--7---|
E|-0---0-------------0---0-------------|-0---0-------------0---0--5---6--3---|-0--0--0-------------0--0--0-------------|


E|-----------------------------------------|-----------------------------------------|
B|-----------------------------------------|-----------------------------------------|
G|-----------------------------------------|-----------------------------------------|
D|----------9---7--9-----------------------|----------9---7--9------------9---7--9---|
A|----------7---5--7------------5---7--5---|----------7---5--7------------7---5--7---|
E|-0--0--0-------------0--0--0--3---5--3---|-0--0--0-------------0--0--0-------------|


E|---------------------------------------------|------------------------|-------------|
B|---------------------------------------------|------------------------|-------------|
G|---------------------------------------------|------------------------|-------------|
D|----------9---7--9---4---4---4---5---5---5---|-6---6---6---7----------|-------------|
A|----------7---5--7---2---2---2---3---3---3---|-4---4---4---5----7-----|-------7-----|
E|-0--0--0-------------------------------------|------------------5-----|-------5-----|


E|-------------------------------|---------------------------|---------------------------|
B|-------------------------------|---------------------------|---------------------------|
G|-------------------------------|---------------------------|---------------------------|
D|-------------------------------|---------------------------|---------------------------|
A|------7----------------2-------|-------------------2-------|-------------------2-------|
E|------5----0--0--0--0--0-------|-------0--0--0--0--0-------|-------0--0--0--0--0-------|


E|---------------------------|---------------------------------------|---------------------------|
B|---------------------------|---------------------------------------|---------------------------|
G|---------------------------|---------------------------------------|---------------------------|
D|-------4--4---3--3---2--2--|---------------------------------------|---------------------------|
A|-------2--2---1--1---0--0--|----5--5---4---3---------------2-------|-------------------2-------|
E|---------------------------|----3--3---2---1---0--0--0--0--0-------|-------0--0--0--0--0-------|


E|---------------------------|---------------------------|---------------------------|
B|---------------------------|---------------------------|---------------------------|
G|---------------------------|---------------------------|---------------------------|
D|---------------------------|---------------------------|---------------------------|
A|-------------------2-------|-------------------2-------|-------------------2-------|
E|-------0--0--0--0--0-------|-------0--0--0--0--0-------|-------0--0--0--0--0-------|


E|---------------------------|---------------------------|---------------------------|
B|---------------------------|---------------------------|---------------------------|
G|---------------------------|---------------------------|---------------------------|
D|---------------------------|---------------------------|-------4--4---3--3---2--2--|
A|-------------------2-------|-------------------2-------|-------2--2---1--1---0--0--|
E|-------0--0--0--0--0-------|-------0--0--0--0--0-------|---------------------------|


E|---------------------------------------|---------------------------|---------------------------|
B|---------------------------------------|---------------------------|---------------------------|
G|---------------------------------------|---------------------------|---------------------------|
D|---------------------------------------|---------------------------|---------------------------|
A|----5--5---4---3---------------2-------|-------------------2-------|-------------------2-------|
E|----3--3---2---1---0--0--0--0--0-------|-------0--0--0--0--0-------|-------0--0--0--0--0-------|


E|-----------------------------|-----------------------------------------|---------------------------|
B|-----------------------------|-----------------------------------------|---------------------------|
G|-----------------------------|-----------------------------------------|---------------------------|
D|-----------------------------|-------3---------3-----------------------|---------------------------|
A|-------------------2---------|-------1---------1---------------2-------|-------------------2-------|
E|-------0--0--0--0--0---0--0--|-0--0------0--0------0--0--0--0--0-------|-------0--0--0--0--0-------|


E|---------------------------|---------------------------|-------------------------|
B|---------------------------|---------------------------|-------------------------|
G|---------------------------|---------------------------|-------------------------|
D|---------------------------|-------4--4---3--3---2--2--|-------------------5-----|
A|-------------------2-------|-------2--2---1--1---0--0--|----5--5---4---3---3-----|
E|-------0--0--0--0--0-------|---------------------------|----3--3---2---1---------|


E|-------------|-----------------------------|-----------------------------|-----------------------------|
B|-------------|-----------------------------|-----------------------------|-----------------------------|
G|-------------|-----------------------------|-----------------------------|-----------------------------|
D|-------------|-7------------------------12-|-12-----------------------10-|-10-----------------------12-|
A|-------5-----|-5------------------------10-|-10-----------------------8--|-8------------------------10-|
E|-------3-----|-------0--0--0--0--0---0-----|-------0--0--0--0--0---0-----|-------0--0--0--0--0---0-----|


E|---------------------------|-------------------------|-------------|-----------------------------|
B|---------------------------|-------------------------|-------------|-----------------------------|
G|---------------------------|-------------------------|-------------|-----------------------------|
D|-12----4--4---3--3---2--2--|-------------------5-----|-------------|--------------------------12-|
A|-10----2--2---1--1---0--0--|----5--5---4---3---3-----|-------5-----|-3------------------------10-|
E|---------------------------|----3--3---2---1---------|-------3-----|-1-----0--0--0--0--0---0-----|


E|-----------------------------|-----------------------------|----------------------|
B|-----------------------------|-----------------------------|----------------------|
G|-----------------------------|-----------------------------|----------------------|
D|-12-----------------------10-|-10-----------------------7--|-7--------------------|
A|-10-----------------------8--|-8------------------------5--|-5----------5----7----|
E|-------0--0--0--0--0---0-----|-------0--0--0--0--0---0-----|-------0----3----5----|


E|----------------------------------|-------------------------------------|-------------------------------------|
B|----------------------------------|-------------------------------------|-------------------------------------|
G|----------------------------------|-------------------------------------|-------------------------------------|
D|-----------------------9---7--9---|--------9---7--9----------9---7--9---|--------------------------9---7--9---|
A|-9----10---12----------7---5--7---|--------7---5--7----------7---5--7---|--------5---7--5----------7---5--7---|
E|-7----8----10---0---0-------------|-0---0-------------0---0-------------|-0---0--3---5--3---0---0-------------|


E|-------------------------------------|---------------------------------------|-----------------------------------------|
B|-------------------------------------|---------------------------------------|-----------------------------------------|
G|-------------------------------------|---------------------------------------|-----------------------------------------|
D|--------9---7--9----------9---7--9---|----------------------------9---7--9---|----------9---7--9------------9---7--9---|
A|--------7---5--7----------7---5--7---|--------7---8--5------------7---5--7---|----------7---5--7------------7---5--7---|
E|-0---0-------------0---0-------------|-0---0--5---6--3---0--0--0-------------|-0--0--0-------------0--0--0-------------|


E|-----------------------------------------|-----------------------------------------|
B|-----------------------------------------|-----------------------------------------|
G|-----------------------------------------|-----------------------------------------|
D|------------------------------9---7--9---|----------9---7--9------------9---7--9---|
A|----------5---7--5------------7---5--7---|----------7---5--7------------7---5--7---|
E|-0--0--0--3---5--3---0--0--0-------------|-0--0--0-------------0--0--0-------------|


E|------------------------------------------|--------|-------------|-------------|
B|------------------------------------------|--------|-------------|-------------|
G|------------------------------------------|--------|-------------|-------------|
D|-4---4---4---5---5---5---6---6---6---7----|--------|-------------|-------------|
A|-2---2---2---3---3---3---4---4---4---5----|-7------|-7-----------|-------------|
E|------------------------------------------|-5------|-5------3----|-3-----3-----|


E|-------------|-----------------------------|-----------------------------|-----------------------------|
B|-------------|-----------------------------|-----------------------------|-----------------------------|
G|-------------|-----------------------------|-----------------------------|-----------------------------|
D|-------------|-------------9---------------|-------------9---------------|-------------9---------------|
A|-------------|-------------7---------------|-------------7---------------|-------------7---------------|
E|-3-----3-----|-0--0--0--0------0--0--------|-0--0--0--0------0--0--------|-0--0--0--0------0--0--------|


E|-----------------------------|--------|--------|--------|--------|--------|--------|
B|-----------------------------|--------|--------|--------|--------|--------|--------|
G|-----------------------------|--------|--------|--------|--------|--------|--------|
D|-------------9---------------|-12-----|-10-----|-2------|-2------|-12-----|-10-----|
A|-------------7---------------|-10-----|-8------|-2------|-2------|-10-----|-8------|
E|-0--0--0--0------0--0--------|--------|--------|-0------|-0------|--------|--------|


E|--------|------------------------|------13-12-13-16-13-12-13-12----12-13-12-|-13-12----12------------------------------|
B|--------|------------------------|------------------------------15----------|-------15----15-13-12----13-12----12------|
G|-7------|-5----5----5----5---5---|------------------------------------------|----------------------14-------14----13---|
D|-7------|-5----5----5----5---5---|------------------------------------------|------------------------------------------|
A|-5------|------------------------|------------------------------------------|------------------------------------------|
E|--------|-0----0----0----0---0---|------------------------------------------|------------------------------------------|


E|-----------------------------|-----------------------|-------------------------------------------------------------------------|
B|-----------------------------|-----------------------|-------------------------------------------------------------------------|
G|-13-------9---9--------------|-9---10--9-------------|----------------------------------------------12-15-------------12-15-18-|
D|-----------------------9--10-|-----------------------|-------------------12-15-------------12-15-18-------19-12-15-18----------|
A|-----------------------------|-------------7-----7---|----------12-15-19-------19-12-15-18-------------------------------------|
E|------0------------0---------|-----------------------|-12-15-18----------------------------------------------------------------|


E|-------------------------------------12-15-18-15-12-------12-15-19-15-14-|-22-22-22-22-22-18----22-22-22-22-22-18----22-22-22-22-22-18----22-22-22-22-22-18----|
B|-12-15-18----------12-14-18-14-12-18----------------19-15----------------|-------------------20-------------------20-------------------20-------------------20-|
G|----------12-15-18-------------------------------------------------------|-------------------------------------------------------------------------------------|
D|-------------------------------------------------------------------------|-------------------------------------------------------------------------------------|
A|-------------------------------------------------------------------------|-------------------------------------------------------------------------------------|
E|-------------------------------------------------------------------------|-------------------------------------------------------------------------------------|


E|-21-21-21-21-18----21-21-21-21-18----21-21-21-21-18----21-21-21-21-18----|--------|
B|----------------20----------------20----------------20----------------20-|--------|
G|-------------------------------------------------------------------------|--------|
D|-------------------------------------------------------------------------|--------|
A|-------------------------------------------------------------------------|--------|
E|-------------------------------------------------------------------------|--------|


E|--------|--------|--------|--------|--------|--------|--------|--------|--------|
B|--------|--------|--------|--------|--------|--------|--------|--------|--------|
G|--------|--------|--------|--------|--------|--------|--------|--------|--------|
D|--------|--------|--------|--------|--------|--------|--------|--------|--------|
A|--------|--------|--------|--------|--------|--------|--------|--------|--------|
E|--------|--------|--------|--------|--------|--------|--------|--------|--------|


E|--------|--------|--------|--------|--------|--------|--------|--------|--------|
B|--------|--------|--------|--------|--------|--------|--------|--------|--------|
G|--------|--------|--------|--------|--------|--------|--------|--------|--------|
D|--------|--------|--------|--------|--------|--------|--------|--------|--------|
A|--------|--------|--------|--------|--------|--------|--------|--------|--------|
E|--------|--------|--------|--------|--------|--------|--------|--------|--------|


E|--------|--------|--------|--------|--------|--------|--------|--------|--------|
B|--------|--------|--------|--------|--------|--------|--------|--------|--------|
G|--------|--------|--------|--------|--------|--------|--------|--------|--------|
D|--------|--------|--------|--------|--------|--------|--------|--------|--------|
A|--------|--------|--------|--------|--------|--------|--------|--------|--------|
E|--------|--------|--------|--------|--------|--------|--------|--------|--------|


E|--------|--------|--------|--------|--------|--------|--------|--------|
B|--------|--------|--------|--------|--------|--------|--------|--------|
G|--------|--------|--------|--------|--------|--------|--------|--------|
D|--------|--------|--------|--------|--------|--------|--------|--------|
A|--------|--------|--------|--------|--------|--------|--------|--------|
E|--------|--------|--------|--------|--------|--------|--------|--------|





Track 2: Rex

G|--------|------------------------|------------------------|------------------------|
D|--------|------------------------|------------------------|------------------------|
A|--------|----------7----5---7----|----------7----5---7----|----------7----5---7----|
E|--------|-0----0-----------------|-0----0-----------------|-0----0-----------------|


G|------------------------|------------------------|------------------------|------------------------|
D|------------------------|------------------------|------------------------|------------------------|
A|------------------------|----------7----5---7----|----------7----5---7----|----------7----5---7----|
E|-0----0---3----5---3----|-0----0-----------------|-0----0-----------------|-0----0-----------------|


G|------------------------|---------------------------|---------------------------|
D|------------------------|---------------------------|---------------------------|
A|------------------------|-------------7----5---7----|-------------7----5---7----|
E|-0----0---5----6---3----|-0---0---0-----------------|-0---0---0-----------------|


G|---------------------------|---------------------------|---------------------------|
D|---------------------------|---------------------------|---------------------------|
A|-------------7----5---7----|---------------------------|-------------7----5---7----|
E|-0---0---0-----------------|-0---0---0---3----5---3----|-0---0---0-----------------|


G|---------------------------|---------------------------|------------------------|
D|---------------------------|---------------------------|------------------------|
A|-------------7----5---7----|-------------7----5---7----|------------------------|
E|-0---0---0-----------------|-0---0---0-----------------|-0----0---5----6---3----|


G|-------------------------------------|-------------------------------------|-------------------------------------|
D|-------------------------------------|-------------------------------------|-------------------------------------|
A|--------7---5--7----------7---5--7---|--------7---5--7---------------------|--------7---5--7----------7---5--7---|
E|-0---0-------------0---0-------------|-0---0-------------0---0--3---5--3---|-0---0-------------0---0-------------|


G|-------------------------------------|-------------------------------------|-------------------------------------|
D|-------------------------------------|-------------------------------------|-------------------------------------|
A|--------7---5--7---------------------|--------7---5--7----------7---5--7---|--------7---5--7---------------------|
E|-0---0-------------0---0--5---6--3---|-0---0-------------0---0-------------|-0---0-------------0---0--3---5--3---|


G|-------------------------------------|------------------------------------------|
D|-------------------------------------|------------------------------------------|
A|--------7---5--7----------7---5--7---|-2---2---2---3---3---3---4---4---4---5----|
E|-0---0-------------0---0-------------|------------------------------------------|


G|---------------------------|---------------------------|---------------------------|
D|---------------------------|---------------------------|---------------------------|
A|---------------------------|---------------------------|---------------------------|
E|-0--0--0--0--0-------------|-0--0--0--0--0-------------|-0--0--0--0--0-------------|


G|-------------------------------------|---------------------------|---------------------------|
D|-------------------------------------|---------------------------|---------------------------|
A|-2--2---1--1---0--0------------------|---------------------------|---------------------------|
E|----------------------3--3---2---1---|-0--0--0--0--0-------------|-0--0--0--0--0-------------|


G|---------------------------|---------------------------|---------------------------|
D|---------------------------|---------------------------|---------------------------|
A|---------------------------|---------------------------|---------------------------|
E|-0--0--0--0--0-------------|-0--0--0--0--0-------------|-0--0--0--0--0-------------|


G|---------------------------|---------------------------|-------------------------------------|
D|---------------------------|---------------------------|-------------------------------------|
A|---------------------------|---------------------------|-2--2---1--1---0--0------------------|
E|-0--0--0--0--0-------------|-0--0--0--0--0-------------|----------------------3--3---2---1---|


G|---------------------------|---------------------------|---------------------------|
D|---------------------------|---------------------------|---------------------------|
A|---------------------------|---------------------------|---------------------------|
E|-0--0--0--0--0-------------|-0--0--0--0--0-------------|-0--0--0--0--0-------------|


G|-------------------------------------------|---------------------------|---------------------------|
D|-------------------------------------------|---------------------------|---------------------------|
A|-----------------------------1---------1---|---------------------------|---------------------------|
E|-0--0--0--0--0---0--0--0--0------0--0------|-0--0--0--0--0-------------|-0--0--0--0--0-------------|


G|---------------------------|-------------------------------------|-----------------------|
D|---------------------------|-------------------------------------|-----------------------|
A|---------------------------|-2--2---1--1---0--0------------------|-3-----3---------------|
E|-0--0--0--0--0-------------|----------------------3--3---2---1---|-----------0---1---2---|


G|--------------------|-------------------------------|-------------------------------|
D|------2---1---0-----|-------------------------------|-------------------------------|
A|--------------------|--------------------------7----|--------------------------7----|
E|-3------------------|-0--0--0--0--0-----------------|-0--0--0--0--0-----------------|


G|-------------------------------|-------------------------------------|-----------------------|
D|-------------------------------|-------------------------------------|-----------------------|
A|--------------------------7----|-2--2---1--1---0--0------------------|-3-----3---------------|
E|-0--0--0--0--0-----------------|----------------------3--3---2---1---|-----------0---1---2---|


G|--------------------|-------------------------------|-------------------------------|
D|--------------------|-------------------------------|-------------------------------|
A|--------------------|--------------------------7----|----------------------13--13---|
E|-3----3---2---1-----|-0--0--0--0--0-----------------|-0--0--0--0--0-----------------|


G|-------------------------------|-------------------------------|-------------------------------------|
D|-------------------------------|--------------------------0----|-------------------------------------|
A|--------------------------7----|-----------0----2----3---------|--------7---5--7----------7---5--7---|
E|-0--0--0--0--0-----------------|-0----3------------------------|-0---0-------------0---0-------------|


G|-------------------------------------|-------------------------------------|-------------------------------------|
D|-------------------------------------|-------------------------------------|-------------------------------------|
A|--------7---5--7---------------------|--------7---5--7----------7---5--7---|--------7---5--7---------------------|
E|-0---0-------------0---0--3---5--3---|-0---0-------------0---0-------------|-0---0-------------0---0--5---6--3---|


G|-------------------------------------|-------------------------------------|-------------------------------------|
D|-------------------------------------|-------------------------------------|-------------------------------------|
A|--------7---5--7----------7---5--7---|--------7---5--7---------------------|--------7---5--7----------7---5--7---|
E|-0---0-------------0---0-------------|-0---0-------------0---0--3---5--3---|-0---0-------------0---0-------------|


G|-------------------------------------------|------------------------|-------------|
D|-------------------------------------------|------------------------|-------------|
A|--------7---5--7---2---2---2---3---3---3---|-4---4---4---5----------|-------------|
E|-0---0-------------------------------------|------------------5-----|-------5-----|


G|-------------------------------|---------------------------|---------------------------|
D|-------------------------------|---------------------------|---------------------------|
A|-------------------------------|---------------------------|---------------------------|
E|------5----0--0--0--0--0-------|-------0--0--0--0--0-------|-------0--0--0--0--0-------|


G|---------------------------|---------------------------------------|---------------------------|
D|---------------------------|---------------------------------------|---------------------------|
A|-------2--2---1--1---0--0--|---------------------------------------|---------------------------|
E|---------------------------|----3--3---2---1---0--0--0--0--0-------|-------0--0--0--0--0-------|


G|---------------------------|---------------------------|---------------------------|
D|---------------------------|---------------------------|---------------------------|
A|---------------------------|---------------------------|---------------------------|
E|-------0--0--0--0--0-------|-------0--0--0--0--0-------|-------0--0--0--0--0-------|


G|---------------------------|---------------------------|---------------------------|
D|---------------------------|---------------------------|---------------------------|
A|---------------------------|---------------------------|-------2--2---1--1---0--0--|
E|-------0--0--0--0--0-------|-------0--0--0--0--0-------|---------------------------|


G|---------------------------------------|---------------------------|---------------------------|
D|---------------------------------------|---------------------------|---------------------------|
A|---------------------------------------|---------------------------|---------------------------|
E|----3--3---2---1---0--0--0--0--0-------|-------0--0--0--0--0-------|-------0--0--0--0--0-------|


G|-----------------------------|-----------------------------------------|---------------------------|
D|-----------------------------|-----------------------------------------|---------------------------|
A|-----------------------------|-------1---------1-----------------------|---------------------------|
E|-------0--0--0--0--0---0--0--|-0--0------0--0------0--0--0--0--0-------|-------0--0--0--0--0-------|


G|---------------------------|---------------------------|-------------------------|
D|---------------------------|---------------------------|-------------------------|
A|---------------------------|-------2--2---1--1---0--0--|-------------------3-----|
E|-------0--0--0--0--0-------|---------------------------|----3--3---2---1---------|


G|------------------------------|---------------------------|-------------------------------|
D|----------------------2---1---|-0-------------------------|-------------------------------|
A|-3----------------------------|---------------------------|------7------------------------|
E|-----0---1---2---3------------|-------0--0--0--0--0-------|-----------0--0--0--0--0-------|


G|-------------------------------|-------------------------------|-------------------------|
D|-------------------------------|-------------------------------|-------------------------|
A|------7------------------------|------7----2--2---1--1---0--0--|-------------------3-----|
E|-----------0--0--0--0--0-------|-------------------------------|----3--3---2---1---------|


G|------------------------------|---------------------------|-------------------------------|
D|------------------------------|---------------------------|-------------------------------|
A|-3----------------------------|---------------------------|------7------------------------|
E|-----0---1---2---3----3---2---|-1-----0--0--0--0--0-------|-----------0--0--0--0--0-------|


G|----------------------------------|--------------------------|----------------------------------|
D|----------------------------------|--------------------------|-----------0----------------------|
A|-----13--13-----------------------|------7--------------0----|-2----3----------------7---5--7---|
E|--------------0--0--0--0--0-------|-----------0----3---------|----------------0---0-------------|


G|-------------------------------------|-------------------------------------|-------------------------------------|
D|-------------------------------------|-------------------------------------|-------------------------------------|
A|--------7---5--7----------7---5--7---|--------------------------7---5--7---|--------7---5--7----------7---5--7---|
E|-0---0-------------0---0-------------|-0---0--3---5--3---0---0-------------|-0---0-------------0---0-------------|


G|-------------------------------------|-------------------------------------|-------------------------------------|
D|-------------------------------------|-------------------------------------|-------------------------------------|
A|--------------------------7---5--7---|--------7---5--7----------7---5--7---|--------------------------7---5--7---|
E|-0---0--5---6--3---0---0-------------|-0---0-------------0---0-------------|-0---0--3---5--3---0---0-------------|


G|-------------------------------------|------------------------------------------|
D|-------------------------------------|------------------------------------------|
A|--------7---5--7----------7---5--7---|-2---2---2---3---3---3---4---4---4---5----|
E|-0---0-------------0---0-------------|------------------------------------------|


G|--------|--------|--------|-------------|-----------------------------|-----------------------------|
D|--------|--------|--------|-------------|-----------------------------|-----------------------------|
A|--------|--------|--------|-------------|-------------7---------------|-------------7---------------|
E|-5------|-5------|-5------|-5------5----|-0--0--0--0------0--0--------|-0--0--0--0------0--0--------|


G|-----------------------------|------------------------------------|-----------------------------|
D|-----------------------------|------------------------------------|-----------------------------|
A|-------------7---------------|-------------7-------------7---7----|-------------7---------------|
E|-0--0--0--0------0--0--------|-0--0--0--0------0--0---------------|-0--0--0--0------0--0--------|


G|----------------------------------------|-----------------------------|---------------------------------------|
D|----------------------------------------|-----------------------------|---------------------------------------|
A|-5--7--------7--------------------5--7--|-5--7--------7---------------|-5--7--------7-------------7---7-------|
E|-------0--0------0--0-------5--7--------|-------0--0------0--0--------|-------0--0------0--0--------------7---|


G|-------------------------|----------------------------------------|-----------------------------|
D|-------------------------|----------------------------------------|-----------------------------|
A|---------7---------------|-5--7--------7--------------------5--7--|-5--7--------7---------------|
E|-0---0-------0--0--------|-------0--0------0--0-------5--7--------|-------0--0------0--0--------|


G|----------------------------------|-----------------------------|---------------------------------------|
D|----------------------------------|-----------------------------|---------------------------------------|
A|-7----------7--7---7---------7----|-5--7--------7---------------|-5--7--------7---------------------5---|
E|-----0-----------------0--0-------|-------0--0------0--0--------|-------0--0------0--0----0---5--7------|


G|-----------------------------|---------------------------------------|-----------------------------|
D|-----------------------------|---------------------------------------|-----------------------------|
A|-5--7--------7---------------|-5--7--------7---------------------5---|-5--7--------7---------------|
E|-------0--0------0--0--------|-------0--0------0--0----0---5--7------|-------0--0------0--0--------|


G|---------------------------------------|-----------------------------|---------------------------------------|
D|---------------------------------------|-----------------------------|---------------------------------------|
A|-5--7--------7---------------------5---|-5--7--------7---------------|-5--7--------7---------------------5---|
E|-------0--0------0--0----0---5--7------|-------0--0------0--0--------|-------0--0------0--0----0---5--7------|


G|-----------------------|------------------------|---------------------------------------|
D|-----------------------|------2---1---0----0----|---------------------------------------|
A|-3-----3---------------|------------------------|-5--7--------7---------------------5---|
E|-----------0---1---2---|-3----------------------|-------0--0------0--0----0---5--7------|


G|----------------------------------|---------------------------------------|----------------------------------|
D|----------------------------------|---------------------------------------|----------------------7---8---9---|
A|-5--7--------7--------------------|-5--7--------7---------------------5---|-5--7------------7----------------|
E|-------0--0------0--0----0--------|-------0--0------0--0----0---5--7------|-------0--0--0--------------------|


G|-----------------------|------------------------|---------------------------------|
D|-----------------------|------------------------|---------------------------------|
A|-3-----3---------------|------------------------|-3---3---3---3---3---3---3---3---|
E|-----------0---1---2---|-3----3---2---1----1----|---------------------------------|


G|---------------------------------|---------------------------------|---------------------------------|
D|---------------------------------|---------------------------------|---------------------------------|
A|-4---4---4---4---4---4---4---4---|-5---5---5---5---5---5---5---5---|-6---6---6---6---6---6---6---6---|
E|---------------------------------|---------------------------------|---------------------------------|


G|-----------------------------------------|---------------------------------------|
D|-----------------------------------------|---------------------------------------|
A|-----------------------------------------|---------------------------------------|
E|-1--1--1---1--1--1---1--1--1---1--1--1---|-----1--1--1---1--1--1---1--1--1-------|


G|-----------------------------------------|---------------------------------------|
D|-----------------------------------------|---------------------------------------|
A|-----------------------------------------|---------------------------------------|
E|-1--1--1---1--1--1---1--1--1---1--1--1---|-----1--1--1---1--1--1---1--1--1-------|


G|-----------------------------------------|---------------------------------------|
D|-----------------------------------------|---------------------------------------|
A|-----------------------------------------|---------------------------------------|
E|-1--1--1---1--1--1---1--1--1---1--1--1---|-----1--1--1---1--1--1---1--1--1-------|


G|-----------------------------------------|---------------------------------------|
D|-----------------------------------------|---------------------------------------|
A|-----------------------------------------|---------------------------------------|
E|-1--1--1---1--1--1---1--1--1---1--1--1---|-----1--1--1---1--1--1---1--1--1-------|


G|-----------------------------------------|---------------------------------------|
D|-----------------------------------------|---------------------------------------|
A|-----------------------------------------|---------------------------------------|
E|-1--1--1---1--1--1---1--1--1---1--1--1---|-----1--1--1---1--1--1---1--1--1-------|


G|-----------------------------------------|---------------------------------------|
D|-----------------------------------------|---------------------------------------|
A|-----------------------------------------|---------------------------------------|
E|-1--1--1---1--1--1---1--1--1---1--1--1---|-----1--1--1---1--1--1---1--1--1-------|


G|-----------------------------------------|---------------------------------------|
D|-----------------------------------------|---------------------------------------|
A|-----------------------------------------|---------------------------------------|
E|-1--1--1---1--1--1---1--1--1---1--1--1---|-----1--1--1---1--1--1---1--1--1-------|


G|-----------------------------------------|---------------------------------------|
D|-----------------------------------------|---------------------------------------|
A|-----------------------------------------|---------------------------------------|
E|-1--1--1---1--1--1---1--1--1---1--1--1---|-----1--1--1---1--1--1---1--1--1-------|


G|-------------------------------------------------|---------------------------------------|
D|-------------------------------------------------|---------------------------------------|
A|-------------------------------------------------|---------------------------------------|
E|-2--2--2--2--2--2--2--2--2--2--2--2--2--2--2--2--|-----1--1--1---1--1--1---1--1--1-------|


G|-------------------------------------------------|---------------------------------------|
D|-------------------------------------------------|---------------------------------------|
A|-------------------------------------------------|---------------------------------------|
E|-2--2--2--2--2--2--2--2--2--2--2--2--2--2--2--2--|-----1--1--1---1--1--1---1--1--1-------|


G|-------------------------------------------------|---------------------------------------|
D|-------------------------------------------------|---------------------------------------|
A|-------------------------------------------------|---------------------------------------|
E|-2--2--2--2--2--2--2--2--2--2--2--2--2--2--2--2--|-----1--1--1---1--1--1---1--1--1-------|


G|-------------------------------------------------|---------------------------------------|
D|-------------------------------------------------|---------------------------------------|
A|-------------------------------------------------|---------------------------------------|
E|-2--2--2--2--2--2--2--2--2--2--2--2--2--2--2--2--|-----1--1--1---1--1--1---1--1--1-------|





Track 3: Harmony Guitar I

E|--------|--------|--------|--------|--------|--------|--------|--------|--------|
B|--------|--------|--------|--------|--------|--------|--------|--------|--------|
G|--------|--------|--------|--------|--------|--------|--------|--------|--------|
D|--------|--------|--------|--------|--------|--------|--------|--------|--------|
A|--------|--------|--------|--------|--------|--------|--------|--------|--------|
E|--------|--------|--------|--------|--------|--------|--------|--------|--------|


E|--------|--------|--------|--------|--------|--------|--------|--------|--------|
B|--------|--------|--------|--------|--------|--------|--------|--------|--------|
G|--------|--------|--------|--------|--------|--------|--------|--------|--------|
D|--------|--------|--------|--------|--------|--------|--------|--------|--------|
A|--------|--------|--------|--------|--------|--------|--------|--------|--------|
E|--------|--------|--------|--------|--------|--------|--------|--------|--------|


E|--------|--------|--------|--------|--------|--------|--------|--------|--------|
B|--------|--------|--------|--------|--------|--------|--------|--------|--------|
G|--------|--------|--------|--------|--------|--------|--------|--------|--------|
D|--------|--------|--------|--------|--------|--------|--------|--------|--------|
A|--------|--------|--------|--------|--------|--------|--------|--------|--------|
E|--------|--------|--------|--------|--------|--------|--------|--------|--------|


E|--------|--------|--------|--------|--------|--------|--------|--------|--------|
B|--------|--------|--------|--------|--------|--------|--------|--------|--------|
G|--------|--------|--------|--------|--------|--------|--------|--------|--------|
D|--------|--------|--------|--------|--------|--------|--------|--------|--------|
A|--------|--------|--------|--------|--------|--------|--------|--------|--------|
E|--------|--------|--------|--------|--------|--------|--------|--------|--------|


E|--------|--------|--------|--------|--------|--------|--------|--------|--------|
B|--------|--------|--------|--------|--------|--------|--------|--------|--------|
G|--------|--------|--------|--------|--------|--------|--------|--------|--------|
D|--------|--------|--------|--------|--------|--------|--------|--------|--------|
A|--------|--------|--------|--------|--------|--------|--------|--------|--------|
E|--------|--------|--------|--------|--------|--------|--------|--------|--------|


E|--------|--------|--------|--------|--------|--------|--------|--------|--------|
B|--------|--------|--------|--------|--------|--------|--------|--------|--------|
G|--------|--------|--------|--------|--------|--------|--------|--------|--------|
D|--------|--------|--------|--------|--------|--------|--------|--------|--------|
A|--------|--------|--------|--------|--------|--------|--------|--------|--------|
E|--------|--------|--------|--------|--------|--------|--------|--------|--------|


E|--------|--------|--------|--------|--------|--------|--------|--------|--------|
B|--------|--------|--------|--------|--------|--------|--------|--------|--------|
G|--------|--------|--------|--------|--------|--------|--------|--------|--------|
D|--------|--------|--------|--------|--------|--------|--------|--------|--------|
A|--------|--------|--------|--------|--------|--------|--------|--------|--------|
E|--------|--------|--------|--------|--------|--------|--------|--------|--------|


E|--------|--------|--------|--------|--------|--------|--------|--------|--------|
B|--------|--------|--------|--------|--------|--------|--------|--------|--------|
G|--------|--------|--------|--------|--------|--------|--------|--------|--------|
D|--------|--------|--------|--------|--------|--------|--------|--------|--------|
A|--------|--------|--------|--------|--------|--------|--------|--------|--------|
E|--------|--------|--------|--------|--------|--------|--------|--------|--------|


E|--------|--------|--------|--------|--------|--------|--------|--------|--------|
B|--------|--------|--------|--------|--------|--------|--------|--------|--------|
G|--------|--------|--------|--------|--------|--------|--------|--------|--------|
D|--------|--------|--------|--------|--------|--------|--------|--------|--------|
A|--------|--------|--------|--------|--------|--------|--------|--------|--------|
E|--------|--------|--------|--------|--------|--------|--------|--------|--------|


E|--------|--------|--------|--------|--------|--------|--------|--------|--------|
B|--------|--------|--------|--------|--------|--------|--------|--------|--------|
G|--------|--------|--------|--------|--------|--------|--------|--------|--------|
D|--------|--------|--------|--------|--------|--------|--------|--------|--------|
A|--------|--------|--------|--------|--------|--------|--------|--------|--------|
E|--------|--------|--------|--------|--------|--------|--------|--------|--------|


E|--------|--------|--------|--------|--------|--------|--------|--------|--------|
B|--------|--------|--------|--------|--------|--------|--------|--------|--------|
G|--------|--------|--------|--------|--------|--------|--------|--------|--------|
D|--------|--------|--------|--------|--------|--------|--------|--------|--------|
A|--------|--------|--------|--------|--------|--------|--------|--------|--------|
E|--------|--------|--------|--------|--------|--------|--------|--------|--------|


E|--------|--------|--------|--------|--------|--------|--------|--------|--------|
B|--------|--------|--------|--------|--------|--------|--------|--------|--------|
G|--------|--------|--------|--------|--------|--------|--------|--------|--------|
D|--------|--------|--------|--------|--------|--------|--------|--------|--------|
A|--------|--------|--------|--------|--------|--------|--------|--------|--------|
E|--------|--------|--------|--------|--------|--------|--------|--------|--------|


E|--------|--------|--------|--------|--------|--------|--------|--------|--------|
B|--------|--------|--------|--------|--------|--------|--------|--------|--------|
G|--------|--------|--------|--------|--------|--------|--------|--------|--------|
D|--------|--------|--------|--------|--------|--------|--------|--------|--------|
A|--------|--------|--------|--------|--------|--------|--------|--------|--------|
E|--------|--------|--------|--------|--------|--------|--------|--------|--------|


E|--------|--------|--------|--------|--------|--------|--------|--------|--------|
B|--------|--------|--------|--------|--------|--------|--------|--------|--------|
G|--------|--------|--------|--------|--------|--------|--------|--------|--------|
D|--------|--------|--------|--------|--------|--------|--------|--------|--------|
A|--------|--------|--------|--------|--------|--------|--------|--------|--------|
E|--------|--------|--------|--------|--------|--------|--------|--------|--------|


E|--------|--------|--------|--------|--------|--------|-22--22--22---22---22--22--|
B|--------|--------|--------|--------|--------|--------|---------------------------|
G|--------|--------|--------|--------|--------|--------|---------------------------|
D|--------|--------|--------|--------|--------|--------|---------------------------|
A|--------|--------|--------|--------|--------|--------|---------------------------|
E|--------|--------|--------|--------|--------|--------|---------------------------|


E|-22-----|-19--20--17--19--15--17--14--15--12--12---|-14--15------14--15-------------------|
B|--------|------------------------------------------|---------17----------17--17---17--17--|
G|--------|------------------------------------------|--------------------------------------|
D|--------|------------------------------------------|--------------------------------------|
A|--------|------------------------------------------|--------------------------------------|
E|--------|------------------------------------------|--------------------------------------|


E|-17--16--15--14--15-14-13-14-13-12----12-|-12---12--10--12----|-----------------------|
B|-----------------------------------15----|--------------------|-----------------------|
G|-----------------------------------------|--------------------|-----------------------|
D|-----------------------------------------|--------------------|-5-----5---5---5---5---|
A|-----------------------------------------|--------------------|-----------------------|
E|-----------------------------------------|--------------------|-----------------------|


E|-----------------|-------------------------------------------------------------------------|
B|-----------------|-------------------------------------------------------------------------|
G|-----------------|-------------------------------------------------------------------------|
D|-5----5----------|-------------------------------------------------------10-12-14-10-12-14-|
A|-----------3-----|-------------------9--10-12-9--10-12-10-12-14-10-12-14-------------------|
E|-----------------|-10-12-14-10-12-14-------------------------------------------------------|


E|-------------------------------------------------------------------------|-------------------15-17-19-15-17-19-17-19-20-17-19-20-19-20-22-19-20-22-|
B|-------------------------------------12-13-15-12-13-15-14-15-17-15-16-18-|-15-17-19-15-17-19-------------------------------------------------------|
G|-11-12-14-11-12-14-12-13-15-12-13-15-------------------------------------|-------------------------------------------------------------------------|
D|-------------------------------------------------------------------------|-------------------------------------------------------------------------|
A|-------------------------------------------------------------------------|-------------------------------------------------------------------------|
E|-------------------------------------------------------------------------|-------------------------------------------------------------------------|


E|-22--22--22--22--22--22--22--22--|-----------------------------------------|---------------------------------------|
B|-----------------22--22--22--22--|-----------------------------------------|---------------------------------------|
G|---------------------------------|-----------------------------------------|---------------------------------------|
D|---------------------------------|-----------------------------------------|---------------------------------------|
A|---------------------------------|-3--3--3---3--3--3---3--3--3---3--3--3---|-----3--3--3---3--3--3---3--3--3-------|
E|---------------------------------|-1--1--1---1--1--1---1--1--1---1--1--1---|-----1--1--1---1--1--1---1--1--1-------|


E|-----------------------------------------|---------------------------------------|
B|-----------------------------------------|---------------------------------------|
G|-----------------------------------------|---------------------------------------|
D|-----------------------------------------|---------------------------------------|
A|-3--3--3---3--3--3---3--3--3---3--3--3---|-----3--3--3---3--3--3---3--3--3-------|
E|-1--1--1---1--1--1---1--1--1---1--1--1---|-----1--1--1---1--1--1---1--1--1-------|


E|-----------------------------------------|---------------------------------------|
B|-----------------------------------------|---------------------------------------|
G|-----------------------------------------|---------------------------------------|
D|-----------------------------------------|---------------------------------------|
A|-3--3--3---3--3--3---3--3--3---3--3--3---|-----3--3--3---3--3--3---3--3--3-------|
E|-1--1--1---1--1--1---1--1--1---1--1--1---|-----1--1--1---1--1--1---1--1--1-------|


E|-----------------------------------------|---------------------------------------|
B|-----------------------------------------|---------------------------------------|
G|-----------------------------------------|---------------------------------------|
D|-----------------------------------------|---------------------------------------|
A|-3--3--3---3--3--3---3--3--3---3--3--3---|-----3--3--3---3--3--3---3--3--3-------|
E|-1--1--1---1--1--1---1--1--1---1--1--1---|-----1--1--1---1--1--1---1--1--1-------|


E|-2016151620161516201615162016151620161516201615162016151620161516|-1916151619161516191615161916151619161516191615161916151619161516|
B|-----------------------------------------------------------------|-----------------------------------------------------------------|
G|-----------------------------------------------------------------|-----------------------------------------------------------------|
D|-----------------------------------------------------------------|-----------------------------------------------------------------|
A|-----------------------------------------------------------------|-----------------------------------------------------------------|
E|-----------------------------------------------------------------|-----------------------------------------------------------------|


E|-2016151620161516201615162016151620161516201615162016151620161516|-1916151619161516191615161916151619161516191615161916151619161516|
B|-----------------------------------------------------------------|-----------------------------------------------------------------|
G|-----------------------------------------------------------------|-----------------------------------------------------------------|
D|-----------------------------------------------------------------|-----------------------------------------------------------------|
A|-----------------------------------------------------------------|-----------------------------------------------------------------|
E|-----------------------------------------------------------------|-----------------------------------------------------------------|


E|-2016151620161516201615162016151620161516201615162016151620161516|-1916151619161516191615161916151619161516191615161916151619161516|
B|-----------------------------------------------------------------|-----------------------------------------------------------------|
G|-----------------------------------------------------------------|-----------------------------------------------------------------|
D|-----------------------------------------------------------------|-----------------------------------------------------------------|
A|-----------------------------------------------------------------|-----------------------------------------------------------------|
E|-----------------------------------------------------------------|-----------------------------------------------------------------|


E|-2016151620161516201615162016151620161516201615162016151620161516|-1916151619161516191615161916151619161516191615161916151619161516|
B|-----------------------------------------------------------------|-----------------------------------------------------------------|
G|-----------------------------------------------------------------|-----------------------------------------------------------------|
D|-----------------------------------------------------------------|-----------------------------------------------------------------|
A|-----------------------------------------------------------------|-----------------------------------------------------------------|
E|-----------------------------------------------------------------|-----------------------------------------------------------------|


E|-----------------------------------------|---------------------------------------|
B|-----------------------------------------|---------------------------------------|
G|-----------------------------------------|---------------------------------------|
D|-----------------------------------------|---------------------------------------|
A|-4--4------4--4------4--4------4--4------|-----3--3--3---3--3--3---3--3--3-------|
E|-2--2------2--2------2--2------2--2------|-----1--1--1---1--1--1---1--1--1-------|


E|-----------------------------------------|---------------------------------------|
B|-----------------------------------------|---------------------------------------|
G|-----------------------------------------|---------------------------------------|
D|-----------------------------------------|---------------------------------------|
A|-4--4------4--4------4--4------4--4------|-----3--3--3---3--3--3---3--3--3-------|
E|-2--2------2--2------2--2------2--2------|-----1--1--1---1--1--1---1--1--1-------|


E|-----------------------------------------|---------------------------------------|
B|-----------------------------------------|---------------------------------------|
G|-----------------------------------------|---------------------------------------|
D|-----------------------------------------|---------------------------------------|
A|-4--4------4--4------4--4------4--4------|-----3--3--3---3--3--3---3--3--3-------|
E|-2--2------2--2------2--2------2--2------|-----1--1--1---1--1--1---1--1--1-------|


E|-----------------------------------------|---------------------------------------|
B|-----------------------------------------|---------------------------------------|
G|-----------------------------------------|---------------------------------------|
D|-----------------------------------------|---------------------------------------|
A|-4--4------4--4------4--4------4--4------|-----3--3--3---3--3--3---3--3--3-------|
E|-2--2------2--2------2--2------2--2------|-----1--1--1---1--1--1---1--1--1-------|





Track 4: Harmony Guitar II

E|--------|--------|--------|--------|--------|--------|--------|--------|--------|
B|--------|--------|--------|--------|--------|--------|--------|--------|--------|
G|--------|--------|--------|--------|--------|--------|--------|--------|--------|
D|--------|--------|--------|--------|--------|--------|--------|--------|--------|
A|--------|--------|--------|--------|--------|--------|--------|--------|--------|
E|--------|--------|--------|--------|--------|--------|--------|--------|--------|


E|--------|--------|--------|--------|--------|--------|--------|--------|--------|
B|--------|--------|--------|--------|--------|--------|--------|--------|--------|
G|--------|--------|--------|--------|--------|--------|--------|--------|--------|
D|--------|--------|--------|--------|--------|--------|--------|--------|--------|
A|--------|--------|--------|--------|--------|--------|--------|--------|--------|
E|--------|--------|--------|--------|--------|--------|--------|--------|--------|


E|--------|--------|--------|--------|--------|--------|--------|--------|--------|
B|--------|--------|--------|--------|--------|--------|--------|--------|--------|
G|--------|--------|--------|--------|--------|--------|--------|--------|--------|
D|--------|--------|--------|--------|--------|--------|--------|--------|--------|
A|--------|--------|--------|--------|--------|--------|--------|--------|--------|
E|--------|--------|--------|--------|--------|--------|--------|--------|--------|


E|--------|--------|--------|--------|--------|--------|--------|--------|--------|
B|--------|--------|--------|--------|--------|--------|--------|--------|--------|
G|--------|--------|--------|--------|--------|--------|--------|--------|--------|
D|--------|--------|--------|--------|--------|--------|--------|--------|--------|
A|--------|--------|--------|--------|--------|--------|--------|--------|--------|
E|--------|--------|--------|--------|--------|--------|--------|--------|--------|


E|--------|--------|--------|--------|--------|--------|--------|--------|--------|
B|--------|--------|--------|--------|--------|--------|--------|--------|--------|
G|--------|--------|--------|--------|--------|--------|--------|--------|--------|
D|--------|--------|--------|--------|--------|--------|--------|--------|--------|
A|--------|--------|--------|--------|--------|--------|--------|--------|--------|
E|--------|--------|--------|--------|--------|--------|--------|--------|--------|


E|--------|--------|--------|--------|--------|--------|--------|--------|--------|
B|--------|--------|--------|--------|--------|--------|--------|--------|--------|
G|--------|--------|--------|--------|--------|--------|--------|--------|--------|
D|--------|--------|--------|--------|--------|--------|--------|--------|--------|
A|--------|--------|--------|--------|--------|--------|--------|--------|--------|
E|--------|--------|--------|--------|--------|--------|--------|--------|--------|


E|--------|--------|--------|--------|--------|--------|--------|--------|--------|
B|--------|--------|--------|--------|--------|--------|--------|--------|--------|
G|--------|--------|--------|--------|--------|--------|--------|--------|--------|
D|--------|--------|--------|--------|--------|--------|--------|--------|--------|
A|--------|--------|--------|--------|--------|--------|--------|--------|--------|
E|--------|--------|--------|--------|--------|--------|--------|--------|--------|


E|--------|--------|--------|--------|--------|--------|--------|--------|--------|
B|--------|--------|--------|--------|--------|--------|--------|--------|--------|
G|--------|--------|--------|--------|--------|--------|--------|--------|--------|
D|--------|--------|--------|--------|--------|--------|--------|--------|--------|
A|--------|--------|--------|--------|--------|--------|--------|--------|--------|
E|--------|--------|--------|--------|--------|--------|--------|--------|--------|


E|--------|--------|--------|--------|--------|--------|--------|--------|--------|
B|--------|--------|--------|--------|--------|--------|--------|--------|--------|
G|--------|--------|--------|--------|--------|--------|--------|--------|--------|
D|--------|--------|--------|--------|--------|--------|--------|--------|--------|
A|--------|--------|--------|--------|--------|--------|--------|--------|--------|
E|--------|--------|--------|--------|--------|--------|--------|--------|--------|


E|--------|--------|--------|--------|--------|--------|--------|--------|--------|
B|--------|--------|--------|--------|--------|--------|--------|--------|--------|
G|--------|--------|--------|--------|--------|--------|--------|--------|--------|
D|--------|--------|--------|--------|--------|--------|--------|--------|--------|
A|--------|--------|--------|--------|--------|--------|--------|--------|--------|
E|--------|--------|--------|--------|--------|--------|--------|--------|--------|


E|--------|--------|--------|--------|--------|--------|--------|--------|--------|
B|--------|--------|--------|--------|--------|--------|--------|--------|--------|
G|--------|--------|--------|--------|--------|--------|--------|--------|--------|
D|--------|--------|--------|--------|--------|--------|--------|--------|--------|
A|--------|--------|--------|--------|--------|--------|--------|--------|--------|
E|--------|--------|--------|--------|--------|--------|--------|--------|--------|


E|--------|--------|--------|--------|--------|--------|--------|--------|--------|
B|--------|--------|--------|--------|--------|--------|--------|--------|--------|
G|--------|--------|--------|--------|--------|--------|--------|--------|--------|
D|--------|--------|--------|--------|--------|--------|--------|--------|--------|
A|--------|--------|--------|--------|--------|--------|--------|--------|--------|
E|--------|--------|--------|--------|--------|--------|--------|--------|--------|


E|--------|--------|--------|--------|--------|--------|--------|--------|--------|
B|--------|--------|--------|--------|--------|--------|--------|--------|--------|
G|--------|--------|--------|--------|--------|--------|--------|--------|--------|
D|--------|--------|--------|--------|--------|--------|--------|--------|--------|
A|--------|--------|--------|--------|--------|--------|--------|--------|--------|
E|--------|--------|--------|--------|--------|--------|--------|--------|--------|


E|--------|--------|--------|--------|--------|--------|--------|--------|--------|
B|--------|--------|--------|--------|--------|--------|--------|--------|--------|
G|--------|--------|--------|--------|--------|--------|--------|--------|--------|
D|--------|--------|--------|--------|--------|--------|--------|--------|--------|
A|--------|--------|--------|--------|--------|--------|--------|--------|--------|
E|--------|--------|--------|--------|--------|--------|--------|--------|--------|


E|--------|--------|--------|--------|--------|--------|---------------------------|
B|--------|--------|--------|--------|--------|--------|-22--22--22---22---22--22--|
G|--------|--------|--------|--------|--------|--------|---------------------------|
D|--------|--------|--------|--------|--------|--------|---------------------------|
A|--------|--------|--------|--------|--------|--------|---------------------------|
E|--------|--------|--------|--------|--------|--------|---------------------------|


E|--------|------------------------------------------|--------------------------------------|
B|-22-----|-19--20--17--19--15--17--13--15--12--12---|-13--15------13--15-------------------|
G|--------|------------------------------------------|---------16----------16--16---16--16--|
D|--------|------------------------------------------|--------------------------------------|
A|--------|------------------------------------------|--------------------------------------|
E|--------|------------------------------------------|--------------------------------------|


E|--------------------------------------12-|-12---12--10--12----|--------|-------------|
B|-17--16--15--13--15-13-12-13-12----------|--------------------|--------|-------------|
G|--------------------------------14-12----|--------------------|--------|-------------|
D|-----------------------------------------|--------------------|-5------|-------3-----|
A|-----------------------------------------|--------------------|-3------|-5-----3-----|
E|-----------------------------------------|--------------------|--------|-3-----------|


E|---------------------------------|---------------------------------|---------------------------------|
B|---------------------------------|---------------------------------|---------------------------------|
G|---------------------------------|---------------------------------|---------------------------------|
D|-5---5---5---5---5---5---5---5---|-6---6---6---6---6---6---6---6---|-7---7---7---7---7---7---7---7---|
A|-3---3---3---3---3---3---3---3---|-4---4---4---4---4---4---4---4---|-5---5---5---5---5---5---5---5---|
E|---------------------------------|---------------------------------|---------------------------------|


E|---------------------------------|-----------------------------------------|---------------------------------------|
B|---------------------------------|-----------------------------------------|---------------------------------------|
G|---------------------------------|-----------------------------------------|---------------------------------------|
D|-8---8---8---8---8---8---8---8---|-----------------------------------------|---------------------------------------|
A|-6---6---6---6---6---6---6---6---|-3--3--3---3--3--3---3--3--3---3--3--3---|-----3--3--3---3--3--3---3--3--3-------|
E|---------------------------------|-1--1--1---1--1--1---1--1--1---1--1--1---|-----1--1--1---1--1--1---1--1--1-------|


E|-----------------------------------------|---------------------------------------|
B|-----------------------------------------|---------------------------------------|
G|-----------------------------------------|---------------------------------------|
D|-----------------------------------------|---------------------------------------|
A|-3--3--3---3--3--3---3--3--3---3--3--3---|-----3--3--3---3--3--3---3--3--3-------|
E|-1--1--1---1--1--1---1--1--1---1--1--1---|-----1--1--1---1--1--1---1--1--1-------|


E|-----------------------------------------|---------------------------------------|
B|-----------------------------------------|---------------------------------------|
G|-----------------------------------------|---------------------------------------|
D|-----------------------------------------|---------------------------------------|
A|-3--3--3---3--3--3---3--3--3---3--3--3---|-----3--3--3---3--3--3---3--3--3-------|
E|-1--1--1---1--1--1---1--1--1---1--1--1---|-----1--1--1---1--1--1---1--1--1-------|


E|-----------------------------------------|---------------------------------------|
B|-----------------------------------------|---------------------------------------|
G|-----------------------------------------|---------------------------------------|
D|-----------------------------------------|---------------------------------------|
A|-3--3--3---3--3--3---3--3--3---3--3--3---|-----3--3--3---3--3--3---3--3--3-------|
E|-1--1--1---1--1--1---1--1--1---1--1--1---|-----1--1--1---1--1--1---1--1--1-------|


E|-----------------------------------------------------------------|-----------------------------------------------------------------|
B|-2118171821181718211817182118171821181718211817182118171821181718|-2118171821181718211817182118171821181718211817182118171821181718|
G|-----------------------------------------------------------------|-----------------------------------------------------------------|
D|-----------------------------------------------------------------|-----------------------------------------------------------------|
A|-----------------------------------------------------------------|-----------------------------------------------------------------|
E|-----------------------------------------------------------------|-----------------------------------------------------------------|


E|-----------------------------------------------------------------|-----------------------------------------------------------------|
B|-2118171821181718211817182118171821181718211817182118171821181718|-2118171821181718211817182118171821181718211817182118171821181718|
G|-----------------------------------------------------------------|-----------------------------------------------------------------|
D|-----------------------------------------------------------------|-----------------------------------------------------------------|
A|-----------------------------------------------------------------|-----------------------------------------------------------------|
E|-----------------------------------------------------------------|-----------------------------------------------------------------|


E|-----------------------------------------------------------------|-----------------------------------------------------------------|
B|-2118171821181718211817182118171821181718211817182118171821181718|-2118171821181718211817182118171821181718211817182118171821181718|
G|-----------------------------------------------------------------|-----------------------------------------------------------------|
D|-----------------------------------------------------------------|-----------------------------------------------------------------|
A|-----------------------------------------------------------------|-----------------------------------------------------------------|
E|-----------------------------------------------------------------|-----------------------------------------------------------------|


E|-----------------------------------------------------------------|-----------------------------------------------------------------|
B|-2118171821181718211817182118171821181718211817182118171821181718|-2118171821181718211817182118171821181718211817182118171821181718|
G|-----------------------------------------------------------------|-----------------------------------------------------------------|
D|-----------------------------------------------------------------|-----------------------------------------------------------------|
A|-----------------------------------------------------------------|-----------------------------------------------------------------|
E|-----------------------------------------------------------------|-----------------------------------------------------------------|


E|-----------------------------------------|---------------------------------------|
B|-----------------------------------------|---------------------------------------|
G|-----------------------------------------|---------------------------------------|
D|-----------------------------------------|---------------------------------------|
A|-----4--4------4--4------4--4------4--4--|-----3--3--3---3--3--3---3--3--3-------|
E|-----2--2------2--2------2--2------2--2--|-----1--1--1---1--1--1---1--1--1-------|


E|-----------------------------------------|---------------------------------------|
B|-----------------------------------------|---------------------------------------|
G|-----------------------------------------|---------------------------------------|
D|-----------------------------------------|---------------------------------------|
A|-----4--4------4--4------4--4------4--5--|-----3--3------3--3------3--3--3-------|
E|-----2--2------2--2------2--2------2--3--|-----1--1------1--1------1--1--1-------|


E|-----------------------------------------|---------------------------------------|
B|-----------------------------------------|---------------------------------------|
G|-----------------------------------------|---------------------------------------|
D|-----------------------------------------|---------------------------------------|
A|-----4--4------4--4------4--4------4--4--|-----3--3--3---3--3--3---3--3--3-------|
E|-----2--2------2--2------2--2------2--2--|-----1--1--1---1--1--1---1--1--1-------|


E|-----------------------------------------|---------------------------------------|
B|-----------------------------------------|---------------------------------------|
G|-----------------------------------------|---------------------------------------|
D|-----------------------------------------|---------------------------------------|
A|-----4--4------4--4------4--4------4--5--|-----3--3------3--3------3--3--3-------|
E|-----2--2------2--2------2--2------2--3--|-----1--1------1--1------1--1--1-------|





Track 5: Vinny

G|--------|------12-----------12---|---------12-----------12---|---------12-----------12---|
D|--------|------------------------|---------------------------|---------------------------|
A|--------|------------------------|---------------------------|---------------------------|
E|--------|-17-------17---17-------|-17--17------17---17-------|-17--17------17---17-------|


G|---------12-----------12---|---------12-----------12---|---------12-----------12---|
D|---------------------------|---------------------------|---------------------------|
A|---------------------------|---------------------------|---------------------------|
E|-17--17------17---17-------|-17--17------17---17-------|-17--17------17---17-------|


G|---------12-----------12---|------12-----------12---|---------12--------------12------|
D|---------------------------|------------------------|---------------------------------|
A|---------------------------|------------------------|---------------------------------|
E|-17--17------17---17-------|-7--------17---17-------|-17--17------17--17--17------17--|


G|---------12--------------12------|---------12--------------12------|---------12--------------12------|
D|---------------------------------|---------------------------------|---------------------------------|
A|---------------------------------|---------------------------------|---------------------------------|
E|-17--17------17--17--17------17--|-17--17------17--17--17------17--|-17--17------17--17--17------17--|


G|---------12--------------12------|---------12--------------12------|---------12--------------12------|
D|---------------------------------|---------------------------------|---------------------------------|
A|---------------------------------|---------------------------------|---------------------------------|
E|-17--17------17--17--17------17--|-17--17------17--17--17------17--|-17--17------17--17--17------17--|


G|-12--12--12--12--12--12--12--12--|-------------12----------------------12----------|
D|---------------------------------|-------------------------------------------------|
A|---------------------------------|-------------------------------------------------|
E|---------------------------------|-17-17-17-17----17-17-17-17-17-17-17----17-17-17-|


G|-------------12----------------------12----------|-------------12----------------------12----------|
D|-------------------------------------------------|-------------------------------------------------|
A|-------------------------------------------------|-------------------------------------------------|
E|-17-17-17-17----17-17-17-17-17-17-17----17-17-17-|-15-15-15-15----15-15-15-15-15-15-15----15-15-15-|


G|-------------12----------------------12----------|-------------12----------------------12----------|
D|-------------------------------------------------|-------------------------------------------------|
A|-------------------------------------------------|-------------------------------------------------|
E|-15-15-15-15----15-15-15-15-15-15-15----15-15-15-|-15-15-15-15----15-15-15-15-15-15-15----15-15-15-|


G|-------------12----------------------12----------|-------------12----------------------12----------|
D|-------------------------------------------------|-------------------------------------------------|
A|-------------------------------------------------|-------------------------------------------------|
E|-15-15-15-15----15-15-15-15-15-15-15----15-15-15-|-15-15-15-15----15-15-15-15-15-15-15----15-15-15-|


G|-12----------12----------12---------------|-------------12--------12------|-------------12--------12------|
D|------------------------------------------|-------------------------------|-------------------------------|
A|------------------------------------------|-------------------------------|-------------------------------|
E|-----15--15------15--15------15--15-------|-17-17-17-17-------------------|-17-17-17-17-------------------|


G|-------------12--------12-----------|-12--------------|-------------12--------12------|
D|------------------------------------|-----------------|-------------------------------|
A|------------------------------------|-----------------|-------------------------------|
E|-17-17-17-17---------------17-17-17-|-----------------|-17-17-17-17-------------------|


G|-------------12--------12------|-------------12--------12------|-------------12--------------12----------12----|
D|-------------------------------|-------------------------------|-----------------------------------------------|
A|-------------------------------|-------------------------------|-----------------------------------------------|
E|-17-17-17-17-------------------|-17-17-17-17-------------------|-17-17-17-17-----17-17-17-17-------17-17-------|


G|-------------12--------12------|-------------12--------12------|-------------12--------12------|
D|-------------------------------|-------------------------------|-------------------------------|
A|-------------------------------|-------------------------------|-------------------------------|
E|-17-17-17-17-------------------|-17-17-17-17-------------------|-17-17-17-17-------------------|


G|-12--------------------12--------------------|-------------12--------12------|-------------12--------12------|
D|---------------------------------------------|-------------------------------|-------------------------------|
A|---------------------------------------------|-------------------------------|-------------------------------|
E|-----17-17-17-17-17-17-----17-17-17-17-17-17-|-17-17-17-17-------------------|-17-17-17-17-------------------|


G|-------------12--------12------|-------------12--------------12----------12----|
D|-------------------------------|-----------------------------------------------|
A|-------------------------------|-----------------------------------------------|
E|-17-17-17-17-------------------|-17-17-17-17-----17-17-17-17-------17-17-------|


G|-------------12--------12------|-------------12--------12------|-------------12-----------12------|
D|-------------------------------|-------------------------------|----------------------------------|
A|-------------------------------|-------------------------------|----------------------------------|
E|-17-17-17-17-------------------|-17-17-17-17-------------------|-17-17-17-17----------17----------|


G|-----------------------------12--|---------12-----------12------|---------12--------------12------|
D|------15-------------------------|------------------------------|---------------------------------|
A|-------------17--17--17----------|------------------------------|---------------------------------|
E|-17----------------------17------|-17---------------17------17--|-17--------------17--------------|


G|-------------12-----------12------|-------------12-----------12------|-------------12-----------12------|
D|----------------------------------|----------------------------------|----------------------------------|
A|----------------------------------|----------------------------------|----------------------------------|
E|-17-17-17-17----------17----------|-17-17-17-17----------17----------|-17-17-17-17----------17----------|


G|-----------------------------12--|---------12-----------12------|---------12--------------12------|
D|------15-----15------------------|------------------------------|---------------------------------|
A|---------------------17----------|------------------------------|---------------------------------|
E|-17----------------------17------|-17---------------17------17--|-17--------------17--------------|


G|-------------12-----------12------|-------------12-----------12------|-------------12-----------12------|
D|----------------------------------|----------------------------------|----------------------------------|
A|----------------------------------|----------------------------------|----------------------------------|
E|-17-17-17-17----------17----------|-17-17-17-17----------17----------|-17-17-17-17----------17----------|


G|-------------------------------|-------12----------12--------12----------12--|-------12----------12--------12----------12--|
D|------15---15---15-------------|---------------------------------------------|---------------------------------------------|
A|-------------------------------|---------------------------------------------|---------------------------------------------|
E|-17------------------17---17---|-17-17-17-17-17-17-----17-17-17-17-17-17-----|-17-17-17-17-17-17-----17-17-17-17-17-17-----|


G|-------12----------12--------12----------12--|-------12----------12------12-12-12-12-12-12-|
D|---------------------------------------------|---------------------------------------------|
A|---------------------------------------------|---------------------------------------------|
E|-17-17-17-17-17-17-----17-17-17-17-17-17-----|-17-17----17-17-17-----17--------------------|


G|-------------12----------------------12----------|-------------12----------------------12----------|
D|-------------------------------------------------|-------------------------------------------------|
A|-------------------------------------------------|-------------------------------------------------|
E|-17-17-17-17----17-17-17-17-17-17-17----17-17-17-|-17-17-17-17----17-17-17-17-17-17-17----17-17-17-|


G|-------------12----------------------12----------|-------------12----------12----------12----------|
D|-------------------------------------------------|-------------------------------------------------|
A|-------------------------------------------------|-------------------------------------------------|
E|-17-17-17-17----17-17-17-17-17-17-17----17-17-17-|-17-17-17-17----17-17-17-----15--15------15--15--|


G|-12----------12--------------12------|-----12-----12-----12-12-----12-12-----12-12--|
D|-------------------------------------|------------------------15--------15--------15|
A|-------------------------------------|--------------------------17--------17--------|
E|-----15--15----------17--------------|-17-----17-----17-----------------------------|


G|----12-12-----12--12--------------12------|------12------------------12------|------12------------------12------|
D|---------15-------------------------------|----------------------------------|----------------------------------|
A|-17--------17-----------------------------|----------------------------------|----------------------------------|
E|----------------------17-17-17-17---------|--------------17-17-17-17---------|--------------17-17-17-17---------|


G|---------12-----------17-----------|-------------------12------|------12------------------12------|
D|-----------------------------------|---------------------------|----------------------------------|
A|-----------------------------------|---------------------------|----------------------------------|
E|-----17------17-17-17--------------|-------17-17-17-17---------|--------------17-17-17-17---------|


G|------12------------------12------|------12------------------12--------|-------12----------12----------------12------|
D|----------------------------------|------------------------------------|---------------------------------------------|
A|----------------------------------|------------------------------------|---------------------------------------------|
E|--------------17-17-17-17---------|--------------17-17-17-17-----17-17-|-17-17-------17-17-------17-17-17-17---------|


G|------12------------------12------|------12------------------12------|------12------12--------------------|
D|----------------------------------|----------------------------------|------------------------------------|
A|----------------------------------|----------------------------------|------------------------------------|
E|--------------17-17-17-17---------|--------------17-17-17-17---------|------------------17-17-17-17-17-17-|


G|-12--------------------------------12------|------12------------------12------|------12------------------12------|
D|-------------------------------------------|----------------------------------|----------------------------------|
A|-------------------------------------------|----------------------------------|----------------------------------|
E|-----17-17-17-17-17-17-17-17-17-17---------|--------------17-17-17-17---------|--------------17-17-17-17---------|


G|------12------------------12--------|-------12----------12----------------12------|
D|------------------------------------|---------------------------------------------|
A|------------------------------------|---------------------------------------------|
E|--------------17-17-17-17-----17-17-|-17-17-------17-17-------17-17-17-17---------|


G|------12------------------12------|------12------------------12------|---------12----------------------|
D|----------------------------------|----------------------------------|----------------------15---------|
A|----------------------------------|----------------------------------|-----------------------------17--|
E|--------------17-17-17-17---------|--------------17-17-17-17---------|-----17----------17--------------|


G|-------------12----------12------|---------12--------------12------|---------12------------------12------|
D|---------------------------------|---------------------------------|-------------------------------------|
A|-17--17--------------------------|---------------------------------|-------------------------------------|
E|---------17------17--------------|-----17------17--17--------------|-17--------------17-17-17-17---------|


G|---------12------------------12------|---------12------------------12------|---------12----------------------|
D|-------------------------------------|-------------------------------------|----------------------15-----15--|
A|-------------------------------------|-------------------------------------|---------------------------------|
E|-----17----------17-17-17-17---------|-----17----------17-17-17-17---------|-----17----------17--------------|


G|-------------12----------12------|---------12--------------12------|---------12------------------12------|
D|---------------------------------|---------------------------------|-------------------------------------|
A|-----17--------------------------|---------------------------------|-------------------------------------|
E|---------17------17--------------|-----17------17--17--------------|-17--------------17-17-17-17---------|


G|---------12------------------12------|---------12------------------12------|---------12---------------------|
D|-------------------------------------|-------------------------------------|----------------------15---15---|
A|-------------------------------------|-------------------------------------|--------------------------------|
E|-----17----------17-17-17-17---------|-----17----------17-17-17-17---------|-----17----------17-------------|


G|----------------------12----------12--|-------12----------12--------12----------12--|
D|-15-----------------------------------|---------------------------------------------|
A|--------------------------------------|---------------------------------------------|
E|------17---17---17-17-17-17-17-17-----|-17-17-17-17-17-17-----17-17-17-17-17-17-----|


G|-------12----------12--------12----------12--|-------12----------12--------12----------12--|
D|---------------------------------------------|---------------------------------------------|
A|---------------------------------------------|---------------------------------------------|
E|-17-17-17-17-17-17-----17-17-17-17-17-17-----|-17-17-17-17-17-17-----17-17----17-17-17-----|


G|-----12-12-12-12-12-12-------------12----------|-------------12----------------------12----------|
D|-----------------------------------------------|-------------------------------------------------|
A|-----------------------------------------------|-------------------------------------------------|
E|-17--------------------17-17-17-17----17-17-17-|-17-17-17-17----17-17-17-17-17-17-17----17-17-17-|


G|-------------12----------------------12----------|-------------12----------------------12----------|
D|-------------------------------------------------|-------------------------------------------------|
A|-------------------------------------------------|-------------------------------------------------|
E|-17-17-17-17----17-17-17-17-17-17-17----17-17-17-|-17-17-17-17----17-17-17-17-17-17-17----17-17-17-|


G|-12----------12----------12----------12------|-------------12--------12------|-------------12-------------12------|
D|---------------------------------------------|-------------------------------|------------------------------------|
A|---------------------------------------------|-------------------------------|------------------------------------|
E|-----15--15------15--15------15--15----------|-17-17-17-17-------------------|-17-17-17-17----------17-17---------|


G|-------------12-----------12------|-----12-----12-12-12-----12-12--12-12--|-----------12-------------12------|
D|----------------------------------|---------------------------------------|----------------------------------|
A|----------------------------------|---------------------------------------|----------------------------------|
E|-17-17-17-17----------17----------|-17------------------------------------|-17--17-17-----17-17--------------|


G|-----------12---------------------12------|-----------12-------------12------|-----------12----------12-----12-12--|
D|------------------------------------------|----------------------------------|-------------------------------------|
A|------------------------------------------|----------------------------------|-------------------------------------|
E|-17--17-17-----17-17-----17-17-17---------|-17--17-17-----17-17--------------|-17--17-17---------17----------------|


G|---------12-------------12------|-----------12-------------12------|-----------12-------------12------|
D|--------------------------------|----------------------------------|----------------------------------|
A|--------------------------------|----------------------------------|----------------------------------|
E|-17--17------17-17--------------|-17--17-17-----17-17--------------|-17--17-17-----17-17--------------|


G|-----------12---------------------12------|-----------12-------------12------|-----------12-------------12------|
D|------------------------------------------|----------------------------------|----------------------------------|
A|------------------------------------------|----------------------------------|----------------------------------|
E|-17--17-17-----17-17-----17-17-17---------|-17--17-17-----17-17--------------|-17--17-17-----17-17--------------|


G|-----------12-------------12------|------------12-12--------12-12--12-12--|-----------12--------------|
D|----------------------------------|-15------------------------------------|---------------------------|
A|----------------------------------|-----17-----------17-------------------|---------------------------|
E|-17--17-17-----17-17--------------|---------------------------------------|-17--17-17-----17-17-------|


G|-----------12-------------12------|-----------12-------------12------|-----------12---------------------12------|
D|----------------------------------|----------------------------------|------------------------------------------|
A|----------------------------------|----------------------------------|------------------------------------------|
E|-17--17-17-----17-17--------------|-17--17-17-----17-17--------------|-17--17-17-----17-17-----17-17-17---------|


G|-----------12-------------12------|-----------12-------------12------|-----------12-------------12------|
D|----------------------------------|----------------------------------|----------------------------------|
A|----------------------------------|----------------------------------|----------------------------------|
E|-17--17-17-----17-17--------------|-17--17-17-----17-17--------------|-17--17-17-----17-17--------------|


G|-----------12----------12--12-12-------|---------12-----------12------|---------12--------------12------|
D|---------------------------------15-15-|------------------------------|---------------------------------|
A|---------------------------------------|------------------------------|---------------------------------|
E|-17--17-17---------17------------------|-17---------------17------17--|-17--------------17--------------|


G|-----------12-------------12------|-----------12---------------------12------|-----------12-------------12------|
D|----------------------------------|------------------------------------------|----------------------------------|
A|----------------------------------|------------------------------------------|----------------------------------|
E|-17--17-17-----17-17--------------|-17--17-17-----17-17-----17-17-17---------|-17--17-17-----17-17--------------|


G|-----------12------12-12-------------------|---------12-----------12------|---------12--------------12------|
D|-------------------------------15-15-------|------------------------------|---------------------------------|
A|-------------------------------------17-17-|------------------------------|---------------------------------|
E|-17--17-17-----17--------17-17-------------|-17---------------17------17--|-17--------------17--------------|


G|-12------------------------------|---------------------------------|-12------------------------------|
D|---------------------------------|---------------------------------|---------------------------------|
A|---------------------------------|---------------------------------|---------------------------------|
E|---------17--17--17--17--17--17--|-17--17--17--17--17--17--17--17--|---------17--17--17--17--17--17--|


G|---------------------------------|---------12--------------12------|---------12--------------12------|
D|---------------------------------|---------------------------------|---------------------------------|
A|---------------------------------|---------------------------------|---------------------------------|
E|-17--17--17--17--17--17--17--17--|-17--------------17--------------|-17--------------17--------------|


G|---------12--------------12------|---------12--------------12------|---------12--------------12------|
D|---------------------------------|---------------------------------|---------------------------------|
A|---------------------------------|---------------------------------|---------------------------------|
E|-17--------------17--------------|-17--------------17--------------|-17--------------17--------------|


G|---------12--------------12------|---------12--------------12------|---------12--------------12-12-12-12-|
D|---------------------------------|---------------------------------|-------------------------------------|
A|---------------------------------|---------------------------------|-------------------------------------|
E|-17--------------17--------------|-17--------------17--------------|-17--------------17------------------|


G|---------12--------------12------|---------12--------------12------|---------12--------------12------|
D|---------------------------------|---------------------------------|---------------------------------|
A|---------------------------------|---------------------------------|---------------------------------|
E|-17--------------17--------------|-17--------------17--------------|-17--------------17--------------|


G|---------12--------------12------|---------12--------------12------|---------12--------------12------|
D|---------------------------------|---------------------------------|---------------------------------|
A|---------------------------------|---------------------------------|---------------------------------|
E|-17--------------17--------------|-17--------------17--------------|-17--------------17--------------|


G|---------12--------------12------|---------12--------------12--12-12-|---------12--------------12------|
D|---------------------------------|-----------------------------------|---------------------------------|
A|---------------------------------|-----------------------------------|---------------------------------|
E|-17--------------17--------------|-17--------------17----------------|-17--17------17--17--17------17--|


G|---------12--------------12------|---------12--------------12------|---------12--------------12------|
D|---------------------------------|---------------------------------|---------------------------------|
A|---------------------------------|---------------------------------|---------------------------------|
E|-17--17------17--17--17------17--|-17--17------17--17--17------17--|-17--17------17--17--17------17--|


G|---------12--------------12------|---------12--------------12------|---------12--------------12------|
D|---------------------------------|---------------------------------|---------------------------------|
A|---------------------------------|---------------------------------|---------------------------------|
E|-17--17------17--17--17------17--|-17--17------17--17--17------17--|-17--17------17--17--17------17--|


G|---------12--------------12------|
D|---------------------------------|
A|---------------------------------|
E|-17--17------17--17--17----------|