Menu:

 

Search:

 

pantera - cowboys from hell:

 



Title: Cowboys From Hell
Artist: 
Album: Cowboys From Hell
Author: Pantera


Track 1: Intro 

E|-------------------------------------------------|-------------------------------------------------|
B|-------------------------------------------------|-------------------------------------------------|
G|-------------------------------------------------|-------------------------------------------------|
D|-------------------------------------------------|-------------------------------------------------|
A|-2-----------2-----------2-----------2-----------|-2-----------2-----------2-----------2-----------|
E|-0--0--0--0--0--0--0--0--0--0--0--0--0--0--0--0--|-0--0--0--0--0--0--0--0--0--0--0--0--0--0--0--0--|


E|-------------------------------------------------|-------------------------------------------------|
B|-------------------------------------------------|-------------------------------------------------|
G|-------------------------------------------------|-------------------------------------------------|
D|-------------------------------------------------|-------------------------------------------------|
A|-2-----------2-----------2-----------2-----------|-2-----------2-----------2-----------2-----------|
E|-0--0--0--0--0--0--0--0--0--0--0--0--0--0--0--0--|-0--0--0--0--0--0--0--0--0--0--0--0--0--0--0--0--|


E|-------------------------------------------------|-------------------------------------------------|
B|-------------------------------------------------|-------------------------------------------------|
G|-------------------------------------------------|-------------------------------------------------|
D|-------------------------------------------------|-------------------------------------------------|
A|-2-----------2-----------2-----------2-----------|-2-----------2-----------2-----------2-----------|
E|-0--0--0--0--0--0--0--0--0--0--0--0--0--0--0--0--|-0--0--0--0--0--0--0--0--0--0--0--0--0--0--0--0--|


E|-------------------------------------------------|------------------------------------------|
B|-------------------------------------------------|------------------------------------------|
G|-------------------------------------------------|------------------------------------------|
D|-------------------------------------------------|------------------------------------------|
A|-2-----------2-----------2-----------2-----------|-2-----------2-----------2----------------|
E|-0--0--0--0--0--0--0--0--0--0--0--0--0--0--0--0--|-0--0--0--0--0--0--0--0--0--0--0--0-------|


E|--------|--------|--------|--------|--------|--------|--------|--------|--------|
B|--------|--------|--------|--------|--------|--------|--------|--------|--------|
G|--------|--------|--------|--------|--------|--------|--------|--------|--------|
D|--------|--------|--------|--------|--------|--------|--------|--------|--------|
A|--------|--------|--------|--------|--------|--------|--------|--------|--------|
E|--------|--------|--------|--------|--------|--------|--------|--------|--------|


E|--------|--------|--------|--------|--------|--------|--------|--------|--------|
B|--------|--------|--------|--------|--------|--------|--------|--------|--------|
G|--------|--------|--------|--------|--------|--------|--------|--------|--------|
D|--------|--------|--------|--------|--------|--------|--------|--------|--------|
A|--------|--------|--------|--------|--------|--------|--------|--------|--------|
E|--------|--------|--------|--------|--------|--------|--------|--------|--------|


E|--------|--------|--------|--------|--------|--------|--------|--------|--------|
B|--------|--------|--------|--------|--------|--------|--------|--------|--------|
G|--------|--------|--------|--------|--------|--------|--------|--------|--------|
D|--------|--------|--------|--------|--------|--------|--------|--------|--------|
A|--------|--------|--------|--------|--------|--------|--------|--------|--------|
E|--------|--------|--------|--------|--------|--------|--------|--------|--------|


E|--------|--------|--------|--------|--------|--------|--------|--------|--------|
B|--------|--------|--------|--------|--------|--------|--------|--------|--------|
G|--------|--------|--------|--------|--------|--------|--------|--------|--------|
D|--------|--------|--------|--------|--------|--------|--------|--------|--------|
A|--------|--------|--------|--------|--------|--------|--------|--------|--------|
E|--------|--------|--------|--------|--------|--------|--------|--------|--------|


E|--------|--------|--------|--------|--------|--------|--------|--------|--------|
B|--------|--------|--------|--------|--------|--------|--------|--------|--------|
G|--------|--------|--------|--------|--------|--------|--------|--------|--------|
D|--------|--------|--------|--------|--------|--------|--------|--------|--------|
A|--------|--------|--------|--------|--------|--------|--------|--------|--------|
E|--------|--------|--------|--------|--------|--------|--------|--------|--------|


E|--------|--------|--------|--------|--------|--------|--------|--------|--------|
B|--------|--------|--------|--------|--------|--------|--------|--------|--------|
G|--------|--------|--------|--------|--------|--------|--------|--------|--------|
D|--------|--------|--------|--------|--------|--------|--------|--------|--------|
A|--------|--------|--------|--------|--------|--------|--------|--------|--------|
E|--------|--------|--------|--------|--------|--------|--------|--------|--------|


E|--------|--------|--------|--------|--------|--------|--------|--------|--------|
B|--------|--------|--------|--------|--------|--------|--------|--------|--------|
G|--------|--------|--------|--------|--------|--------|--------|--------|--------|
D|--------|--------|--------|--------|--------|--------|--------|--------|--------|
A|--------|--------|--------|--------|--------|--------|--------|--------|--------|
E|--------|--------|--------|--------|--------|--------|--------|--------|--------|


E|--------|--------|--------|--------|--------|--------|--------|--------|--------|
B|--------|--------|--------|--------|--------|--------|--------|--------|--------|
G|--------|--------|--------|--------|--------|--------|--------|--------|--------|
D|--------|--------|--------|--------|--------|--------|--------|--------|--------|
A|--------|--------|--------|--------|--------|--------|--------|--------|--------|
E|--------|--------|--------|--------|--------|--------|--------|--------|--------|


E|--------|--------|--------|--------|--------|--------|--------|--------|--------|
B|--------|--------|--------|--------|--------|--------|--------|--------|--------|
G|--------|--------|--------|--------|--------|--------|--------|--------|--------|
D|--------|--------|--------|--------|--------|--------|--------|--------|--------|
A|--------|--------|--------|--------|--------|--------|--------|--------|--------|
E|--------|--------|--------|--------|--------|--------|--------|--------|--------|


E|--------|--------|--------|--------|--------|--------|--------|--------|--------|
B|--------|--------|--------|--------|--------|--------|--------|--------|--------|
G|--------|--------|--------|--------|--------|--------|--------|--------|--------|
D|--------|--------|--------|--------|--------|--------|--------|--------|--------|
A|--------|--------|--------|--------|--------|--------|--------|--------|--------|
E|--------|--------|--------|--------|--------|--------|--------|--------|--------|


E|--------|--------|--------|--------|--------|--------|--------|--------|--------|
B|--------|--------|--------|--------|--------|--------|--------|--------|--------|
G|--------|--------|--------|--------|--------|--------|--------|--------|--------|
D|--------|--------|--------|--------|--------|--------|--------|--------|--------|
A|--------|--------|--------|--------|--------|--------|--------|--------|--------|
E|--------|--------|--------|--------|--------|--------|--------|--------|--------|


E|--------|--------|--------|--------|--------|--------|--------|--------|--------|
B|--------|--------|--------|--------|--------|--------|--------|--------|--------|
G|--------|--------|--------|--------|--------|--------|--------|--------|--------|
D|--------|--------|--------|--------|--------|--------|--------|--------|--------|
A|--------|--------|--------|--------|--------|--------|--------|--------|--------|
E|--------|--------|--------|--------|--------|--------|--------|--------|--------|


E|--------|--------|
B|--------|--------|
G|--------|--------|
D|--------|--------|
A|--------|--------|
E|--------|--------|





Track 2: Lead

E|--------|--------|--------|--------|-------------------------------------------------|
B|--------|--------|--------|--------|-------------------------------------------------|
G|--------|--------|--------|--------|-------------------------------------------------|
D|--------|--------|--------|--------|-------------------------------------------12----|
A|--------|--------|--------|--------|-------------12----12----13----12----12-13-------|
E|--------|--------|--------|--------|-12-15-12-15----15----15----15----15-------------|


E|-------------------------------------------------|-------------------------------------------------|
B|-------------------------------------------------|-------------------------------------------------|
G|-------------------------------------------------|-------------------------------------------------|
D|-------------------------------------------12----|-------------------------------------------12----|
A|-------------12----12----13----12----12-13-------|-------------12----12----13----12----12-13-------|
E|-12-15-12-15----15----15----15----15-------------|-12-15-12-15----15----15----15----15-------------|


E|------------------------------------------|-----------------------------------------------|
B|------------------------------------------|-----------------------------------------------|
G|------------------------------------------|-----------------------------------------------|
D|------------------------------------------|-------------2-----2-----------2-----------0---|
A|-------------12----12----13-12------------|-2-----2-----0-----0-----1-----0-----1--2------|
E|-12-15-12-15----15----15-------15-12------|-0--3--0--3-----3-----3-----3-----3------------|


E|-----------------------------------------------|-----------------------------------------------|
B|-----------------------------------------------|-----------------------------------------------|
G|-----------------------------------------------|-----------------------------------------------|
D|-------------2-----2-----------2-----------0---|-------------2-----2-----------2-----------0---|
A|-2-----2-----0-----0-----1-----0-----1--2------|-2-----2-----0-----0-----1-----0-----1--2------|
E|-0--3--0--3-----3-----3-----3-----3------------|-0--3--0--3-----3-----3-----3-----3------------|


E|------------------------------------------|-----------------------------------------------|
B|------------------------------------------|-----------------------------------------------|
G|------------------------------------------|-----------------------------------------------|
D|-------------2-----2----------------------|-------------2-----2-----------2-----------0---|
A|-2-----2-----0-----0-----1--0-----2-------|-2-----2-----0-----0-----1-----0-----1--2------|
E|-0--3--0--3-----3-----3--------3--0-------|-0--3--0--3-----3-----3-----3-----3------------|


E|-----------------------------------------------|-----------------------------------------------|
B|-----------------------------------------------|-----------------------------------------------|
G|-----------------------------------------------|-----------------------------------------------|
D|-------------2-----2-----------2-----------0---|-------------2-----2-----------2-----------0---|
A|-2-----2-----0-----0-----1-----0-----1--2------|-2-----2-----0-----0-----1-----0-----1--2------|
E|-0--3--0--3-----3-----3-----3-----3------------|-0--3--0--3-----3-----3-----3-----3------------|


E|------------------------------------------|------------------------------------------------|
B|------------------------------------------|------------------------------------------------|
G|------------------------------------------|------------------------------------------------|
D|-------------2-----2----------------------|--------------------------------------------0---|
A|-2-----2-----0-----0-----1--0-----2-------|-------------------------------------0-1-2------|
E|-0--3--0--3-----3-----3--------3--0-------|-0--0-----0-----0-----0-----0-----0-------------|


E|------------------------------------------------|------------------------------------------------|
B|------------------------------------------------|------------------------------------------------|
G|------------------------------------------------|------------------------------------------------|
D|--------------------------------------------0---|--------------------------------------------0---|
A|-------------------------------------0-1-2------|-------------------------------------0-1-2------|
E|-0--0-----0-----0-----0-----0-----0-------------|-0--0-----0-----0-----0-----0-----0-------------|


E|-----------------------------------------------|------------------------------------------------|
B|-----------------------------------------------|------------------------------------------------|
G|-----------------------------------------------|------------------------------------------------|
D|--------------------------------0----------0---|--------------------------------------------0---|
A|-------------------------0-1-2------0-1-2------|-------------------------------------0-1-2------|
E|-0--0-----0-----0-----0------------------------|-0--0-----0-----0-----0-----0-----0-------------|


E|----------------------------------------------------|------------------------------------------------|
B|----------------------------------------------------|------------------------------------------------|
G|----------------------------------------------------|------------------------------------------------|
D|----------------------------------------------------|--------------------------------------------0---|
A|-------------------------0--1-0-------0--1-0--------|-------------------------------------0-1-2------|
E|-0--0-----0-----0-----0----------3--3---------3--0--|-0--0-----0-----0-----0-----0-----0-------------|


E|----------------------------------------------------|-------------------------------------------------|
B|----------------------------------------------------|-------------------------------------------------|
G|----------------------------------------------------|-------------------------------------------------|
D|----------------------------------------------------|-------------------------------------------------|
A|-------------------------0--1-0-------0--1-0--------|-------------------------------------------------|
E|-0--0-----0-----0-----0----------3--3---------3--0--|-0--0-----0-----0-----0-----0-----0--0--0--0-----|


E|------------------------------------------------|-------------------------------------------------|
B|------------------------------------------------|-------------------------------------------------|
G|------------------------------------------------|-------------------------------------------------|
D|--------------------------------------------0---|-------------------------------------------------|
A|-------------------------------------0-1-2------|-------------------------------------------------|
E|-0--0------0-----0-----0-----0-----0------------|-0--0-----0-----0-----0-----0-----0--0--0--0-----|


E|----------------------------------------------------|-------------------------------------------------|
B|----------------------------------------------------|-------------------------------------------------|
G|----------------------------------------------------|-------------------------------------------------|
D|----------------------------------------------------|-------------------------------------------------|
A|-------------------------0--1-0-------0--1-0--------|-------------------------------------------------|
E|-0--0-----0-----0-----0----------3--3---------3--0--|-0--0-----0-----0-----0-----0-----0--0--0--0-----|


E|------------------------------------------------|-------------------------------------------------|
B|------------------------------------------------|-------------------------------------------------|
G|------------------------------------------------|-------------------------------------------------|
D|--------------------------------------------0---|-------------------------------------------------|
A|-------------------------------------0-1-2------|-------------------------------------------------|
E|-0--0------0-----0-----0-----0-----0------------|-0--0-----0-----0-----0-----0-----0--0--0--0-----|


E|----------------------------------------------------|----------------------------------------------|
B|----------------------------------------------------|----------------------------------------------|
G|----------------------------------------------------|----------------------------------------------|
D|----------------------------------------------------|----------------------------------------------|
A|-------------------------0--1-0-------0--1-0--------|-5--5--5--5--5--5--5--5--5--5--5--6----6------|
E|-0--0-----0-----0-----0----------3--3---------3--0--|-3--3--3--3--3--3--3--3--3--3--3--4----4------|


E|-------------------------------------------|-------------------------------------------------|
B|-------------------------------------------|-------------------------------------------------|
G|-------------------------------------------|-------------------------------------------------|
D|-------------------------------------------|-------------------------------------------------|
A|-5--5--5--5--5--5--5--5--5---5-8---7---6---|-------------------------------------------------|
E|-3--3--3--3--5--3--3--3--3---3-6---5---4---|-0--0-----0-----0-----0-----0-----0--0--0--0-----|


E|------------------------------------------|-----------------------------------------------|
B|------------------------------------------|-----------------------------------------------|
G|------------------------------------------|-----------------------------------------------|
D|------------------------------------------|-------------2-----2-----------2-----------0---|
A|-------------------------1--0-------------|-2-----2-----0-----0-----1-----0-----1--2------|
E|-0--0------0-----0-----0-------3--0-------|-0--3--0--3-----3-----3-----3-----3------------|


E|-----------------------------------------------|-----------------------------------------------|
B|-----------------------------------------------|-----------------------------------------------|
G|-----------------------------------------------|-----------------------------------------------|
D|-------------2-----2-----------2-----------0---|-------------2-----2-----------2-----------0---|
A|-2-----2-----0-----0-----1-----0-----1--2------|-2-----2-----0-----0-----1-----0-----1--2------|
E|-0--3--0--3-----3-----3-----3-----3------------|-0--3--0--3-----3-----3-----3-----3------------|


E|------------------------------------------|-----------------------------------------------|
B|------------------------------------------|-----------------------------------------------|
G|------------------------------------------|-----------------------------------------------|
D|-------------2-----2----------------------|-------------2-----2-----------2-----------0---|
A|-2-----2-----0-----0-----1--0-----2-------|-2-----2-----0-----0-----1-----0-----1--2------|
E|-0--3--0--3-----3-----3--------3--0-------|-0--3--0--3-----3-----3-----3-----3------------|


E|-----------------------------------------------|-----------------------------------------------|
B|-----------------------------------------------|-----------------------------------------------|
G|-----------------------------------------------|-----------------------------------------------|
D|-------------2-----2-----------2-----------0---|-------------2-----2-----------2-----------0---|
A|-2-----2-----0-----0-----1-----0-----1--2------|-2-----2-----0-----0-----1-----0-----1--2------|
E|-0--3--0--3-----3-----3-----3-----3------------|-0--3--0--3-----3-----3-----3-----3------------|


E|------------------------------------------|------------------------------------------------|
B|------------------------------------------|------------------------------------------------|
G|------------------------------------------|------------------------------------------------|
D|-------------2-----2----------------------|--------------------------------------------0---|
A|-2-----2-----0-----0-----1--0-----2-------|-------------------------------------0-1-2------|
E|-0--3--0--3-----3-----3--------3--0-------|-0--0-----0-----0-----0-----0-----0-------------|


E|-----------------------------------------------|------------------------------------------------|
B|-----------------------------------------------|------------------------------------------------|
G|-----------------------------------------------|------------------------------------------------|
D|--------------------------------0----------0---|--------------------------------------------0---|
A|-------------------------0-1-2------0-1-2------|-------------------------------------0-1-2------|
E|-0--0-----0-----0-----0------------------------|-0--0-----0-----0-----0-----0-----0-------------|


E|----------------------------------------------------|------------------------------------------------|
B|----------------------------------------------------|------------------------------------------------|
G|----------------------------------------------------|------------------------------------------------|
D|----------------------------------------------------|--------------------------------------------0---|
A|-------------------------0--1-0-------0--1-0--------|-------------------------------------0-1-2------|
E|-0--0-----0-----0-----0----------3--3---------3--0--|-0--0-----0-----0-----0-----0-----0-------------|


E|----------------------------------------------------|-------------------------------------------------|
B|----------------------------------------------------|-------------------------------------------------|
G|----------------------------------------------------|-------------------------------------------------|
D|----------------------------------------------------|-------------------------------------------------|
A|-------------------------0--1-0-------0--1-0--------|-------------------------------------------------|
E|-0--0-----0-----0-----0----------3--3---------3--0--|-0--0-----0-----0-----0-----0-----0--0--0--0-----|


E|------------------------------------------------|-------------------------------------------------|
B|------------------------------------------------|-------------------------------------------------|
G|------------------------------------------------|-------------------------------------------------|
D|--------------------------------------------0---|-------------------------------------------------|
A|-------------------------------------0-1-2------|-------------------------------------------------|
E|-0--0------0-----0-----0-----0-----0------------|-0--0-----0-----0-----0-----0-----0--0--0--0-----|


E|----------------------------------------------------|-------------------------------------------------|
B|----------------------------------------------------|-------------------------------------------------|
G|----------------------------------------------------|-------------------------------------------------|
D|----------------------------------------------------|-------------------------------------------------|
A|-------------------------0--1-0-------0--1-0--------|-------------------------------------------------|
E|-0--0-----0-----0-----0----------3--3---------3--0--|-0--0-----0-----0-----0-----0-----0--0--0--0-----|


E|------------------------------------------------|-------------------------------------------------|
B|------------------------------------------------|-------------------------------------------------|
G|------------------------------------------------|-------------------------------------------------|
D|--------------------------------------------0---|-------------------------------------------------|
A|-------------------------------------0-1-2------|-------------------------------------------------|
E|-0--0------0-----0-----0-----0-----0------------|-0--0-----0-----0-----0-----0-----0--0--0--0-----|


E|----------------------------------------------------|----------------------------------------------|
B|----------------------------------------------------|----------------------------------------------|
G|----------------------------------------------------|----------------------------------------------|
D|----------------------------------------------------|----------------------------------------------|
A|-------------------------0--1-0-------0--1-0--------|-5--5--5--5--5--5--5--5--5--5--5--6----6------|
E|-0--0-----0-----0-----0----------3--3---------3--0--|-3--3--3--3--3--3--3--3--3--3--3--4----4------|


E|-------------------------------------------|-------------------------------------------------|
B|-------------------------------------------|-------------------------------------------------|
G|-------------------------------------------|-------------------------------------------------|
D|-------------------------------------------|-------------------------------------------------|
A|-5--5--5--5--5--5--5--5--5---5-8---7---6---|-------------------------------------------------|
E|-3--3--3--3--5--3--3--3--3---3-6---5---4---|-0--0-----0-----0-----0-----0-----0--0--0--0-----|


E|------------------------------------------|-----------------------------------------------|
B|------------------------------------------|-----------------------------------------------|
G|------------------------------------------|-----------------------------------------------|
D|------------------------------------------|-------------2-----2-----------2-----------0---|
A|-------------------------1--0-------------|-2-----2-----0-----0-----1-----0-----1--2------|
E|-0--0------0-----0-----0-------3--0-------|-0--3--0--3-----3-----3-----3-----3------------|


E|-----------------------------------------------|-----------------------------------------------|
B|-----------------------------------------------|-----------------------------------------------|
G|-----------------------------------------------|-----------------------------------------------|
D|-------------2-----2-----------2-----------0---|-------------2-----2-----------2-----------0---|
A|-2-----2-----0-----0-----1-----0-----1--2------|-2-----2-----0-----0-----1-----0-----1--2------|
E|-0--3--0--3-----3-----3-----3-----3------------|-0--3--0--3-----3-----3-----3-----3------------|


E|------------------------------------------|-----------------------------------------------|
B|------------------------------------------|-----------------------------------------------|
G|------------------------------------------|-----------------------------------------------|
D|-------------2-----2----------------------|-------------2-----2-----------2-----------0---|
A|-2-----2-----0-----0-----1--0-----2-------|-2-----2-----0-----0-----1-----0-----1--2------|
E|-0--3--0--3-----3-----3--------3--0-------|-0--3--0--3-----3-----3-----3-----3------------|


E|-----------------------------------------------|-----------------------------------------------|
B|-----------------------------------------------|-----------------------------------------------|
G|-----------------------------------------------|-----------------------------------------------|
D|-------------2-----2-----------2-----------0---|-------------2-----2-----------2-----------0---|
A|-2-----2-----0-----0-----1-----0-----1--2------|-2-----2-----0-----0-----1-----0-----1--2------|
E|-0--3--0--3-----3-----3-----3-----3------------|-0--3--0--3-----3-----3-----3-----3------------|


E|--------------------------------------|----------------|--------------------|----------------|
B|--------------------------------------|----------------|--------------------|----------------|
G|--------------------------------------|----------------|--------------------|----------------|
D|-------------2-----2-----5----4---3---|----------------|-8-----8-----8------|---------14-----|
A|-2-----2-----0-----0-----5----4---3---|---------7------|----7-----7---------|----------------|
E|-0--3--0--3-----3-----3--3----2---1---|-0---0----------|--------------------|----------------|


E|--------------------|-----------------------------------------------------------------|
B|--------------------|-------------------------------------------------------1112151112|
G|-15----15----15-----|-------------------------------------------111215111215----------|
D|----14----14--------|-------------------------------111215111215----------------------|
A|--------------------|-------------------111215111215----------------------------------|
E|--------------------|-11-12-15-11-12-15-----------------------------------------------|


E|---111215111215121112151211121512111512111512-11-15---|-12-14-171412121417141212141714121214171412---19-15-12-1520-|
B|-15---------------------------------------------------|------------------------------------------------------------|
G|------------------------------------------------------|------------------------------------------------------------|
D|------------------------------------------------------|------------------------------------------------------------|
A|------------------------------------------------------|------------------------------------------------------------|
E|------------------------------------------------------|------------------------------------------------------------|


E|-15-12-15-12-15-------------------------------------------|--------|---------------------------------|
B|----------------20-15-12-15-------------------------------|--------|---------------------------------|
G|----------------------------20-15-12-15-------------------|--------|----15----15----15--15-----------|
D|----------------------------------------20-15-12-15-12--14|-14-----|-14----14----14------------------|
A|----------------------------------------------------------|--------|---------------------------------|
E|----------------------------------------------------------|--------|---------------------------------|


E|--------------------15---------|-----18----18----18--------|---------------------------------------------------------------|
B|-----15--15-15-15-------15-----|-17-----17----17-----------|----12-12-----------12-----------1212-----------12-------------|
G|-------------------------------|---------------------------|----------1514121415---1514121415-----1514121415---1514121415--|
D|-------------------------------|---------------------------|---------------------------------------------------------------|
A|-------------------------------|---------------------------|---------------------------------------------------------------|
E|-------------------------------|---------------------------|---------------------------------------------------------------|


E|-------------------14---|-12-14-----12-15------12-14---------|----------15-------18-------19-------22---|
B|-12--12-----------------|-------15--------15---------15--15--|-12-11-12----12-15----15-17----17-19------|
G|-12--12-----------------|------------------------------------|------------------------------------------|
D|----------14--14--------|------------------------------------|------------------------------------------|
A|------------------------|------------------------------------|------------------------------------------|
E|------------------------|------------------------------------|------------------------------------------|


E|-22-----|-------------------------------------|-------------------------------------|
B|--------|-------------------------------------|-------------------------------------|
G|--------|-------------------------------------|-------------------------------------|
D|--------|-------------------------------7-----|-------------------------------5-----|
A|--------|-7--5--------7--5--------7--5--------|-7--5--------7--5--------7--5--------|
E|--------|-------0--0--------0--0--------------|-------0--0--------0--0--------------|


E|-----------------------------------------------|-------------------------------------|
B|-----------------------------------------------|-------------------------------------|
G|-14-12----12-11----11-9-----9--7-----7--6------|-------------------------------------|
D|-------14-------12-------11-------9--------7---|-------------------------------5-----|
A|-----------------------------------------------|-7--5--------7--5--------7--5--------|
E|-----------------------------------------------|-------0--0--------0--0--------------|


E|-------------------------------------|-------------------------------------|-17-15----15-14----14-12----12-10----10-9------|
B|-------------------------------------|-------------------------------------|-------17-------15-------14-------12-------10--|
G|-------------------------------------|-------------------------------------|-----------------------------------------------|
D|-------------------------------7-----|-------------------------------5-----|-----------------------------------------------|
A|-7--5--------7--5--------7--5--------|-7--5--------7--5--------7--5--------|-----------------------------------------------|
E|-------0--0--------0--0--------------|-------0--0--------0--0--------------|-----------------------------------------------|


E|-------------------------------------------------|-------------------------------------------------|
B|-------------------------------------------------|-------------------------------------------------|
G|-------------------------------------------------|-------------------------------------------------|
D|-------------------------------------------12----|-------------------------------------------12----|
A|-------------12----12----13----12----12-13-------|-------------12----12----13----12----12-13-------|
E|-12-15-12-15----15----15----15----15-------------|-12-15-12-15----15----15----15----15-------------|


E|-------------------------------------------------|------------------------------------------|
B|-------------------------------------------------|------------------------------------------|
G|-------------------------------------------------|------------------------------------------|
D|-------------------------------------------12----|------------------------------------------|
A|-------------12----12----13----12----12-13-------|-------------12----12----13-12------------|
E|-12-15-12-15----15----15----15----15-------------|-12-15-12-15----15----15-------15-12------|


E|-----------------------------------------------|-----------------------------------------------|
B|-----------------------------------------------|-----------------------------------------------|
G|-----------------------------------------------|-----------------------------------------------|
D|-------------2-----2-----------2-----------0---|-------------2-----2-----------2-----------0---|
A|-2-----2-----0-----0-----1-----0-----1--2------|-2-----2-----0-----0-----1-----0-----1--2------|
E|-0--3--0--3-----3-----3-----3-----3------------|-0--3--0--3-----3-----3-----3-----3------------|


E|-----------------------------------------------|------------------------------------------|
B|-----------------------------------------------|------------------------------------------|
G|-----------------------------------------------|------------------------------------------|
D|-------------2-----2-----------2-----------0---|-------------2-----2----------------------|
A|-2-----2-----0-----0-----1-----0-----1--2------|-2-----2-----0-----0-----1--0-----2-------|
E|-0--3--0--3-----3-----3-----3-----3------------|-0--3--0--3-----3-----3--------3--0-------|


E|-----------------------------------------------|-----------------------------------------------|
B|-----------------------------------------------|-----------------------------------------------|
G|-----------------------------------------------|-----------------------------------------------|
D|-------------2-----2-----------2-----------0---|-------------2-----2-----------2-----------0---|
A|-2-----2-----0-----0-----1-----0-----1--2------|-2-----2-----0-----0-----1-----0-----1--2------|
E|-0--3--0--3-----3-----3-----3-----3------------|-0--3--0--3-----3-----3-----3-----3------------|


E|-----------------------------------------------|------------------------------------------|
B|-----------------------------------------------|------------------------------------------|
G|-----------------------------------------------|------------------------------------------|
D|-------------2-----2-----------2-----------0---|-------------2-----2----------------------|
A|-2-----2-----0-----0-----1-----0-----1--2------|-2-----2-----0-----0-----1--0-----2-------|
E|-0--3--0--3-----3-----3-----3-----3------------|-0--3--0--3-----3-----3--------3--0-------|


E|-----------------------------------------------|------------------------------------------|
B|-----------------------------------------------|------------------------------------------|
G|-----------------------------------------------|------------------------------------------|
D|-------------2-----2-----------2-----------0---|-------------2-----2----------------------|
A|-2-----2-----0-----0-----1-----0-----1--2------|-2-----2-----0-----0-----1--0-----2-------|
E|-0--3--0--3-----3-----3-----3-----3------------|-0--3--0--3-----3-----3--------3--0-------|


E|-------------------------------------|-------------------------------------|-------------------------------------|
B|-------------------------------------|-------------------------------------|-------------------------------------|
G|-------------------------------------|-------------------------------------|-------------------------------------|
D|-------------------------------5-----|-------------------------------7-----|-------------------------------5-----|
A|-7--5--------7--5--------7--5--------|-7--5--------7--5--------7--5--------|-7--5--------7--5--------7--5--------|
E|-------0--0--------0--0--------------|-------0--0--------0--0--------------|-------0--0--------0--0--------------|


E|-----------------------------------------------|-------------------------------------|
B|-----------------------------------------------|-------------------------------------|
G|-14-12----12-11----11-9-----9--7-----7--6------|-------------------------------------|
D|-------14-------12-------11-------9--------7---|-------------------------------5-----|
A|-----------------------------------------------|-7--5--------7--5--------7--5--------|
E|-----------------------------------------------|-------0--0--------0--0--------------|


E|-------------------------------------|-------------------------------------|-17-15----15-14----14-12----12-10----10-9------|
B|-------------------------------------|-------------------------------------|-------17-------15-------14-------12-------10--|
G|-------------------------------------|-------------------------------------|-----------------------------------------------|
D|-------------------------------7-----|-------------------------------5-----|-----------------------------------------------|
A|-7--5--------7--5--------7--5--------|-7--5--------7--5--------7--5--------|-----------------------------------------------|
E|-------0--0--------0--0--------------|-------0--0--------0--0--------------|-----------------------------------------------|


E|-------------------------------------------------|--------|
B|-------------------------------------------------|--------|
G|-------------------------------------------------|--------|
D|----------------------------------------2--------|--------|
A|-------------------------0--1-0---------2--------|--------|
E|-0--0--0--0-----0-----0----------3---3--0--------|--------|





Track 3: Rythm

E|--------|--------|--------|--------|--------|--------|--------|--------|--------|
B|--------|--------|--------|--------|--------|--------|--------|--------|--------|
G|--------|--------|--------|--------|--------|--------|--------|--------|--------|
D|--------|--------|--------|--------|--------|--------|--------|--------|--------|
A|--------|--------|--------|--------|--------|--------|--------|--------|--------|
E|--------|--------|--------|--------|--------|--------|--------|--------|--------|


E|--------|--------|--------|--------|--------|--------|--------|--------|--------|
B|--------|--------|--------|--------|--------|--------|--------|--------|--------|
G|--------|--------|--------|--------|--------|--------|--------|--------|--------|
D|--------|--------|--------|--------|--------|--------|--------|--------|--------|
A|--------|--------|--------|--------|--------|--------|--------|--------|--------|
E|--------|--------|--------|--------|--------|--------|--------|--------|--------|


E|--------|--------|--------|--------|--------|--------|--------|--------|--------|
B|--------|--------|--------|--------|--------|--------|--------|--------|--------|
G|--------|--------|--------|--------|--------|--------|--------|--------|--------|
D|--------|--------|--------|--------|--------|--------|--------|--------|--------|
A|--------|--------|--------|--------|--------|--------|--------|--------|--------|
E|--------|--------|--------|--------|--------|--------|--------|--------|--------|


E|--------|--------|--------|--------|--------|--------|--------|--------|--------|
B|--------|--------|--------|--------|--------|--------|--------|--------|--------|
G|--------|--------|--------|--------|--------|--------|--------|--------|--------|
D|--------|--------|--------|--------|--------|--------|--------|--------|--------|
A|--------|--------|--------|--------|--------|--------|--------|--------|--------|
E|--------|--------|--------|--------|--------|--------|--------|--------|--------|


E|--------|--------|--------|--------|--------|--------|--------|--------|--------|
B|--------|--------|--------|--------|--------|--------|--------|--------|--------|
G|--------|--------|--------|--------|--------|--------|--------|--------|--------|
D|--------|--------|--------|--------|--------|--------|--------|--------|--------|
A|--------|--------|--------|--------|--------|--------|--------|--------|--------|
E|--------|--------|--------|--------|--------|--------|--------|--------|--------|


E|--------|--------|--------|--------|--------|--------|--------|--------|--------|
B|--------|--------|--------|--------|--------|--------|--------|--------|--------|
G|--------|--------|--------|--------|--------|--------|--------|--------|--------|
D|--------|--------|--------|--------|--------|--------|--------|--------|--------|
A|--------|--------|--------|--------|--------|--------|--------|--------|--------|
E|--------|--------|--------|--------|--------|--------|--------|--------|--------|


E|--------|--------|--------|--------|--------|--------|--------|--------|--------|
B|--------|--------|--------|--------|--------|--------|--------|--------|--------|
G|--------|--------|--------|--------|--------|--------|--------|--------|--------|
D|--------|--------|--------|--------|--------|--------|--------|--------|--------|
A|--------|--------|--------|--------|--------|--------|--------|--------|--------|
E|--------|--------|--------|--------|--------|--------|--------|--------|--------|


E|--------|--------|--------|--------|--------|--------|--------|----------------|
B|--------|--------|--------|--------|--------|--------|--------|----------------|
G|--------|--------|--------|--------|--------|--------|--------|---------0------|
D|--------|--------|--------|--------|--------|--------|--------|---------2------|
A|--------|--------|--------|--------|--------|--------|--------|---------2------|
E|--------|--------|--------|--------|--------|--------|--------|-0---0----------|


E|----------------|----------------|---------------------------|----------------|----------------|
B|---------1------|----------------|---------------------------|----------------|---------1------|
G|---------0------|---------2------|---------7-----------------|---------0------|---------0------|
D|---------2------|---------2------|---------7-----5---4---3---|---------2------|---------2------|
A|-3---3---3------|-4---4---4------|-5---5---5-----5---4---3---|---------2------|---------3------|
E|----------------|----------------|---------------3---2---1---|----------------|----------------|


E|----------------|---------------------------|----------------|----------------|----------------|
B|----------------|---------------------------|----------------|---------1------|----------------|
G|---------2------|---------7-----------------|---------0------|---------0------|---------2------|
D|---------2------|---------7-----5---4---3---|---------2------|---------2------|---------2------|
A|---------4------|---------5-----5---4---3---|---------2------|-3---3---3------|-4---4---4------|
E|----------------|---------------3---2---1---|-0---0----------|----------------|----------------|


E|---------------------------|--------------------|--------|--------------------|---------------------------|
B|---------------------------|--------------------|-1------|--------------------|---------------------------|
G|---------7-----------------|-------0------------|-0------|-------2------------|-7-------------------------|
D|---------7-----5---4---3---|-------2------------|-2------|-------2------------|-7-----5----4---3----------|
A|-5---5---5-----5---4---3---|-------2------------|-3------|-------4------------|-5-----5----4---3----------|
E|---------------3---2---1---|--------------------|--------|--------------------|-------3----2---1----------|


E|-------------------------------------|-------------------------------------|--------|
B|-------------------------------------|-------------------------------------|--------|
G|-------------------------------------|-------------------------------------|--------|
D|-------------------------------5-----|-------------------------------7-----|--------|
A|-7--5--------7--5--------7--5--------|-7--5--------7--5--------7--5--------|--------|
E|-------0--0--------0--0--------------|-------0--0--------0--0--------------|--------|


E|--------|--------|--------|--------|--------|--------|--------|--------|--------|
B|--------|--------|--------|--------|--------|--------|--------|--------|--------|
G|--------|--------|--------|--------|--------|--------|--------|--------|--------|
D|--------|--------|--------|--------|--------|--------|--------|--------|--------|
A|--------|--------|--------|--------|--------|--------|--------|--------|--------|
E|--------|--------|--------|--------|--------|--------|--------|--------|--------|


E|--------|--------|--------|--------|--------|--------|--------|--------|--------|
B|--------|--------|--------|--------|--------|--------|--------|--------|--------|
G|--------|--------|--------|--------|--------|--------|--------|--------|--------|
D|--------|--------|--------|--------|--------|--------|--------|--------|--------|
A|--------|--------|--------|--------|--------|--------|--------|--------|--------|
E|--------|--------|--------|--------|--------|--------|--------|--------|--------|


E|--------|--------|--------|--------|--------|--------|--------|--------|--------|
B|--------|--------|--------|--------|--------|--------|--------|--------|--------|
G|--------|--------|--------|--------|--------|--------|--------|--------|--------|
D|--------|--------|--------|--------|--------|--------|--------|--------|--------|
A|--------|--------|--------|--------|--------|--------|--------|--------|--------|
E|--------|--------|--------|--------|--------|--------|--------|--------|--------|


E|--------|--------|
B|--------|--------|
G|--------|--------|
D|--------|--------|
A|--------|--------|
E|--------|--------|





Track 4: Bass

G|--------|--------|--------|--------|--------|--------|--------|--------|-----------------------------------------------|
D|--------|--------|--------|--------|--------|--------|--------|--------|-------------------------------------------0---|
A|--------|--------|--------|--------|--------|--------|--------|--------|-------------0-----0-----1-----0-----1--2------|
E|--------|--------|--------|--------|--------|--------|--------|--------|-0--3--0--3-----3-----3-----3-----3------------|


G|-----------------------------------------------|-----------------------------------------------|
D|-------------------------------------------0---|-------------------------------------------0---|
A|-------------0-----0-----1-----0-----1--2------|-------------0-----0-----1-----0-----1--2------|
E|-0--3--0--3-----3-----3-----3-----3------------|-0--3--0--3-----3-----3-----3-----3------------|


G|------------------------------------------|-----------------------------------------------|
D|------------------------------------------|-------------------------------------------0---|
A|-------------0-----0-----1--0-------------|-------------0-----0-----1-----0-----1--2------|
E|-0--3--0--3-----3-----3--------3--0-------|-0--3--0--3-----3-----3-----3-----3------------|


G|-----------------------------------------------|-----------------------------------------------|
D|-------------------------------------------0---|-------------------------------------------0---|
A|-------------0-----0-----1-----0-----1--2------|-------------0-----0-----1-----0-----1--2------|
E|-0--3--0--3-----3-----3-----3-----3------------|-0--3--0--3-----3-----3-----3-----3------------|


G|------------------------------------------|--------------------|-----------------|
D|------------------------------------------|--------------------|-----------------|
A|-------------0-----0-----1--0-------------|--------------------|-----------------|
E|-0--3--0--3-----3-----3--------3--0-------|-0------------------|-0---------------|


G|--------|-----------------------------------------------|------------------------------------------------|
D|--------|--------------------------------0----------0---|--------------------------------------------0---|
A|--------|-------------------------0-1-2------0-1-2------|-------------------------------------0-1-2------|
E|-0------|-0--0-----0-----0-----0------------------------|-0--0-----0-----0-----0-----0-----0-------------|


G|----------------------------------------------------|------------------------------------------------|
D|----------------------------------------------------|--------------------------------------------0---|
A|-------------------------0--1-0-------0--1-0--------|-------------------------------------0-1-2------|
E|-0--0-----0-----0-----0----------3--3---------3--0--|-0--0-----0-----0-----0-----0-----0-------------|


G|----------------------------------------------------|-------------------------------------------------|
D|----------------------------------------------------|-------------------------------------------------|
A|-------------------------0--1-0-------0--1-0--------|-------------------------------------------------|
E|-0--0-----0-----0-----0----------3--3---------3--0--|-0--0-----0-----0-----0-----0-----0--0--0--0-----|


G|------------------------------------------------|-------------------------------------------------|
D|--------------------------------------------0---|-------------------------------------------------|
A|-------------------------------------0-1-2------|-------------------------------------------------|
E|-0--0------0-----0-----0-----0-----0------------|-0--0-----0-----0-----0-----0-----0--0--0--0-----|


G|----------------------------------------------------|-------------------------------------------------|
D|----------------------------------------------------|-------------------------------------------------|
A|-------------------------0--1-0-------0--1-0--------|-------------------------------------------------|
E|-0--0-----0-----0-----0----------3--3---------3--0--|-0--0-----0-----0-----0-----0-----0--0--0--0-----|


G|------------------------------------------------|-------------------------------------------------|
D|--------------------------------------------0---|-------------------------------------------------|
A|-------------------------------------0-1-2------|-------------------------------------------------|
E|-0--0------0-----0-----0-----0-----0------------|-0--0-----0-----0-----0-----0-----0--0--0--0-----|


G|----------------------------------------------------|----------------------------------------------|
D|----------------------------------------------------|----------------------------------------------|
A|-------------------------0--1-0-------0--1-0--------|----------------------------------------------|
E|-0--0-----0-----0-----0----------3--3---------3--0--|-3--3--3--3--3--3--3--3--3--3--3--4----4------|


G|--------------------------------------------|-------------------------------------------------|
D|--------------------------------------------|-------------------------------------------------|
A|--------------------------------------------|-------------------------------------------------|
E|-3--3--3--3--3--3--3--3--3--3-3-6---5---4---|-0--0-----0-----0-----0-----0-----0--0--0--0-----|


G|------------------------------------------|-----------------------------------------------|
D|------------------------------------------|-------------------------------------------0---|
A|------------------------------------------|-------------0-----0-----1-----0-----1--2------|
E|-0--0------0-----0-----0-6--5--3--0-------|-0--3--0--3-----3-----3-----3-----3------------|


G|-----------------------------------------------|-----------------------------------------------|
D|-------------------------------------------0---|-------------------------------------------0---|
A|-------------0-----0-----1-----0-----1--2------|-------------0-----0-----1-----0-----1--2------|
E|-0--3--0--3-----3-----3-----3-----3------------|-0--3--0--3-----3-----3-----3-----3------------|


G|------------------------------------------|-----------------------------------------------|
D|------------------------------------------|-------------------------------------------0---|
A|-------------0-----0-----1--0-------------|-------------0-----0-----1-----0-----1--2------|
E|-0--3--0--3-----3-----3--------3--0-------|-0--3--0--3-----3-----3-----3-----3------------|


G|-----------------------------------------------|-----------------------------------------------|
D|-------------------------------------------0---|-------------------------------------------0---|
A|-------------0-----0-----1-----0-----1--2------|-------------0-----0-----1-----0-----1--2------|
E|-0--3--0--3-----3-----3-----3-----3------------|-0--3--0--3-----3-----3-----3-----3------------|


G|------------------------------------------|----------------------|-----------------------------------------------|
D|------------------------------------------|----------------------|--------------------------------0----------0---|
A|-------------0-----0-----1--0-------------|----------------------|-------------------------0-1-2------0-1-2------|
E|-0--3--0--3-----3-----3--------3--0-------|-0--0-----------------|-0--0-----0-----0-----0------------------------|


G|------------------------------------------------|----------------------------------------------------|
D|--------------------------------------------0---|----------------------------------------------------|
A|-------------------------------------0-1-2------|-------------------------0--1-0-------0--1-0--------|
E|-0--0-----0-----0-----0-----0-----0-------------|-0--0-----0-----0-----0----------3--3---------3--0--|


G|------------------------------------------------|----------------------------------------------------|
D|--------------------------------------------0---|----------------------------------------------------|
A|-------------------------------------0-1-2------|-------------------------0--1-0-------0--1-0--------|
E|-0--0-----0-----0-----0-----0-----0-------------|-0--0-----0-----0-----0----------3--3---------3--0--|


G|-------------------------------------------------|------------------------------------------------|
D|-------------------------------------------------|--------------------------------------------0---|
A|-------------------------------------------------|-------------------------------------0-1-2------|
E|-0--0-----0-----0-----0-----0-----0--0--0--0-----|-0--0------0-----0-----0-----0-----0------------|


G|-------------------------------------------------|----------------------------------------------------|
D|-------------------------------------------------|----------------------------------------------------|
A|-------------------------------------------------|-------------------------0--1-0-------0--1-0--------|
E|-0--0-----0-----0-----0-----0-----0--0--0--0-----|-0--0-----0-----0-----0----------3--3---------3--0--|


G|-------------------------------------------------|------------------------------------------------|
D|-------------------------------------------------|--------------------------------------------0---|
A|-------------------------------------------------|-------------------------------------0-1-2------|
E|-0--0-----0-----0-----0-----0-----0--0--0--0-----|-0--0------0-----0-----0-----0-----0------------|


G|-------------------------------------------------|----------------------------------------------------|
D|-------------------------------------------------|----------------------------------------------------|
A|-------------------------------------------------|-------------------------0--1-0-------0--1-0--------|
E|-0--0-----0-----0-----0-----0-----0--0--0--0-----|-0--0-----0-----0-----0----------3--3---------3--0--|


G|----------------------------------------------|--------------------------------------------|
D|----------------------------------------------|--------------------------------------------|
A|----------------------------------------------|--------------------------------------------|
E|-3--3--3--3--3--3--3--3--3--3--3--4----4------|-3--3--3--3--3--3--3--3--3--3-3-6---5---4---|


G|-------------------------------------------------|------------------------------------------|
D|-------------------------------------------------|------------------------------------------|
A|-------------------------------------------------|------------------------------------------|
E|-0--0-----0-----0-----0-----0-----0--0--0--0-----|-0--0------0-----0-----0-6--5--3--0-------|


G|-----------------------------------------------|-----------------------------------------------|
D|-------------------------------------------0---|-------------------------------------------0---|
A|-------------0-----0-----1-----0-----1--2------|-------------0-----0-----1-----0-----1--2------|
E|-0--3--0--3-----3-----3-----3-----3------------|-0--3--0--3-----3-----3-----3-----3------------|


G|-----------------------------------------------|------------------------------------------|
D|-------------------------------------------0---|------------------------------------------|
A|-------------0-----0-----1-----0-----1--2------|-------------0-----0-----1--0-------------|
E|-0--3--0--3-----3-----3-----3-----3------------|-0--3--0--3-----3-----3--------3--0-------|


G|-----------------------------------------------|-----------------------------------------------|
D|-------------------------------------------0---|-------------------------------------------0---|
A|-------------0-----0-----1-----0-----1--2------|-------------0-----0-----1-----0-----1--2------|
E|-0--3--0--3-----3-----3-----3-----3------------|-0--3--0--3-----3-----3-----3-----3------------|


G|-----------------------------------------------|--------------------------------------|
D|-------------------------------------------0---|--------------------------------------|
A|-------------0-----0-----1-----0-----1--2------|-------------0-----0------------------|
E|-0--3--0--3-----3-----3-----3-----3------------|-0--3--0--3-----3-----3--3----2---1---|


G|-------------------------------------|-------------------------------------|---------------------------------------|
D|-------------------------------------|-------------------------------------|---------------------------------------|
A|-------------------------------------|-3---3---3--3----3---3--3--3--3--3---|-4---4---4--4----4--4--4--4--4--4--3---|
E|-0---0---0--0----0---0--0--0--0--0---|-------------------------------------|---------------------------------------|


G|-----------------------------------|---------------------------------|---------------------------------|
D|-----------------------------------|---------------------------------|---------------------------------|
A|-5---5---5--5--5-------------------|---------------------------------|-----3-------3-------3-------3---|
E|----------------------6----5---3---|-0----0------0-------0-------0---|---------------------------------|


G|---------------------------------|---------------------------------|-------------------------------------|
D|---------------------------------|---------------------------------|-------------------------------------|
A|-----4-------4-------4-------4---|-5-------5-------5---------------|-------------------------------------|
E|---------------------------------|---------------------6---5---3---|-0---0---0--0----0---0--0--0--0--0---|


G|-------------------------------------|---------------------------------------|-----------------------------------|
D|-------------------------------------|---------------------------------------|-----------------------------------|
A|-3---3---3--3----3---3--3--3--3--3---|-4---4---4--4----4--4--4--4--4--4--4---|-5---5---5--5--5-------------------|
E|-------------------------------------|---------------------------------------|----------------------6----5---3---|


G|---------------------------------------|-------------------------------------|---------------------------------------|
D|---------------------------------------|-------------------------------------|--------------------------2--4-----2---|
A|---------------------------------------|-----3--3--3---3---3---3--3--3---3---|-4---4--4--4---4---4---4--------4------|
E|-0---0---0---0--0--0--0--0---0--0--0---|-------------------------------------|---------------------------------------|


G|-------------------------------------|------------------------------------------|
D|-----0---0--0--0--0------------------|------------------------------------------|
A|-------------------------------------|-7--5--------7--5--------7--5--5----------|
E|------------------------6----5---3---|-------0--0--------0--0-------------0--0--|


G|------------------------------------------|---------------------------------------------|
D|-------------------------------7----------|---------------------------------------12-12-|
A|-7--5--------7--5--------7--5-------------|-7--5--------7--5--------7--5------0---------|
E|-------0--0--------0--0-------------0--0--|-------0--0--------0--0--------5-------------|


G|-14-12----12-12----11-----9------7-------|------------------------------------------|
D|-------14-------12-----11-----9------7---|------------------------------------------|
A|-----------------------------------------|-7--5--------7--5--------7--5--5----------|
E|-----------------------------------------|-------0--0--------0--0-------------0--0--|


G|------------------------------------------|------------------------------------------|
D|-------------------------------7----------|------------------------------------12-12-|
A|-7--5--------7--5--------7--5-------------|-7--5--------7--5--------7--5-------------|
E|-------0--0--------0--0-------------0--0--|-------0--0--------0--0--------5----------|


G|-14-12----12-12----11-----9------7-------|----------------------|-------------------------------|
D|-------14-------12-----11-----9------7---|----------------------|-------------------------------|
A|-----------------------------------------|-----------7----------|-----------7-------------------|
E|-----------------------------------------|-0--0-----------------|-0--0---------------0--0-------|


G|----------------------|---------------------------------|-----------------------------------------------|
D|----------------------|---------------------------------|-------------------------------------------0---|
A|-----------7----------|-----------7---------------------|-------------0-----0-----1-----0-----1--2------|
E|-0--0-----------------|-0--0-----------6--5--3--0-------|-0--3--0--3-----3-----3-----3-----3------------|


G|-----------------------------------------------|-----------------------------------------------|
D|-------------------------------------------0---|-------------------------------------------0---|
A|-------------0-----0-----1-----0-----1--2------|-------------0-----0-----1-----0-----1--2------|
E|-0--3--0--3-----3-----3-----3-----3------------|-0--3--0--3-----3-----3-----3-----3------------|


G|------------------------------------------|-----------------------------------------------|
D|------------------------------------------|-------------------------------------------0---|
A|-------------0-----0-----1--0-------------|-------------0-----0-----1-----0-----1--2------|
E|-0--3--0--3-----3-----3--------3--0-------|-0--3--0--3-----3-----3-----3-----3------------|


G|-----------------------------------------------|-----------------------------------------------|
D|-------------------------------------------0---|-------------------------------------------0---|
A|-------------0-----0-----1-----0-----1--2------|-------------0-----0-----1-----0-----1--2------|
E|-0--3--0--3-----3-----3-----3-----3------------|-0--3--0--3-----3-----3-----3-----3------------|


G|------------------------------------------|-----------------------------------------------|
D|------------------------------------------|-------------------------------------------0---|
A|-------------0-----0-----1--0-------------|-------------0-----0-----1-----0-----1--2------|
E|-0--3--0--3-----3-----3--------3--0-------|-0--3--0--3-----3-----3-----3-----3------------|


G|------------------------------------------|------------------------------------------|
D|------------------------------------------|------------------------------------------|
A|-------------0-----0-----1--0-------------|-7--5--------7--5--------7--5--5----------|
E|-0--3--0--3-----3-----3--------3--0-------|-------0--0--------0--0-------------0--0--|


G|------------------------------------------|---------------------------------------------|
D|-------------------------------7----------|---------------------------------------12-12-|
A|-7--5--------7--5--------7--5-------------|-7--5--------7--5--------7--5------0---------|
E|-------0--0--------0--0-------------0--0--|-------0--0--------0--0--------5-------------|


G|-14-12----12-12----11-----9------7-------|------------------------------------------|
D|-------14-------12-----11-----9------7---|------------------------------------------|
A|-----------------------------------------|-7--5--------7--5--------7--5--5----------|
E|-----------------------------------------|-------0--0--------0--0-------------0--0--|


G|------------------------------------------|------------------------------------------|
D|-------------------------------7----------|------------------------------------12-12-|
A|-7--5--------7--5--------7--5-------------|-7--5--------7--5--------7--5-------------|
E|-------0--0--------0--0-------------0--0--|-------0--0--------0--0--------5----------|


G|-14-12----12-12----11-----9------7-------|-------------------------------------------------|
D|-------14-------12-----11-----9------7---|-------------------------------------------------|
A|-----------------------------------------|-------------------------0--1-0------------------|
E|-----------------------------------------|-0--0--0--0-----0-----0----------3---3--0--------|


G|--------|
D|--------|
A|--------|
E|--------|