Menu:

 

Search:

 

pantera - a new level:

 



Title: A New Level
Artist: 
Album: Vulgar Display Of Power
Author: 


Track 1: Distorted Guitar

E|--------|---------------------------------|---------------------------------|---------------------------------|
B|--------|---------------------------------|---------------------------------|---------------------------------|
G|--------|---------------------------------|---------------------------------|---------------------------------|
D|--------|---------------------------------|---------------------------------|---------------------------------|
A|--------|-0---1---2---0---1---2---3---0---|-1---2---3---4---6---6---6---6---|-0---1---2---0---1---2---3---0---|
D|--------|-0---1---2---0---1---2---3---0---|-1---2---3---4---6---6---6---6---|-0---1---2---0---1---2---3---0---|


E|---------------------------------|---------------------------------|---------------------------------|
B|---------------------------------|---------------------------------|---------------------------------|
G|---------------------------------|---------------------------------|---------------------------------|
D|---------------------------------|---------------------------------|---------------------------------|
A|-1---2---3---4---6---6---6---6---|-0---1---2---0---1---2---3---0---|-1---2---3---4---6---6---6---6---|
D|-1---2---3---4---6---6---6---6---|-0---1---2---0---1---2---3---0---|-1---2---3---4---6---6---6---6---|


E|---------------------------------|---------------------------------|---------------------------------|
B|---------------------------------|---------------------------------|---------------------------------|
G|---------------------------------|---------------------------------|---------------------------------|
D|---------------------------------|---------------------------------|---------------------------------|
A|-0---1---2---0---1---2---3---0---|-1---2---3---4---6---6---6---6---|-0---1---2---0---1---2---3---0---|
D|-0---1---2---0---1---2---3---0---|-1---2---3---4---6---6---6---6---|-0---1---2---0---1---2---3---0---|


E|---------------------------------|---------------------------------|---------------------------------|
B|---------------------------------|---------------------------------|---------------------------------|
G|---------------------------------|---------------------------------|---------------------------------|
D|---------------------------------|---------------------------------|---------------------------------|
A|-1---2---3---4---6---6---6---6---|-0---1---2---0---1---2---3---0---|-1---2---3---4---6---6---6---6---|
D|-1---2---3---4---6---6---6---6---|-0---1---2---0---1---2---3---0---|-1---2---3---4---6---6---6---6---|


E|---------------------------------|---------------------------------|---------------------------------|
B|---------------------------------|---------------------------------|---------------------------------|
G|---------------------------------|---------------------------------|---------------------------------|
D|---------------------------------|---------------------------------|---------------------------------|
A|-0---1---2---0---1---2---3---0---|-1---2---3---4---6---6---6---6---|-0---1---2---0---1---2---3---0---|
D|-0---1---2---0---1---2---3---0---|-1---2---3---4---6---6---6---6---|-0---1---2---0---1---2---3---0---|


E|---------------------------------|-------------------------------------|-------------------------------------|
B|---------------------------------|-------------------------------------|-------------------------------------|
G|---------------------------------|-------------------------------------|-------------------------------------|
D|---------------------------------|-------------------------------------|-------------------------------------|
A|-1---2---3---4---6---6---6---6---|---------------------------------6---|---------------------------------6---|
D|-1---2---3---4---6---6---6---6---|-0---0---0--0---0-----0---0--0---6---|-0---0---0--0---0-----0---0--0---6---|


E|-------------------------------------|--------------------|---------------------------------------|
B|-------------------------------------|--------------------|---------------------------------------|
G|-------------------------------------|--------------------|---------------------------------------|
D|-------------------------------------|--------------------|---------------------------------------|
A|---------------------------------6---|-7------------------|---------------------------------------|
D|-0---0---0--0---0-----0---0--0---6---|-7------------------|-0---0---0--0---0-----0---0--0---0--0--|


E|---------------------------------------|---------------------------------------|
B|---------------------------------------|---------------------------------------|
G|---------------------------------------|---------------------------------------|
D|---------------------------------------|---------------------------------------|
A|---------------------------------------|---------------------------------------|
D|-0---0---0--0---0-----0---0--0---0--0--|-0---0---0--0---0-----0---0--0---0--0--|


E|-------------------------------------------|---------------------------------------|
B|-------------------------------------------|---------------------------------------|
G|-------------------------------------------|---------------------------------------|
D|-------------------------------------------|---------------------------------------|
A|-------------------------------------------|---------------------------------------|
D|-0---0---0--0---0--12-12-12-12-12-12-12-12-|-0---0---0--0---0-----0---0--0---0--0--|


E|---------------------------------------|---------------------------------------|
B|---------------------------------------|---------------------------------------|
G|---------------------------------------|---------------------------------------|
D|---------------------------------------|---------------------------------------|
A|---------------------------------------|---------------------------------------|
D|-0---0---0--0---0-----0---0--0---0--0--|-0---0---0--0---0-----0---0--0---0--0--|


E|---------------------------------------|------------------------------|---------------------------------------|
B|---------------------------------------|------------------------------|---------------------------------------|
G|---------------------------------------|------------------------------|---------------------------------------|
D|---------------------------------------|------------------------------|---------------------------------------|
A|---------------------------------------|-0-----------5---4------------|---------------------------------------|
D|-0---0---0--0---0-----0---0--0---0--0--|-0-----------5---4------------|-1---1---1--1---1-----1---1--1---1--1--|


E|---------------------------------------|---------------------------------------|
B|---------------------------------------|---------------------------------------|
G|---------------------------------------|---------------------------------------|
D|---------------------------------------|---------------------------------------|
A|---------------------------------------|---------------------------------------|
D|-1---1---1--1---1-----1---1--1---1--1--|-1---1---1--1---1-----1---1--1---1--1--|


E|-------------------------------------------|---------------------------------------|
B|-------------------------------------------|---------------------------------------|
G|-------------------------------------------|---------------------------------------|
D|-------------------------------------------|---------------------------------------|
A|-------------------------------------------|---------------------------------------|
D|-1---1---1--1---1--13-13-13-13-13-13-13-13-|-1---1---1--1---1-----1---1--1---1--1--|


E|---------------------------------------|---------------------------------------|
B|---------------------------------------|---------------------------------------|
G|---------------------------------------|---------------------------------------|
D|---------------------------------------|---------------------------------------|
A|---------------------------------------|---------------------------------------|
D|-1---1---1--1---1-----1---1--1---1--1--|-1---1---1--1---1-----1---1--1---1--1--|


E|---------------------------------------|------------------------------|---------------------------------------|
B|---------------------------------------|------------------------------|---------------------------------------|
G|---------------------------------------|------------------------------|---------------------------------------|
D|---------------------------------------|------------------------------|---------------------------------------|
A|---------------------------------------|-1-----------4---3------------|---------------------------------------|
D|-1---1---1--1---1-----1---1--1---1--1--|-1-----------4---3------------|-1---1---1--1---1-----1---1--1---1--1--|


E|-----------------------------------------|---------------------------------------|
B|-----------------------------------------|---------------------------------------|
G|-----------------------------------------|---------------------------------------|
D|-----------------------------------------|---------------------------------------|
A|-----------------------------------------|---------------------------------------|
D|-1---1---1--1---1------13-13-13-13-13-13-|-1---1---1--1---1-----1---1--1---1--1--|


E|---------------------------------------|---------------------------------|---------------------------------|
B|---------------------------------------|---------------------------------|---------------------------------|
G|---------------------------------------|---------------------------------|---------------------------------|
D|---------------------------------------|---------------------------------|---------------------------------|
A|---------------------------------------|-0---1---2---0---1---2---3---0---|-1---2---3---4---6---6---6---6---|
D|-1---1---1--1---1-----1---1--1---1--1--|-0---1---2---0---1---2---3---0---|-1---2---3---4---6---6---6---6---|


E|---------------------------------|---------------------------------|---------------------------------|
B|---------------------------------|---------------------------------|---------------------------------|
G|---------------------------------|---------------------------------|---------------------------------|
D|---------------------------------|---------------------------------|---------------------------------|
A|-0---1---2---0---1---2---3---0---|-1---2---3---4---6---6---6---6---|-0---1---2---0---1---2---3---0---|
D|-0---1---2---0---1---2---3---0---|-1---2---3---4---6---6---6---6---|-0---1---2---0---1---2---3---0---|


E|---------------------------------|---------------------------------|---------------------------------|
B|---------------------------------|---------------------------------|---------------------------------|
G|---------------------------------|---------------------------------|---------------------------------|
D|---------------------------------|---------------------------------|---------------------------------|
A|-1---2---3---4---6---6---6---6---|-0---1---2---0---1---2---3---0---|-1---2---3---4---6---6---6---6---|
D|-1---2---3---4---6---6---6---6---|-0---1---2---0---1---2---3---0---|-1---2---3---4---6---6---6---6---|


E|---------------------------------------|---------------------------------------|
B|---------------------------------------|---------------------------------------|
G|---------------------------------------|---------------------------------------|
D|---------------------------------------|---------------------------------------|
A|---------------------------------------|---------------------------------------|
D|-0---0---0--0---0-----0---0--0---0--0--|-0---0---0--0---0-----0---0--0---0--0--|


E|-----------------------------------------|---------------------------------------|
B|-----------------------------------------|---------------------------------------|
G|-----------------------------------------|---------------------------------------|
D|-----------------------------------------|---------------------------------------|
A|-----------------------------------------|---------------------------------------|
D|-0---0---0--0---0------12-12-12-12-12-12-|-1---1---1--1---1-----1---1--1---1--1--|


E|---------------------------------------|---------------------------------------|
B|---------------------------------------|---------------------------------------|
G|---------------------------------------|---------------------------------------|
D|---------------------------------------|---------------------------------------|
A|---------------------------------------|---------------------------------------|
D|-1---1---1--1---1-----1---1--1---1--1--|-1---1---1--1---1-----1---1--1---1--1--|


E|-------------------------------------------|---------------------------------------|
B|-------------------------------------------|---------------------------------------|
G|-------------------------------------------|---------------------------------------|
D|-------------------------------------------|---------------------------------------|
A|-------------------------------------------|---------------------------------------|
D|-1---1---1--1---1--13-13-13-13-13-13-13-13-|-1---1---1--1---1-----1---1--1---1--1--|


E|---------------------------------------|---------------------------------------|
B|---------------------------------------|---------------------------------------|
G|---------------------------------------|---------------------------------------|
D|---------------------------------------|---------------------------------------|
A|---------------------------------------|---------------------------------------|
D|-1---1---1--1---1-----1---1--1---1--1--|-1---1---1--1---1-----1---1--1---1--1--|


E|---------------------------------------|------------------------------|---------------------------------------|
B|---------------------------------------|------------------------------|---------------------------------------|
G|---------------------------------------|------------------------------|---------------------------------------|
D|---------------------------------------|------------------------------|---------------------------------------|
A|---------------------------------------|-1-----------4---3------------|---------------------------------------|
D|-1---1---1--1---1-----1---1--1---1--1--|-1-----------4---3------------|-1---1---1--1---1-----1---1--1---1--1--|


E|-----------------------------------------|---------------------------------------|
B|-----------------------------------------|---------------------------------------|
G|-----------------------------------------|---------------------------------------|
D|-----------------------------------------|---------------------------------------|
A|-----------------------------------------|---------------------------------------|
D|-1---1---1--1---1------13-13-13-13-13-13-|-1---1---1--1---1-----1---1--1---1--1--|


E|---------------------------------------|---------------------------------|---------------------------------|
B|---------------------------------------|---------------------------------|---------------------------------|
G|---------------------------------------|---------------------------------|---------------------------------|
D|---------------------------------------|---------------------------------|---------------------------------|
A|---------------------------------------|-0---1---2---0---1---2---3---0---|-1---2---3---4---6---6---6---6---|
D|-1---1---1--1---1-----1---1--1---1--1--|-0---1---2---0---1---2---3---0---|-1---2---3---4---6---6---6---6---|


E|---------------------------------|---------------------------------|---------------------------------|
B|---------------------------------|---------------------------------|---------------------------------|
G|---------------------------------|---------------------------------|---------------------------------|
D|---------------------------------|---------------------------------|---------------------------------|
A|-0---1---2---0---1---2---3---0---|-1---2---3---4---6---6---6---6---|-0---1---2---0---1---2---3---0---|
D|-0---1---2---0---1---2---3---0---|-1---2---3---4---6---6---6---6---|-0---1---2---0---1---2---3---0---|


E|---------------------------------|---------------------------------|---------------------------------|
B|---------------------------------|---------------------------------|---------------------------------|
G|---------------------------------|---------------------------------|---------------------------------|
D|---------------------------------|---------------------------------|---------------------------------|
A|-1---2---3---4---6---6---6---6---|-0---1---2---0---1---2---3---0---|-1---2---3---4---6---6---6---6---|
D|-1---2---3---4---6---6---6---6---|-0---1---2---0---1---2---3---0---|-1---2---3---4---6---6---6---6---|


E|--------|--------------------|--------|--------------------|--------|--------|--------|
B|--------|--------------------|--------|--------------------|--------|--------|--------|
G|--------|--------------------|--------|--------------------|--------|--------|--------|
D|--------|--------------------|--------|--------------------|--------|--------|--------|
A|-0------|-0----------1---0---|-0------|-0----------1---0---|-0------|-0------|-0------|
D|-0------|-0----------1---0---|-0------|-0----------1---0---|-0------|-0------|-0------|


E|--------|--------|--------|--------|--------|--------|--------|--------|--------|
B|--------|--------|--------|--------|--------|--------|--------|--------|--------|
G|--------|--------|--------|--------|--------|--------|--------|--------|--------|
D|--------|--------|--------|--------|--------|--------|--------|--------|--------|
A|-0------|-0------|-0------|-0------|-0------|--------|--------|--------|--------|
D|-0------|-0------|-0------|-0------|-0------|--------|--------|--------|--------|


E|--------|--------|---------------------------------------|--------|--------|--------|
B|--------|--------|---------------------------------------|--------|--------|--------|
G|--------|--------|---------------------------------------|--------|--------|--------|
D|--------|--------|---------------------------------------|--------|--------|--------|
A|--------|--------|---------------------------------------|--------|--------|--------|
D|--------|--------|-0---0---0--0---0-----0---0---0--0--0--|--------|--------|--------|


E|--------|--------|--------|--------|--------|--------|--------|--------|--------|
B|--------|--------|--------|--------|--------|--------|--------|--------|--------|
G|--------|--------|--------|--------|--------|--------|--------|--------|--------|
D|--------|--------|--------|--------|--------|--------|--------|--------|--------|
A|--------|--------|--------|--------|--------|--------|--------|--------|--------|
D|--------|--------|--------|--------|--------|--------|--------|--------|--------|


E|--------|--------|--------|--------|----------------------------------|-----------------------------------------|
B|--------|--------|--------|--------|----------------------------------|-----------------------------------------|
G|--------|--------|--------|--------|----------------------------------|-----------------------------------------|
D|--------|--------|--------|--------|----------------------------------|-----------------------------------------|
A|--------|--------|--------|--------|----------------------------------|-----------------------------------------|
D|--------|--------|--------|--------|------0---0---0--0---0-----0---0--|----0--0--0--0---0---0--0---0-----0---0--|


E|-----------------------------------------|-----------------------------------------|
B|-----------------------------------------|-----------------------------------------|
G|-----------------------------------------|-----------------------------------------|
D|-----------------------------------------|-----------------------------------------|
A|-----------------------------------------|-----------------------------------------|
D|----0--0--0--0---0---0--0---0-----0---0--|----0--0--0--0---0---0--0---0------12-12-|


E|-----------------------------------------|-----------------------------------------|
B|-----------------------------------------|-----------------------------------------|
G|-----------------------------------------|-----------------------------------------|
D|-----------------------------------------|-----------------------------------------|
A|-----------------------------------------|-----------------------------------------|
D|-12-12-12-12-0---0---0--0---0-----0---0--|----0--0--0--0---0---0--0---0-----0---0--|


E|-----------------------------------------|-------------------------------|-------------------------------------|
B|-----------------------------------------|-------------------------------|-------------------------------------|
G|-----------------------------------------|-------------------------------|-------------------------------------|
D|-----------------------------------------|-------------------------------|-------------------------------------|
A|-----------------------------------------|-------------0-----------------|-------------0---1---2---0---1---2---|
D|----0--0--0--0---0---0--0---0-----0---0--|----0--0--0--0-----------------|-12-12-12-12-0---1---2---0---1---2---|


E|---------------------------------|---------------------------------|---------------------------------|
B|---------------------------------|---------------------------------|---------------------------------|
G|---------------------------------|---------------------------------|---------------------------------|
D|---------------------------------|---------------------------------|---------------------------------|
A|-3---0---1---2---3---4---6---6---|-6---6---0---1---2---0---1---2---|-3---0---1---2---3---4---6---6---|
D|-3---0---1---2---3---4---6---6---|-6---6---0---1---2---0---1---2---|-3---0---1---2---3---4---6---6---|


E|---------------------------------|---------------------------------|---------------------------------|
B|---------------------------------|---------------------------------|---------------------------------|
G|---------------------------------|---------------------------------|---------------------------------|
D|---------------------------------|---------------------------------|---------------------------------|
A|-6---6---0---1---2---0---1---2---|-3---0---1---2---3---4---6---6---|-6---6---0---1---2---0---1---2---|
D|-6---6---0---1---2---0---1---2---|-3---0---1---2---3---4---6---6---|-6---6---0---1---2---0---1---2---|


E|---------------------------------|---------------------------------|---------------------------------|
B|---------------------------------|---------------------------------|---------------------------------|
G|---------------------------------|---------------------------------|---------------------------------|
D|---------------------------------|---------------------------------|---------------------------------|
A|-3---0---1---2---3---4---6---6---|-6---6---0---1---2---0---1---2---|-3---0---1---2---3---4---6---6---|
D|-3---0---1---2---3---4---6---6---|-6---6---0---1---2---0---1---2---|-3---0---1---2---3---4---6---6---|


E|---------------------------------|---------------------------------|---------------------------------|
B|---------------------------------|---------------------------------|---------------------------------|
G|---------------------------------|---------------------------------|---------------------------------|
D|---------------------------------|---------------------------------|---------------------------------|
A|-6---6---0---1---2---0---1---2---|-3---0---1---2---3---4---6---6---|-6---6---0---1---2---0---1---2---|
D|-6---6---0---1---2---0---1---2---|-3---0---1---2---3---4---6---6---|-6---6---0---1---2---0---1---2---|


E|---------------------------------|---------------------------------|---------------------------------|
B|---------------------------------|---------------------------------|---------------------------------|
G|---------------------------------|---------------------------------|---------------------------------|
D|---------------------------------|---------------------------------|---------------------------------|
A|-3---0---1---2---3---4---6---6---|-6---6---0---1---2---0---1---2---|-3---0---1---2---3---4---6---6---|
D|-3---0---1---2---3---4---6---6---|-6---6---0---1---2---0---1---2---|-3---0---1---2---3---4---6---6---|


E|-----------------------------------|-------------------------------------|-----------------------------------|
B|-----------------------------------|-------------------------------------|-----------------------------------|
G|-----------------------------------|-------------------------------------|-----------------------------------|
D|-----------------------------------|-------------------------------------|-----------------------------------|
A|-6---6-----------------------------|-------------------------------------|-----------------------------------|
D|-6---6---0---0---0---0--0---0---0--|----0--0---0---0---0--0---0---0---0--|-0---0---0---0--0---0---0---0--0---|


E|--------------------------------|-------------|-------------|-------------|
B|--------------------------------|-------------|-------------|-------------|
G|--------------------------------|-------------|-------------|-------------|
D|--------------------------------|-------------|-------------|-------------|
A|--------------------------------|-------------|-------------|-------------|
D|-0---0---0--0-------------------|-------------|-------------|-------------|





Track 2: Distorted Guitar

E|--------|--------|--------|--------|--------|--------|--------|--------|--------|
B|--------|--------|--------|--------|--------|--------|--------|--------|--------|
G|--------|--------|--------|--------|--------|--------|--------|--------|--------|
D|--------|--------|--------|--------|--------|--------|--------|--------|--------|
A|--------|--------|--------|--------|--------|--------|--------|--------|--------|
D|--------|--------|--------|--------|--------|--------|--------|--------|--------|


E|--------|--------|--------|--------|--------|--------|--------|--------|--------|
B|--------|--------|--------|--------|--------|--------|--------|--------|--------|
G|--------|--------|--------|--------|--------|--------|--------|--------|--------|
D|--------|--------|--------|--------|--------|--------|--------|--------|--------|
A|--------|--------|--------|--------|--------|--------|--------|--------|--------|
D|--------|--------|--------|--------|--------|--------|--------|--------|--------|


E|--------|--------|--------|--------|--------|--------|--------|--------|--------|
B|--------|--------|--------|--------|--------|--------|--------|--------|--------|
G|--------|--------|--------|--------|--------|--------|--------|--------|--------|
D|--------|--------|--------|--------|--------|--------|--------|--------|--------|
A|--------|--------|--------|--------|--------|--------|--------|--------|--------|
D|--------|--------|--------|--------|--------|--------|--------|--------|--------|


E|--------|--------|--------|--------|--------|--------|--------|--------|--------|
B|--------|--------|--------|--------|--------|--------|--------|--------|--------|
G|--------|--------|--------|--------|--------|--------|--------|--------|--------|
D|--------|--------|--------|--------|--------|--------|--------|--------|--------|
A|--------|--------|--------|--------|--------|--------|--------|--------|--------|
D|--------|--------|--------|--------|--------|--------|--------|--------|--------|


E|--------|--------|--------|--------|--------|--------|--------|--------|--------|
B|--------|--------|--------|--------|--------|--------|--------|--------|--------|
G|--------|--------|--------|--------|--------|--------|--------|--------|--------|
D|--------|--------|--------|--------|--------|--------|--------|--------|--------|
A|--------|--------|--------|--------|--------|--------|--------|--------|--------|
D|--------|--------|--------|--------|--------|--------|--------|--------|--------|


E|--------|--------|--------|--------|--------|--------|--------|--------|--------|
B|--------|--------|--------|--------|--------|--------|--------|--------|--------|
G|--------|--------|--------|--------|--------|--------|--------|--------|--------|
D|--------|--------|--------|--------|--------|--------|--------|--------|--------|
A|--------|--------|--------|--------|--------|--------|--------|--------|--------|
D|--------|--------|--------|--------|--------|--------|--------|--------|--------|


E|--------|--------|--------|--------|--------|--------|--------|--------|--------|
B|--------|--------|--------|--------|--------|--------|--------|--------|--------|
G|--------|--------|--------|--------|--------|--------|--------|--------|--------|
D|--------|--------|--------|--------|--------|--------|--------|--------|--------|
A|--------|--------|--------|--------|--------|--------|--------|--------|--------|
D|--------|--------|--------|--------|--------|--------|--------|--------|--------|


E|--------|--------|--------|--------|--------|--------|--------|--------|--------|
B|--------|--------|--------|--------|--------|--------|--------|--------|--------|
G|--------|--------|--------|--------|--------|--------|--------|--------|--------|
D|--------|--------|--------|--------|--------|--------|--------|--------|--------|
A|--------|--------|--------|--------|--------|--------|--------|--------|--------|
D|--------|--------|--------|--------|--------|--------|--------|--------|--------|


E|--------|--------|--------|--------|--------|--------|--------|--------|--------|
B|--------|--------|--------|--------|--------|--------|--------|--------|--------|
G|--------|--------|--------|--------|--------|--------|--------|--------|--------|
D|--------|--------|--------|--------|--------|--------|--------|--------|--------|
A|--------|--------|--------|--------|--------|--------|--------|--------|--------|
D|--------|--------|--------|--------|--------|--------|--------|--------|--------|


E|--------|--------|--------|--------|--------|--------|--------|--------|--------|
B|--------|--------|--------|--------|--------|--------|--------|--------|--------|
G|--------|--------|--------|--------|--------|--------|--------|--------|--------|
D|--------|--------|--------|--------|--------|--------|--------|--------|--------|
A|--------|--------|--------|--------|--------|--------|--------|--------|--------|
D|--------|--------|--------|--------|--------|--------|--------|--------|--------|


E|--------|--------|--------|--------|--------|--------|--------|--------|--------|
B|--------|--------|--------|--------|--------|--------|--------|--------|--------|
G|--------|--------|--------|--------|--------|--------|--------|--------|--------|
D|--------|--------|--------|--------|--------|--------|--------|--------|--------|
A|--------|--------|--------|--------|--------|--------|--------|--------|--------|
D|--------|--------|--------|--------|--------|--------|--------|--------|--------|


E|--------|--------|--------|--------|--------|--------|--------|--------|--------|
B|--------|--------|--------|--------|--------|--------|--------|--------|--------|
G|--------|--------|--------|--------|--------|--------|--------|--------|--------|
D|--------|--------|--------|--------|--------|--------|--------|--------|--------|
A|--------|--------|--------|--------|--------|--------|--------|--------|--------|
D|--------|--------|--------|--------|--------|--------|--------|--------|--------|


E|--------|--------|--------|--------|--------|--------|--------|--------|--------|
B|--------|--------|--------|--------|--------|--------|--------|--------|--------|
G|--------|--------|--------|--------|--------|--------|--------|--------|--------|
D|--------|--------|--------|--------|--------|--------|--------|--------|--------|
A|--------|--------|--------|--------|--------|--------|--------|--------|--------|
D|--------|--------|--------|--------|--------|--------|--------|--------|--------|


E|--------|--------|--------|--------|--------|--------|--------|--------|--------|
B|--------|--------|--------|--------|--------|--------|--------|--------|--------|
G|--------|--------|--------|--------|--------|--------|--------|--------|--------|
D|--------|--------|--------|--------|--------|--------|--------|--------|--------|
A|--------|--------|--------|--------|--------|--------|--------|--------|--------|
D|--------|--------|--------|--------|--------|--------|--------|--------|--------|


E|--------|--------|--------|--------|--------|--------|--------|--------|--------|
B|--------|--------|--------|--------|--------|--------|--------|--------|--------|
G|--------|--------|--------|--------|--------|--------|--------|--------|--------|
D|--------|--------|--------|--------|--------|--------|--------|--------|--------|
A|--------|--------|--------|--------|--------|--------|--------|--------|--------|
D|--------|--------|--------|--------|--------|--------|--------|--------|--------|


E|--------|--------|--------|--------|--------|--------|
B|--------|--------|--------|--------|--------|--------|
G|--------|--------|--------|--------|--------|--------|
D|--------|--------|--------|--------|--------|--------|
A|--------|--------|--------|--------|--------|--------|
D|--------|--------|--------|--------|--------|--------|





Track 3: Distorted With Wah

E|--------|--------|--------|--------|--------|--------|--------|--------|--------|
B|--------|--------|--------|--------|--------|--------|--------|--------|--------|
G|--------|--------|--------|--------|--------|--------|--------|--------|--------|
D|--------|--------|--------|--------|--------|--------|--------|--------|--------|
A|--------|--------|--------|--------|--------|--------|--------|--------|--------|
D|--------|--------|--------|--------|--------|--------|--------|--------|--------|


E|--------|--------|--------|--------|--------|--------|--------|--------|--------|
B|--------|--------|--------|--------|--------|--------|--------|--------|--------|
G|--------|--------|--------|--------|--------|--------|--------|--------|--------|
D|--------|--------|--------|--------|--------|--------|--------|--------|--------|
A|--------|--------|--------|--------|--------|--------|--------|--------|--------|
D|--------|--------|--------|--------|--------|--------|--------|--------|--------|


E|--------|--------|--------|--------|--------|--------|--------|--------|--------|
B|--------|--------|--------|--------|--------|--------|--------|--------|--------|
G|--------|--------|--------|--------|--------|--------|--------|--------|--------|
D|--------|--------|--------|--------|--------|--------|--------|--------|--------|
A|--------|--------|--------|--------|--------|--------|--------|--------|--------|
D|--------|--------|--------|--------|--------|--------|--------|--------|--------|


E|--------|--------|--------|--------|--------|--------|--------|--------|--------|
B|--------|--------|--------|--------|--------|--------|--------|--------|--------|
G|--------|--------|--------|--------|--------|--------|--------|--------|--------|
D|--------|--------|--------|--------|--------|--------|--------|--------|--------|
A|--------|--------|--------|--------|--------|--------|--------|--------|--------|
D|--------|--------|--------|--------|--------|--------|--------|--------|--------|


E|--------|--------|--------|--------|--------|--------|--------|--------|--------|
B|--------|--------|--------|--------|--------|--------|--------|--------|--------|
G|--------|--------|--------|--------|--------|--------|--------|--------|--------|
D|--------|--------|--------|--------|--------|--------|--------|--------|--------|
A|--------|--------|--------|--------|--------|--------|--------|--------|--------|
D|--------|--------|--------|--------|--------|--------|--------|--------|--------|


E|--------|--------|--------|--------|--------|--------|--------|--------|--------|
B|--------|--------|--------|--------|--------|--------|--------|--------|--------|
G|--------|--------|--------|--------|--------|--------|--------|--------|--------|
D|--------|--------|--------|--------|--------|--------|--------|--------|--------|
A|--------|--------|--------|--------|--------|--------|--------|--------|--------|
D|--------|--------|--------|--------|--------|--------|--------|--------|--------|


E|--------|--------|--------|--------|--------|--------|--------|--------|--------|
B|--------|--------|--------|--------|--------|--------|--------|--------|--------|
G|--------|--------|--------|--------|--------|--------|--------|--------|--------|
D|--------|--------|--------|--------|--------|--------|--------|--------|--------|
A|--------|--------|--------|--------|--------|--------|--------|--------|--------|
D|--------|--------|--------|--------|--------|--------|--------|--------|--------|


E|--------|--------|--------|--------|--------|--------|--------|--------|--------|
B|--------|--------|--------|--------|--------|--------|--------|--------|--------|
G|--------|--------|--------|--------|--------|--------|--------|--------|--------|
D|--------|--------|--------|--------|--------|--------|--------|--------|--------|
A|--------|--------|--------|--------|--------|--------|--------|--------|--------|
D|--------|--------|--------|--------|--------|--------|--------|--------|--------|


E|--------|--------|--------|--------|--------|--------|--------------------|---------------------------------|
B|--------|--------|--------|--------|--------|--------|--------------------|---------------------------------|
G|--------|--------|--------|--------|--------|--------|--------------------|---------------------------------|
D|--------|--------|--------|--------|--------|--------|--------------------|---------------------------------|
A|--------|--------|--------|--------|--------|--------|--------------------|---------------------------------|
D|--------|--------|--------|--------|--------|--------|----------------0---|-0---2---3---6---2---5---8---5---|


E|------------------------------|---------------------------------|------------------------------|
B|------------------------------|---------------------------------|------------------------------|
G|------------------------------|---------------------------------|------------------------------|
D|------------------------------|---------------------------------|------------------------------|
A|------------------------------|---------------------------------|------------------------------|
D|-6---9---6---5---8--------0---|-0---2---3---6---2---5---8---5---|-6---9---6---5---8--------0---|


E|---------------------------------|------------------------------|---------------------------------|
B|---------------------------------|------------------------------|---------------------------------|
G|---------------------------------|------------------------------|---------------------------------|
D|---------------------------------|------------------------------|---------------------------------|
A|---------------------------------|------------------------------|---------------------------------|
D|-0---2---3---6---2---5---8---5---|-6---9---6---5---8--------0---|-0---2---3---6---2---5---8---5---|


E|------------------------------|---------------------------------|------------------------------|
B|------------------------------|---------------------------------|------------------------------|
G|------------------------------|---------------------------------|------------------------------|
D|------------------------------|---------------------------------|------------------------------|
A|------------------------------|---------------------------------|------------------------------|
D|-6---9---6---5---8--------0---|-0---2---3---6---2---5---8---5---|-6---9---6---5---8--------0---|


E|---------------------------------|------------------------------|---------------------------------|
B|---------------------------------|------------------------------|---------------------------------|
G|---------------------------------|------------------------------|---------------------------------|
D|---------------------------------|------------------------------|---------------------------------|
A|---------------------------------|------------------------------|---------------------------------|
D|-0---2---3---6---2---5---8---5---|-6---9---6---5---8--------0---|-0---2---3---6---2---5---8---5---|


E|------------------------------|--------|---------------------------|-----------------------------------------|
B|------------------------------|--------|---------------------------|-------------------------------8---6--8--|
G|------------------------------|--------|---------------------------|-----5-----7-----5--6--7---6-------------|
D|------------------------------|--------|-------------3---5---3--5--|-7------7-----7--------------------------|
A|------------------------------|--------|-5-----5--5----------------|-----------------------------------------|
D|-6---9---6---5---8--------0---|--------|---------------------------|-----------------------------------------|


E|-------------------------------------|-----8---8---5--13-------|-15-15-15-13----16-16-16-13----15-15-15-13----16-|
B|-8---6--8---6--8---8---6---8---6--8--|-6-----------------------|-------------15-------------15-------------15----|
G|-------------------------------------|-------------------------|-------------------------------------------------|
D|-------------------------------------|-------------------------|-------------------------------------------------|
A|-------------------------------------|-------------------------|-------------------------------------------------|
D|-------------------------------------|-------------------------|-------------------------------------------------|


E|-16----15-15-13----15-13----13-------------13-12-|----12-------------------------------------------|
B|----15----------15-------15----15-15-13----------|-15----15-13-15-14-12----12----------------------|
G|----------------------------------------14-------|----------------------14----14-13-14-13-12----12-|
D|-------------------------------------------------|-------------------------------------------15----|
A|-------------------------------------------------|-------------------------------------------------|
D|-------------------------------------------------|-------------------------------------------------|


E|-----------------------------------------|------------------------|--------------------------------|
B|-----------------------------------------|----------13-15-15-15---|---------15--15--15--13-15--15--|
G|-----------------------------------------|------------------------|--------------------------------|
D|-15-14--15-14-12--14-12----12-----12-----|------------------------|--------------------------------|
A|------------------------15----15-----15--|-15---------------------|--------------------------------|
D|-----------------------------------------|------------------------|--------------------------------|


E|----------------------12-13-12-------------|----12-13-12-------------17--17--16---|
B|-15--15--15--13-15-15----------16-15-13-15-|-15----------16-15-13-13--------------|
G|-------------------------------------------|--------------------------------------|
D|-------------------------------------------|--------------------------------------|
A|-------------------------------------------|--------------------------------------|
D|-------------------------------------------|--------------------------------------|


E|------15---13-13------------|---------------------------------------|----------------------------------------|
B|-----------------15-13---13-|------10------------13-----------------|----------------------------------------|
G|----------------------------|---------13-12--12---------------------|----------------------------------------|
D|----------------------------|-----------------------12-12--10-------|------10--12-12-12-12-12-12-12-14-14-15-|
A|----------------------------|---------------------------------12-10-|-10-------------------------------------|
D|----------------------------|---------------------------------------|----------------------------------------|


E|----------------|-------------|-------------|-------------|-------------|--------|
B|----------------|-------------|-------------|-------------|-------------|--------|
G|---------14-----|------14-----|------14-----|------14-----|------14-----|--------|
D|----------------|-------------|-------------|-------------|-------------|--------|
A|----------------|-------------|-------------|-------------|-------------|--------|
D|----------------|-------------|-------------|-------------|-------------|--------|


E|--------|--------|--------|--------|--------|--------|--------|--------|--------|
B|--------|--------|--------|--------|--------|--------|--------|--------|--------|
G|--------|--------|--------|--------|--------|--------|--------|--------|--------|
D|--------|--------|--------|--------|--------|--------|--------|--------|--------|
A|--------|--------|--------|--------|--------|--------|--------|--------|--------|
D|--------|--------|--------|--------|--------|--------|--------|--------|--------|


E|--------|--------|--------|--------|--------|--------|--------|--------|--------|
B|--------|--------|--------|--------|--------|--------|--------|--------|--------|
G|--------|--------|--------|--------|--------|--------|--------|--------|--------|
D|--------|--------|--------|--------|--------|--------|--------|--------|--------|
A|--------|--------|--------|--------|--------|--------|--------|--------|--------|
D|--------|--------|--------|--------|--------|--------|--------|--------|--------|


E|--------|--------|--------|--------|--------|--------|--------|--------|
B|--------|--------|--------|--------|--------|--------|--------|--------|
G|--------|--------|--------|--------|--------|--------|--------|--------|
D|--------|--------|--------|--------|--------|--------|--------|--------|
A|--------|--------|--------|--------|--------|--------|--------|--------|
D|--------|--------|--------|--------|--------|--------|--------|--------|





Track 4: Distorted Guitar

E|--------|--------|--------|--------|--------|--------|--------|--------|--------|
B|--------|--------|--------|--------|--------|--------|--------|--------|--------|
G|--------|--------|--------|--------|--------|--------|--------|--------|--------|
D|--------|--------|--------|--------|--------|--------|--------|--------|--------|
A|--------|--------|--------|--------|--------|--------|--------|--------|--------|
D|--------|--------|--------|--------|--------|--------|--------|--------|--------|


E|--------|--------|--------|--------|--------|--------|--------|--------|--------|
B|--------|--------|--------|--------|--------|--------|--------|--------|--------|
G|--------|--------|--------|--------|--------|--------|--------|--------|--------|
D|--------|--------|--------|--------|--------|--------|--------|--------|--------|
A|--------|--------|--------|--------|--------|--------|--------|--------|--------|
D|--------|--------|--------|--------|--------|--------|--------|--------|--------|


E|--------|--------|--------|--------|--------|--------|--------|--------|--------|
B|--------|--------|--------|--------|--------|--------|--------|--------|--------|
G|--------|--------|--------|--------|--------|--------|--------|--------|--------|
D|--------|--------|--------|--------|--------|--------|--------|--------|--------|
A|--------|--------|--------|--------|--------|--------|--------|--------|--------|
D|--------|--------|--------|--------|--------|--------|--------|--------|--------|


E|--------|--------|--------|--------|--------|--------|--------|--------|--------|
B|--------|--------|--------|--------|--------|--------|--------|--------|--------|
G|--------|--------|--------|--------|--------|--------|--------|--------|--------|
D|--------|--------|--------|--------|--------|--------|--------|--------|--------|
A|--------|--------|--------|--------|--------|--------|--------|--------|--------|
D|--------|--------|--------|--------|--------|--------|--------|--------|--------|


E|--------|--------|--------|--------|--------|--------|--------|--------|--------|
B|--------|--------|--------|--------|--------|--------|--------|--------|--------|
G|--------|--------|--------|--------|--------|--------|--------|--------|--------|
D|--------|--------|--------|--------|--------|--------|--------|--------|--------|
A|--------|--------|--------|--------|--------|--------|--------|--------|--------|
D|--------|--------|--------|--------|--------|--------|--------|--------|--------|


E|--------|--------|--------|--------|--------|--------|--------|--------|--------|
B|--------|--------|--------|--------|--------|--------|--------|--------|--------|
G|--------|--------|--------|--------|--------|--------|--------|--------|--------|
D|--------|--------|--------|--------|--------|--------|--------|--------|--------|
A|--------|--------|--------|--------|--------|--------|--------|--------|--------|
D|--------|--------|--------|--------|--------|--------|--------|--------|--------|


E|--------|--------|--------|--------|--------|--------|--------|--------|--------|
B|--------|--------|--------|--------|--------|--------|--------|--------|--------|
G|--------|--------|--------|--------|--------|--------|--------|--------|--------|
D|--------|--------|--------|--------|--------|--------|--------|--------|--------|
A|--------|--------|--------|--------|--------|--------|--------|--------|--------|
D|--------|--------|--------|--------|--------|--------|--------|--------|--------|


E|--------|--------|--------|--------|--------|--------|--------|--------|--------|
B|--------|--------|--------|--------|--------|--------|--------|--------|--------|
G|--------|--------|--------|--------|--------|--------|--------|--------|--------|
D|--------|--------|--------|--------|--------|--------|--------|--------|--------|
A|--------|--------|--------|--------|--------|--------|--------|--------|--------|
D|--------|--------|--------|--------|--------|--------|--------|--------|--------|


E|--------|--------|--------|--------|--------|--------|--------|--------|--------|
B|--------|--------|--------|--------|--------|--------|--------|--------|--------|
G|--------|--------|--------|--------|--------|--------|--------|--------|--------|
D|--------|--------|--------|--------|--------|--------|--------|--------|--------|
A|--------|--------|--------|--------|--------|--------|--------|--------|--------|
D|--------|--------|--------|--------|--------|--------|--------|--------|--------|


E|--------|--------|--------|--------|--------|--------|--------|--------|--------|
B|--------|--------|--------|--------|--------|--------|--------|--------|--------|
G|--------|--------|--------|--------|--------|--------|--------|--------|--------|
D|--------|--------|--------|--------|--------|--------|--------|--------|--------|
A|--------|--------|--------|--------|--------|--------|--------|--------|--------|
D|--------|--------|--------|--------|--------|--------|--------|--------|--------|


E|--------|--------|--------|--------|--------|--------|--------|--------|--------|
B|--------|--------|--------|--------|--------|--------|--------|--------|--------|
G|--------|--------|--------|--------|--------|--------|--------|--------|--------|
D|--------|--------|--------|--------|--------|--------|--------|--------|--------|
A|--------|--------|--------|--------|--------|--------|--------|--------|--------|
D|--------|--------|--------|--------|--------|--------|--------|--------|--------|


E|--------|--------|--------|--------|--------|--------|--------|--------|--------|
B|--------|--------|--------|--------|--------|--------|--------|--------|--------|
G|--------|--------|--------|--------|--------|--------|--------|--------|--------|
D|--------|--------|--------|--------|--------|--------|--------|--------|--------|
A|--------|--------|--------|--------|--------|--------|--------|--------|--------|
D|--------|--------|--------|--------|--------|--------|--------|--------|--------|


E|-------------|-------------|--------|--------|--------|--------|--------|--------|
B|-------------|-------------|--------|--------|--------|--------|--------|--------|
G|-------------|-------------|--------|--------|--------|--------|--------|--------|
D|-------------|-------------|--------|--------|--------|--------|--------|--------|
A|-------------|-------------|--------|--------|--------|--------|--------|--------|
D|-------------|-------------|--------|--------|--------|--------|--------|--------|


E|--------|--------|--------|--------|--------|--------|--------|--------|--------|
B|--------|--------|--------|--------|--------|--------|--------|--------|--------|
G|--------|--------|--------|--------|--------|--------|--------|--------|--------|
D|--------|--------|--------|--------|--------|--------|--------|--------|--------|
A|--------|--------|--------|--------|--------|--------|--------|--------|--------|
D|--------|--------|--------|--------|--------|--------|--------|--------|--------|


E|--------|--------|--------|--------|--------|--------|--------|--------|--------|
B|--------|--------|--------|--------|--------|--------|--------|--------|--------|
G|--------|--------|--------|--------|--------|--------|--------|--------|--------|
D|--------|--------|--------|--------|--------|--------|--------|--------|--------|
A|--------|--------|--------|--------|--------|--------|--------|--------|--------|
D|--------|--------|--------|--------|--------|--------|--------|--------|--------|


E|--------|--------|--------|--------|--------|--------|--------|
B|--------|--------|--------|--------|--------|--------|--------|
G|--------|--------|--------|--------|--------|--------|--------|
D|--------|--------|--------|--------|--------|--------|--------|
A|--------|--------|--------|--------|--------|--------|--------|
D|--------|--------|--------|--------|--------|--------|--------|





Track 5: Untitled

G|--------|--------|--------|--------|--------|--------|--------|--------|--------|
D|--------|--------|--------|--------|--------|--------|--------|--------|--------|
A|--------|--------|--------|--------|--------|--------|--------|--------|--------|
E|--------|--------|--------|--------|--------|--------|--------|--------|--------|


G|--------|--------|--------|--------|--------|--------|--------|--------|--------|
D|--------|--------|--------|--------|--------|--------|--------|--------|--------|
A|--------|--------|--------|--------|--------|--------|--------|--------|--------|
E|--------|--------|--------|--------|--------|--------|--------|--------|--------|


G|--------|--------|--------|--------|--------|--------|--------|--------|--------|
D|--------|--------|--------|--------|--------|--------|--------|--------|--------|
A|--------|--------|--------|--------|--------|--------|--------|--------|--------|
E|--------|--------|--------|--------|--------|--------|--------|--------|--------|


G|--------|--------|--------|--------|--------|--------|--------|--------|--------|
D|--------|--------|--------|--------|--------|--------|--------|--------|--------|
A|--------|--------|--------|--------|--------|--------|--------|--------|--------|
E|--------|--------|--------|--------|--------|--------|--------|--------|--------|


G|--------|--------|--------|--------|--------|--------|--------|--------|--------|
D|--------|--------|--------|--------|--------|--------|--------|--------|--------|
A|--------|--------|--------|--------|--------|--------|--------|--------|--------|
E|--------|--------|--------|--------|--------|--------|--------|--------|--------|


G|--------|--------|--------|--------|--------|--------|--------|--------|--------|
D|--------|--------|--------|--------|--------|--------|--------|--------|--------|
A|--------|--------|--------|--------|--------|--------|--------|--------|--------|
E|--------|--------|--------|--------|--------|--------|--------|--------|--------|


G|--------|--------|--------|--------|--------|--------|--------|--------|--------|
D|--------|--------|--------|--------|--------|--------|--------|--------|--------|
A|--------|--------|--------|--------|--------|--------|--------|--------|--------|
E|--------|--------|--------|--------|--------|--------|--------|--------|--------|


G|--------|--------|--------|--------|--------|--------|--------|--------|--------|
D|--------|--------|--------|--------|--------|--------|--------|--------|--------|
A|--------|--------|--------|--------|--------|--------|--------|--------|--------|
E|--------|--------|--------|--------|--------|--------|--------|--------|--------|


G|--------|--------|--------|--------|--------|--------|--------|--------|--------|
D|--------|--------|--------|--------|--------|--------|--------|--------|--------|
A|--------|--------|--------|--------|--------|--------|--------|--------|--------|
E|--------|--------|--------|--------|--------|--------|--------|--------|--------|


G|--------|--------|--------|--------|--------|--------|--------|--------|--------|
D|--------|--------|--------|--------|--------|--------|--------|--------|--------|
A|--------|--------|--------|--------|--------|--------|--------|--------|--------|
E|--------|--------|--------|--------|--------|--------|--------|--------|--------|


G|--------|--------|--------|--------|--------|--------|--------|--------|--------|
D|--------|--------|--------|--------|--------|--------|--------|--------|--------|
A|--------|--------|--------|--------|--------|--------|--------|--------|--------|
E|--------|--------|--------|--------|--------|--------|--------|--------|--------|


G|--------|--------|--------|--------|--------|--------|--------|--------|--------|
D|--------|--------|--------|--------|--------|--------|--------|--------|--------|
A|--------|--------|--------|--------|--------|--------|--------|--------|--------|
E|--------|--------|--------|--------|--------|--------|--------|--------|--------|


G|--------|--------|--------|--------|--------|--------|--------|--------|--------|
D|--------|--------|--------|--------|--------|--------|--------|--------|--------|
A|--------|--------|--------|--------|--------|--------|--------|--------|--------|
E|--------|--------|--------|--------|--------|--------|--------|--------|--------|


G|--------|--------|--------|--------|--------|--------|--------|--------|--------|
D|--------|--------|--------|--------|--------|--------|--------|--------|--------|
A|--------|--------|--------|--------|--------|--------|--------|--------|--------|
E|--------|--------|--------|--------|--------|--------|--------|--------|--------|


G|--------|--------|--------|--------|--------|--------|--------|--------|--------|
D|--------|--------|--------|--------|--------|--------|--------|--------|--------|
A|--------|--------|--------|--------|--------|--------|--------|--------|--------|
E|--------|--------|--------|--------|--------|--------|--------|--------|--------|


G|--------|--------|--------|--------|--------|--------|
D|--------|--------|--------|--------|--------|--------|
A|--------|--------|--------|--------|--------|--------|
E|--------|--------|--------|--------|--------|--------|