Menu:

 

Search:

 

pantera - 5 minutes alone:

 



Title: 5 Minutes Alone
Artist: 
Album: Far Beyond Driven
Author: Pantera


Track 1: Rhythm Guitar

D|--------|---------------------------------------|-----------------------------------------|
A|--------|---------------------------------------|-----------------------------------------|
F|--------|---------------------------------------|-----------------------------------------|
C|--------|---------------------------------------|-----------------------------------------|
G|--------|-5--7--2---2---5--7--2-------2--2---2--|-5--7--2---2---8--5--2------2--2--2---2--|
D|--------|-3--5--0---0---3--5--0-------0--0---0--|-3--5--0---0---6--3--0------0--0--0---0--|


D|---------------------------------------|---------------------------------------|
A|---------------------------------------|---------------------------------------|
F|---------------------------------------|---------------------------------------|
C|---------------------------------------|---------------------------------------|
G|-5--7--2---2---5--7--2-------2--2---2--|-5--7--2---2---8--5--2---2---2--2---2--|
D|-3--5--0---0---3--5--0-------0--0---0--|-3--5--0---0---6--3--0---0---0--0---0--|


D|-----------------------------------------|-----------------------------------------|
A|-----------------------------------------|-----------------------------------------|
F|-----------------------------------------|-----------------------------------------|
C|-----------------------------------------|-----------------------------------------|
G|-5--7--2---2---5--7--2------2--2--2---2--|-5--7--2---2---8--5--2------2--2--2---2--|
D|-3--5--0---0---3--5--0------0--0--0---0--|-3--5--0---0---6--3--0------0--0--0---0--|


D|-----------------------------------------|---------------------------------------|
A|-----------------------------------------|---------------------------------------|
F|-----------------------------------------|---------------------------------------|
C|-----------------------------------------|---------------------------------------|
G|-5--7--2---2---5--7--2------2--2--2---2--|-5--7--2---2---8--5--2---2---2--2---2--|
D|-3--5--0---0---3--5--0------0--0--0---0--|-3--5--0---0---6--3--0---0---0--0---0--|


D|-----------------------------------------------|---------------------------------------|
A|-----------------------------------------------|---------------------------------------|
F|-----------------------------------------------|---------------------------------------|
C|-----9-----------------------------------------|-----2---2---2---2---2--2-----2--2--2--|
G|-9------9--8--7--5-----5--------4--------2-----|-----2---2---2---2---2--2-----2--2--2--|
D|--------------------7-----5--3-----3--1-----1--|-----0---0---0---0---0--0-----0--0--0--|


D|---------------------------------------|---------------------------------------|
A|---------------------------------------|---------------------------------------|
F|---------------------------------------|---------------------------------------|
C|-----2---2---2---2---2--2-----2--2--2--|-----1---1---1---1---1--1-----1--1--1--|
G|-----2---2---2---2---2--2-----2--2--2--|-----1---1---1---1---1--1-----1--1--1--|
D|-----0---0---0---0---0--0-----0--0--0--|-----0---0---0---0---0--0-----0--0--0--|


D|---------------------------------------|---------------------------------------|
A|---------------------------------------|---------------------------------------|
F|---------------------------------------|---------------------------------------|
C|-----1---1---1---1---1--1-----1--1--1--|-----2---2---2---2---2--2-----2--2--2--|
G|-----1---1---1---1---1--1-----1--1--1--|-----2---2---2---2---2--2-----2--2--2--|
D|-----0---0---0---0---0--0-----0--0--0--|-----0---0---0---0---0--0-----0--0--0--|


D|---------------------------------------|---------------------------------------|
A|---------------------------------------|---------------------------------------|
F|---------------------------------------|---------------------------------------|
C|-----2---2---2---2---2--2-----2--2--2--|-----1---1---1---1---1--1-----1--1--1--|
G|-----2---2---2---2---2--2-----2--2--2--|-----1---1---1---1---1--1-----1--1--1--|
D|-----0---0---0---0---0--0-----0--0--0--|-----0---0---0---0---0--0-----0--0--0--|


D|---------------------------------------|-----------------------------------|-----------------------------------|
A|---------------------------------------|-----------------------------------|-----------------------------------|
F|---------------------------------------|-----------------------------------|-----------------------------------|
C|-----1---1---1---1---1--1-----1--1--1--|---------5-----------------7---7---|---------5-----------------7---7---|
G|-----1---1---1---1---1--1-----1--1--1--|-----7-------6---6-----------------|-----7-------6---6-----------------|
D|-----0---0---0---0---0--0-----0--0--0--|-0------------------5--5-----------|-0------------------5--5-----------|


D|-----------------------------------|----------------------------------|---------------------------------------|
A|-----------------------------------|----------------------------------|---------------------------------------|
F|-----------------------------------|----------------------------------|---------------------------------------|
C|---------5-----------------7---7---|---------5------------------------|-----2---2---2---2---2--2-----2--2--2--|
G|-----7-------6---6-----------------|-----7-------6---6----------------|-----2---2---2---2---2--2-----2--2--2--|
D|-0------------------5--5-----------|-0------------------5--5--5--5----|-----0---0---0---0---0--0-----0--0--0--|


D|---------------------------------------|-----------------|-------------------------------------------|
A|---------------------------------------|-----------------|-------------------------------------------|
F|---------------------------------------|-----------------|-------------------------------------------|
C|-----2---2---2---2---2--2-----2--2--2--|-----------------|-------------------------------------------|
G|-----2---2---2---2---2--2-----2--2--2--|-----------------|-5--7--2---2--2--5--7--2------2--2--2------|
D|-----0---0---0---0---0--0-----0--0--0--|-7-----2----1----|-3--5--0---0--0--3--5--0------0--0--0---3--|


D|-----------------|-------------------------------------------|-----------------|
A|-----------------|-------------------------------------------|-----------------|
F|-----------------|-------------------------------------------|-----------------|
C|-----------------|-------------------------------------------|-----------------|
G|-----------------|-5--7--2---2--2--5--7--2------2--2--2------|-----------------|
D|-7-----6----1----|-3--5--0---0--0--3--5--0------0--0--0---3--|-7-----6----5----|


D|-------------------------------------------|-----------------|-----------------------------------------|
A|-------------------------------------------|-----------------|-----------------------------------------|
F|-------------------------------------------|-----------------|-----------------------------------------|
C|-------------------------------------------|-----------------|-----------------------------------------|
G|-5--7--2---2--2--5--7--2------2--2--2------|-----------------|-5--7--2---2---5--7--2------2--2--2---2--|
D|-3--5--0---0--0--3--5--0------0--0--0---3--|-7-----2----1----|-3--5--0---0---3--5--0------0--0--0---0--|


D|-----------------------------------------|-----------------------------------------|
A|-----------------------------------------|-----------------------------------------|
F|-----------------------------------------|-----------------------------------------|
C|-----------------------------------------|-----------------------------------------|
G|-5--7--2---2---8--5--2------2--2--2---2--|-5--7--2---2---5--7--2------2--2--2---2--|
D|-3--5--0---0---6--3--0------0--0--0---0--|-3--5--0---0---3--5--0------0--0--0---0--|


D|---------------------------------------|-----------------------------------------|
A|---------------------------------------|-----------------------------------------|
F|---------------------------------------|-----------------------------------------|
C|---------------------------------------|-----------------------------------------|
G|-5--7--2---2---8--5--2---2---2--2---2--|-5--7--2---2---5--7--2------2--2--2---2--|
D|-3--5--0---0---6--3--0---0---0--0---0--|-3--5--0---0---3--5--0------0--0--0---0--|


D|-----------------------------------------|-----------------------------------------|
A|-----------------------------------------|-----------------------------------------|
F|-----------------------------------------|-----------------------------------------|
C|-----------------------------------------|-----------------------------------------|
G|-5--7--2---2---8--5--2------2--2--2---2--|-5--7--2---2---5--7--2------2--2--2---2--|
D|-3--5--0---0---6--3--0------0--0--0---0--|-3--5--0---0---3--5--0------0--0--0---0--|


D|---------------------------------------|-----------------------------------------------|
A|---------------------------------------|-----------------------------------------------|
F|---------------------------------------|-----------------------------------------------|
C|---------------------------------------|-----9-----------------------------------------|
G|-5--7--2---2---8--5--2---2---2--2---2--|-9------9--8--7--5-----5--------4--------2-----|
D|-3--5--0---0---6--3--0---0---0--0---0--|--------------------7-----5--3-----3--1-----1--|


D|---------------------------------------|---------------------------------------|
A|---------------------------------------|---------------------------------------|
F|---------------------------------------|---------------------------------------|
C|-----2---2---2---2---2--2-----2--2--2--|-----2---2---2---2---2--2-----2--2--2--|
G|-----2---2---2---2---2--2-----2--2--2--|-----2---2---2---2---2--2-----2--2--2--|
D|-----0---0---0---0---0--0-----0--0--0--|-----0---0---0---0---0--0-----0--0--0--|


D|---------------------------------------|---------------------------------------|
A|---------------------------------------|---------------------------------------|
F|---------------------------------------|---------------------------------------|
C|-----1---1---1---1---1--1-----1--1--1--|-----1---1---1---1---1--1-----1--1--1--|
G|-----1---1---1---1---1--1-----1--1--1--|-----1---1---1---1---1--1-----1--1--1--|
D|-----0---0---0---0---0--0-----0--0--0--|-----0---0---0---0---0--0-----0--0--0--|


D|---------------------------------------|---------------------------------------|
A|---------------------------------------|---------------------------------------|
F|---------------------------------------|---------------------------------------|
C|-----2---2---2---2---2--2-----2--2--2--|-----2---2---2---2---2--2-----2--2--2--|
G|-----2---2---2---2---2--2-----2--2--2--|-----2---2---2---2---2--2-----2--2--2--|
D|-----0---0---0---0---0--0-----0--0--0--|-----0---0---0---0---0--0-----0--0--0--|


D|---------------------------------------|---------------------------------------|
A|---------------------------------------|---------------------------------------|
F|---------------------------------------|---------------------------------------|
C|-----1---1---1---1---1--1-----1--1--1--|-----1---1---1---1---1--1-----1--1--1--|
G|-----1---1---1---1---1--1-----1--1--1--|-----1---1---1---1---1--1-----1--1--1--|
D|-----0---0---0---0---0--0-----0--0--0--|-----0---0---0---0---0--0-----0--0--0--|


D|-----------------------------------|-----------------------------------|-----------------------------------|
A|-----------------------------------|-----------------------------------|-----------------------------------|
F|-----------------------------------|-----------------------------------|-----------------------------------|
C|---------5-----------------7---7---|---------5-----------------7---7---|---------5-----------------7---7---|
G|-----7-------6---6-----------------|-----7-------6---6-----------------|-----7-------6---6-----------------|
D|-0------------------5--5-----------|-0------------------5--5-----------|-0------------------5--5-----------|


D|----------------------------------|---------------------------------------|---------------------------------------|
A|----------------------------------|---------------------------------------|---------------------------------------|
F|----------------------------------|---------------------------------------|---------------------------------------|
C|---------5------------------------|-----2---2---2---2---2--2-----2--2--2--|-----2---2---2---2---2--2-----2--2--2--|
G|-----7-------6---6----------------|-----2---2---2---2---2--2-----2--2--2--|-----2---2---2---2---2--2-----2--2--2--|
D|-0------------------5--5--5--5----|-----0---0---0---0---0--0-----0--0--0--|-----0---0---0---0---0--0-----0--0--0--|


D|-----------------|-------------------------------------------|-----------------|
A|-----------------|-------------------------------------------|-----------------|
F|-----------------|-------------------------------------------|-----------------|
C|-----------------|-------------------------------------------|-----------------|
G|-----------------|-5--7--2---2--2--5--7--2------2--2--2------|-----------------|
D|-7-----2----1----|-3--5--0---0--0--3--5--0------0--0--0---3--|-7-----6----1----|


D|-------------------------------------------|-----------------|-------------------------------------------|
A|-------------------------------------------|-----------------|-------------------------------------------|
F|-------------------------------------------|-----------------|-------------------------------------------|
C|-------------------------------------------|-----------------|-------------------------------------------|
G|-5--7--2---2--2--5--7--2------2--2--2------|-----------------|-5--7--2---2--2--5--7--2------2--2--2------|
D|-3--5--0---0--0--3--5--0------0--0--0---3--|-7-----6----5----|-3--5--0---0--0--3--5--0------0--0--0---3--|


D|-----------------|-----------------------------------------|-----------------------------------------|
A|-----------------|-----------------------------------------|-----------------------------------------|
F|-----------------|-----------------------------------------|-----------------------------------------|
C|-----------------|-----------------------------------------|-----------------------------------------|
G|-----------------|-5--7--2---2---5--7--2------2--2--2---2--|-5--7--2---2---8--5--2------2--2--2---2--|
D|-7-----2----1----|-3--5--0---0---3--5--0------0--0--0---0--|-3--5--0---0---6--3--0------0--0--0---0--|


D|-----------------------------------------|---------------------------------------|
A|-----------------------------------------|---------------------------------------|
F|-----------------------------------------|---------------------------------------|
C|-----------------------------------------|---------------------------------------|
G|-5--7--2---2---5--7--2------2--2--2---2--|-5--7--2---2---8--5--2---2---2--2---2--|
D|-3--5--0---0---3--5--0------0--0--0---0--|-3--5--0---0---6--3--0---0---0--0---0--|


D|-----------------------------------------|-----------------------------------------|
A|-----------------------------------------|-----------------------------------------|
F|-----------------------------------------|-----------------------------------------|
C|-----------------------------------------|-----------------------------------------|
G|-5--7--2---2---5--7--2------2--2--2---2--|-5--7--2---2---8--5--2------2--2--2---2--|
D|-3--5--0---0---3--5--0------0--0--0---0--|-3--5--0---0---6--3--0------0--0--0---0--|


D|-----------------------------------------|---------------------------------------|
A|-----------------------------------------|---------------------------------------|
F|-----------------------------------------|---------------------------------------|
C|-----------------------------------------|---------------------------------------|
G|-5--7--2---2---5--7--2------2--2--2---2--|-5--7--2---2---8--5--2---2---2--2---2--|
D|-3--5--0---0---3--5--0------0--0--0---0--|-3--5--0---0---6--3--0---0---0--0---0--|


D|-----------------------------------------------|-----------------------------------------------|
A|-----------------------------------------------|-----------------------------------------------|
F|-----------------------------------------------|-----------------------------------------------|
C|-----9-----------------------------------------|-----9-----------------------------------------|
G|-9------9--8--7--5-----5--------------4--------|-9------9--8--7--5-----5--------4--------2-----|
D|--------------------7-----7--6--5--3-----3--1--|--------------------7-----5--3-----3--1-----1--|


D|-----------------------------------------------|-----------------------------------------------|
A|-----------------------------------------------|-----------------------------------------------|
F|-----------------------------------------------|-----------------------------------------------|
C|-----9-----------------------------------------|-----9-----------------------------------------|
G|-9------9--8--7--5-----5--------------4--------|-9------9--8--7--5-----5--------4--------2-----|
D|--------------------7-----7--6--5--3-----3--1--|--------------------7-----5--3-----3--1-----1--|


D|-----------------------------------------------|-----------------------------------------------|
A|-----------------------------------------------|-----------------------------------------------|
F|-----------------------------------------------|-----------------------------------------------|
C|-----------------------------------------------|-----------------------------------------------|
G|-----5--------------5--------4--------3--------|-----5--------------5--------4--------3--------|
D|-7------7--6--5--4-----4--3-----3--2-----2--1--|-7------7--6--5--4-----4--3-----3--2-----2--1--|


D|-----------------------------------------------|-----------------------------------------------|
A|-----------------------------------------------|-----------------------------------------------|
F|-----------------------------------------------|-----------------------------------------------|
C|-----------------------------------------------|-----------------------------------------------|
G|-----5--------------5--------4--------3--------|-----5--------------5--7--6--6--5--5--4--4--3--|
D|-7------7--6--5--4-----4--3-----3--2-----2--1--|-7------7--6--5--4-----5--4--4--3--3--2--2--1--|


D|-----------------------------------------|-------------------------------|-----------------------------------------|
A|-----------------------------------------|---------------------------3---|-----------------------------------------|
F|-----------------------------------------|---------------------------2---|-----------------------------------------|
C|-----------------------------------------|-------------------------------|-----------------------------------------|
G|-5--7--2---2---5--7--2------2--2--2---2--|-5--7--2---2---8--5------------|-5--7--2---2---5--7--2------2--2--2---2--|
D|-3--5--0---0---3--5--0------0--0--0---0--|-3--5--0---0---5--3------------|-3--5--0---0---3--5--0------0--0--0---0--|


D|---------------------------------------|-------------|-------------------------------------------------|
A|---------------------------------------|-------------|-5--5--3--5-----3-----5--5--3--5-----5--5--3--0--|
F|---------------------------------------|-------------|-5--5--3--5-----3-----5--5--3--5-----5--5--3--0--|
C|---------------------------------------|-------------|-------------------------------------------------|
G|-5--7--2---2---8--5--2---2---2--2---2--|-------------|-------------------------------------------------|
D|-3--5--0---0---6--3--0---0---0--0---0--|-0-----0-----|-------------------------------------------------|


D|---------------------------------6-------|---------------------------------9-------|
A|-5--5--3--5-----3------6-----6------6----|-8--8--6--8-----6------9-----9------9----|
F|-5--5--3--5-----3--5------5--------------|-8--8--6--8-----6--8------8--------------|
C|-----------------------------------------|-----------------------------------------|
G|-----------------------------------------|-----------------------------------------|
D|-----------------------------------------|-----------------------------------------|


D|---------------------------------------------|--------|--------|--------|--------|
A|-8---8--6--8-----6---------------------------|--------|--------|--------|--------|
F|-8---8--6--8-----6---------------------------|--------|--------|--------|--------|
C|---------------------------------------------|--------|--------|--------|--------|
G|--------------------6--6--6--6--6--6--6------|--------|--------|--------|--------|
D|--------------------6--6--6--6--6--6--6--13--|--------|--------|--------|--------|


D|-------------------------------------------------|-------------------------------------------------|
A|-5--5--3--5-----3-----5--5--3--5-----5--5--3--0--|-8--8--6--8-----6-----8--8--6--8-----8--8--6--3--|
F|-5--5--3--5-----3-----5--5--3--5-----5--5--3--0--|-8--8--6--8-----6-----8--8--6--8-----8--8--6--3--|
C|-------------------------------------------------|-------------------------------------------------|
G|-------------------------------------------------|-------------------------------------------------|
D|-------------------------------------------------|-------------------------------------------------|


D|-------------------------------------------------|---------------------------------|
A|-10-10-8--10----8-----10-10-8--10----10-10-8--5--|-12-12-10-12-12-10-13--13--------|
F|-10-10-8--10----8-----10-10-8--10----10-10-8--5--|---------------------------------|
C|-------------------------------------------------|---------------------------------|
G|-------------------------------------------------|---------------------------------|
D|-------------------------------------------------|----------------------------13---|


D|-----------------------------------|---------------------------------------|-----------------------------------|
A|-----------------------------------|---------------------------------------|-----------------------------------|
F|-----------------------------------|---------------------------------------|-----------------------------------|
C|-------------3---------------------|---------------3-----------------------|-------------3---------------------|
G|-3-----------1---3--2----------3---|-3--2----------1---2---3--2--2--3--5---|-3-----------1---3--2----------3---|
D|-1---------------1--0----------1---|-1--0--------------0---1--0--0--1--3---|-1---------------1--0----------1---|


D|---------------------------------------|-----------------------------------|---------------------------------------|
A|---------------------------------------|-----------------------------------|---------------------------------------|
F|---------------------------------------|-----------------------------------|---------------------------------------|
C|---------------3-----------------------|-------------3---------------------|---------------3-----------------------|
G|-3--2----------1---2---3--2--2--3--5---|-3-----------1---3--2----------3---|-3--2----------1---2---3--2--2--3--5---|
D|-1--0--------------0---1--0--0--1--3---|-1---------------1--0----------1---|-1--0--------------0---1--0--0--1--3---|


D|-----------------------------------|---------------------------------------|-------------------------------------------|
A|-----------------------------------|---------------------------------------|-------------------------------------------|
F|-----------------------------------|---------------------------------------|-------------------------------------------|
C|-------------3---------------------|---------------3-----------------------|-------------------------------------------|
G|-3-----------1---3--2----------3---|-3--2----------1---2---3--2--2--3--5---|-2---3--2--2--3--5---2---3--2--2--3--5--13-|
D|-1---------------1--0----------1---|-1--0--------------0---1--0--0--1--3---|-0---1--0--0--1--3---0---1--0--0--1--3-----|


D|---------------------------|-----------------------------------------|-----------------------------------------|
A|---------------------------|-----------------------------------------|-----------------------------------------|
F|---------------------------|-----------------------------------------|-----------------------------------------|
C|---------------------------|-----------------------------------------|-----------------------------------------|
G|-------5--7--2---2---5--7--|-2------2--2--2---2--5--7--2---2---8--5--|-2------2--2--2---2--5--7--2---2---5--7--|
D|-------3--5--0---0---3--5--|-0------0--0--0---0--3--5--0---0---6--3--|-0------0--0--0---0--3--5--0---0---3--5--|


D|-----------------------------------------|---------------------------------------|
A|-----------------------------------------|---------------------------------------|
F|-----------------------------------------|---------------------------------------|
C|-----------------------------------------|---------------------------------------|
G|-2------2--2--2---2--5--7--2---2---8--5--|-2---2---2--2---2--5--7--2---2---5--7--|
D|-0------0--0--0---0--3--5--0---0---6--3--|-0---0---0--0---0--3--5--0---0---3--5--|


D|-----------------------------------------|-----------------------------------------|
A|-----------------------------------------|-----------------------------------------|
F|-----------------------------------------|-----------------------------------------|
C|-----------------------------------------|-----------------------------------------|
G|-2------2--2--2---2--5--7--2---2---8--5--|-2------2--2--2---2--5--7--2---2---5--7--|
D|-0------0--0--0---0--3--5--0---0---6--3--|-0------0--0--0---0--3--5--0---0---3--5--|


D|-----------------------------------------|-------------------------|-------------------------|
A|-----------------------------------------|-------------------------|-------------------------|
F|-----------------------------------------|-------------------------|-------------------------|
C|-----------------------------------------|-------------------------|-------------------------|
G|-2------2--2--2---2--5--7--2---2---8--5--|-2---2---2--2---2--2-----|-2---2--5--5---7---2-----|
D|-0------0--0--0---0--3--5--0---0---6--3--|-0---0---0--0---0--0-----|-0---0--3--3---5---0-----|


D|-------------------------|--------------------------------|---------------------------|
A|-------------------------|--------------------------------|---------------------------|
F|-------------------------|--------------------------------|---------------------------|
C|-------------------------|--------------------------------|---------------------------|
G|-2---2--8--8---8---2-----|-2---2--5--5---7---3----3-------|----3---------3---3--2-----|
D|-0---0--6--6---6---0-----|-0---0--3--3---5---1----1----1--|-1--1---1--1--1---1--0-----|


D|-------------------------|-------------------------|--------------------------------|
A|-------------------------|-------------------------|--------------------------------|
F|-------------------------|-------------------------|--------------------------------|
C|-------------------------|-------------------------|--------------------------------|
G|-2---2--5--5---7---2-----|-2---2--8--8---8---2-----|-2---2--5--5---7---3----3-------|
D|-0---0--3--3---5---0-----|-0---0--6--6---6---0-----|-0---0--3--3---5---1----1----1--|


D|-------------------------------------------|---------------------------------------------|
A|-------------------------------------------|---------------------------------------------|
F|-------------------------------------------|---------------------------------------------|
C|-------------------------------------------|---------------------------------------------|
G|----3---------3---3--5--7--2---------5--7--|-2---------------------5--7--2---------8--5--|
D|-1--1---1--1--1---1--3--5--0---0--0--3--5--|-0---0--0--0--0--0--0--3--5--0---0--0--6--3--|


D|---------------------------------------------|---------------------------------------------|
A|---------------------------------------------|---------------------------------------------|
F|---------------------------------------------|---------------------------------------------|
C|---------------------------------------------|---------------------------------------------|
G|-2---------------------5--7--2---------5--7--|-2---------------------5--7--2---------8--5--|
D|-0---0--0--0--0--0--0--3--5--0---0--0--3--5--|-0---0--0--0--0--0--0--3--5--0---0--0--6--3--|


D|---------------------------------------------|---------------------------------------------|
A|---------------------------------------------|---------------------------------------------|
F|---------------------------------------------|---------------------------------------------|
C|---------------------------------------------|---------------------------------------------|
G|-2---------------------5--7--2---------5--7--|-2---------------------5--7--2---------8--5--|
D|-0---0--0--0--0--0--0--3--5--0---0--0--3--5--|-0---0--0--0--0--0--0--3--5--0---0--0--6--3--|


D|---------------------------------------------|---------------------------------------------|
A|---------------------------------------------|---------------------------------------------|
F|---------------------------------------------|---------------------------------------------|
C|---------------------------------------------|---------------------------------------------|
G|-2---------------------5--7--2---------5--7--|-2---------------------5--7--2---------8--5--|
D|-0---0--0--0--0--0--0--3--5--0---0--0--3--5--|-0---0--0--0--0--0--0--3--5--0---0--0--6--3--|


D|---------------------------------------------|-------------------------------------------|
A|---------------------------------------------|-------------------------------------------|
F|---------------------------------------------|-------------------------------------------|
C|---------------------------------------------|-------------------------------------------|
G|-2---------------------5--7--2---------5--7--|-2---------8--5--2---------5--7--2---------|
D|-0---0--0--0--0--0--0--3--5--0---0--0--3--5--|-0---0--0--6--3--0---0--0--3--5--0---0--0--|


D|-------------------------------------------|-------------------------------------------|
A|-------------------------------------------|-------------------------------------------|
F|-------------------------------------------|-------------------------------------------|
C|-------------------------------------------|-------------------------------------------|
G|-8--5--2---5--7--8---5--7--2---------5--7--|-2---------8--5--2---------5--7--2---------|
D|-6--3--0---3--5--6---3--5--0---0--0--3--5--|-0---0--0--6--3--0---0--0--3--5--0---0--0--|


D|-------------------------------------------|-------------------------------------------|
A|-------------------------------------------|-------------------------------------------|
F|-------------------------------------------|-------------------------------------------|
C|-------------------------------------------|-------------------------------------------|
G|-8--5--2---5--7--8---5--7--2---------5--7--|-2---------8--5--2---------5--7--2---------|
D|-6--3--0---3--5--6---3--5--0---0--0--3--5--|-0---0--0--6--3--0---0--0--3--5--0---0--0--|


D|-------------------------------------------|-------------------------------------------|
A|-------------------------------------------|-------------------------------------------|
F|-------------------------------------------|-------------------------------------------|
C|-------------------------------------------|-------------------------------------------|
G|-8--5--2---5--7--8---5--7--2---------5--7--|-2---------8--5--2---------5--7--2---------|
D|-6--3--0---3--5--6---3--5--0---0--0--3--5--|-0---0--0--6--3--0---0--0--3--5--0---0--0--|


D|-------------------------------------------|-------------------------------------------|
A|-------------------------------------------|-------------------------------------------|
F|-------------------------------------------|-------------------------------------------|
C|-------------------------------------------|-------------------------------------------|
G|-8--5--2---5--7--8---5--7--2---------5--7--|-2---------8--5--2---------5--7--2---------|
D|-6--3--0---3--5--6---3--5--0---0--0--3--5--|-0---0--0--6--3--0---0--0--3--5--0---0--0--|


D|-------------------------------------------|-------------------------------------------|
A|-------------------------------------------|-------------------------------------------|
F|-------------------------------------------|-------------------------------------------|
C|-------------------------------------------|-------------------------------------------|
G|-8--5--2---5--7--8---5--7--2---------5--7--|-2---------8--5--2---------5--7--2---------|
D|-6--3--0---3--5--6---3--5--0---0--0--3--5--|-0---0--0--6--3--0---0--0--3--5--0---0--0--|


D|---------------------------|
A|---------------------------|
F|---------------------------|
C|---------------------------|
G|-8--5--2---5--7--8---------|
D|-6--3--0---3--5--6---------|





Track 2: Rhythm Guitar

D|--------|--------|--------|--------|--------|--------|--------|--------|--------|
A|--------|--------|--------|--------|--------|--------|--------|--------|--------|
F|--------|--------|--------|--------|--------|--------|--------|--------|--------|
C|--------|--------|--------|--------|--------|--------|--------|--------|--------|
G|--------|--------|--------|--------|--------|--------|--------|--------|--------|
D|--------|--------|--------|--------|--------|--------|--------|--------|--------|


D|--------|--------|--------|--------|--------|--------|--------|--------|--------|
A|--------|--------|--------|--------|--------|--------|--------|--------|--------|
F|--------|--------|--------|--------|--------|--------|--------|--------|--------|
C|--------|--------|--------|--------|--------|--------|--------|--------|--------|
G|--------|--------|--------|--------|--------|--------|--------|--------|--------|
D|--------|--------|--------|--------|--------|--------|--------|--------|--------|


D|--------|--------|--------|--------|--------|--------|--------|--------|--------|
A|--------|--------|--------|--------|--------|--------|--------|--------|--------|
F|--------|--------|--------|--------|--------|--------|--------|--------|--------|
C|--------|--------|--------|--------|--------|--------|--------|--------|--------|
G|--------|--------|--------|--------|--------|--------|--------|--------|--------|
D|--------|--------|--------|--------|--------|--------|--------|--------|--------|


D|--------|--------|--------|--------|--------|--------|--------|--------|--------|
A|--------|--------|--------|--------|--------|--------|--------|--------|--------|
F|--------|--------|--------|--------|--------|--------|--------|--------|--------|
C|--------|--------|--------|--------|--------|--------|--------|--------|--------|
G|--------|--------|--------|--------|--------|--------|--------|--------|--------|
D|--------|--------|--------|--------|--------|--------|--------|--------|--------|


D|--------|--------|--------|--------|--------|--------|--------|--------|--------|
A|--------|--------|--------|--------|--------|--------|--------|--------|--------|
F|--------|--------|--------|--------|--------|--------|--------|--------|--------|
C|--------|--------|--------|--------|--------|--------|--------|--------|--------|
G|--------|--------|--------|--------|--------|--------|--------|--------|--------|
D|--------|--------|--------|--------|--------|--------|--------|--------|--------|


D|--------|--------|--------|--------|--------|--------|--------|--------|--------|
A|--------|--------|--------|--------|--------|--------|--------|--------|--------|
F|--------|--------|--------|--------|--------|--------|--------|--------|--------|
C|--------|--------|--------|--------|--------|--------|--------|--------|--------|
G|--------|--------|--------|--------|--------|--------|--------|--------|--------|
D|--------|--------|--------|--------|--------|--------|--------|--------|--------|


D|--------|--------|--------|--------|--------|--------|--------|--------|--------|
A|--------|--------|--------|--------|--------|--------|--------|--------|--------|
F|--------|--------|--------|--------|--------|--------|--------|--------|--------|
C|--------|--------|--------|--------|--------|--------|--------|--------|--------|
G|--------|--------|--------|--------|--------|--------|--------|--------|--------|
D|--------|--------|--------|--------|--------|--------|--------|--------|--------|


D|--------|--------|--------|--------|--------|--------|--------|--------|--------|
A|--------|--------|--------|--------|--------|--------|--------|--------|--------|
F|--------|--------|--------|--------|--------|--------|--------|--------|--------|
C|--------|--------|--------|--------|--------|--------|--------|--------|--------|
G|--------|--------|--------|--------|--------|--------|--------|--------|--------|
D|--------|--------|--------|--------|--------|--------|--------|--------|--------|


D|--------|--------|--------|--------|--------|--------|--------|--------|--------|
A|--------|--------|--------|--------|--------|--------|--------|--------|--------|
F|--------|--------|--------|--------|--------|--------|--------|--------|--------|
C|--------|--------|--------|--------|--------|--------|--------|--------|--------|
G|--------|--------|--------|--------|--------|--------|--------|--------|--------|
D|--------|--------|--------|--------|--------|--------|--------|--------|--------|


D|--------|--------|--------|--------|--------|--------|--------|--------|--------|
A|--------|--------|--------|--------|--------|--------|--------|--------|--------|
F|--------|--------|--------|--------|--------|--------|--------|--------|--------|
C|--------|--------|--------|--------|--------|--------|--------|--------|--------|
G|--------|--------|--------|--------|--------|--------|--------|--------|--------|
D|--------|--------|--------|--------|--------|--------|--------|--------|--------|


D|--------|--------|--------|--------|--------|--------|--------|--------|--------|
A|--------|--------|--------|--------|--------|--------|--------|--------|--------|
F|--------|--------|--------|--------|--------|--------|--------|--------|--------|
C|--------|--------|--------|--------|--------|--------|--------|--------|--------|
G|--------|--------|--------|--------|--------|--------|--------|--------|--------|
D|--------|--------|--------|--------|--------|--------|--------|--------|--------|


D|--------|--------|--------|--------|--------|--------|--------|--------|--------|
A|--------|--------|--------|--------|--------|--------|--------|--------|--------|
F|--------|--------|--------|--------|--------|--------|--------|--------|--------|
C|--------|--------|--------|--------|--------|--------|--------|--------|--------|
G|--------|--------|--------|--------|--------|--------|--------|--------|--------|
D|--------|--------|--------|--------|--------|--------|--------|--------|--------|


D|--------|--------|--------|--------|--------|--------|--------|--------|--------|
A|--------|--------|--------|--------|--------|--------|--------|--------|--------|
F|--------|--------|--------|--------|--------|--------|--------|--------|--------|
C|--------|--------|--------|--------|--------|--------|--------|--------|--------|
G|--------|--------|--------|--------|--------|--------|--------|--------|--------|
D|--------|--------|--------|--------|--------|--------|--------|--------|--------|


D|--------|--------|--------|--------|--------|--------|--------|--------|--------|
A|--------|--------|--------|--------|--------|--------|--------|--------|--------|
F|--------|--------|--------|--------|--------|--------|--------|--------|--------|
C|--------|--------|--------|--------|--------|--------|--------|--------|--------|
G|--------|--------|--------|--------|--------|--------|--------|--------|--------|
D|--------|--------|--------|--------|--------|--------|--------|--------|--------|


D|--------|--------|--------|--------|--------|--------|--------|--------|--------|
A|--------|--------|--------|--------|--------|--------|--------|--------|--------|
F|--------|--------|--------|--------|--------|--------|--------|--------|--------|
C|--------|--------|--------|--------|--------|--------|--------|--------|--------|
G|--------|--------|--------|--------|--------|--------|--------|--------|--------|
D|--------|--------|--------|--------|--------|--------|--------|--------|--------|


D|--------|--------|--------|--------|--------|
A|--------|--------|--------|--------|--------|
F|--------|--------|--------|--------|--------|
C|--------|--------|--------|--------|--------|
G|--------|--------|--------|--------|--------|
D|--------|--------|--------|--------|--------|





Track 3: Bass

F|--------|---------------------------------------|-----------------------------------------|
C|--------|---------------------------------------|-----------------------------------------|
G|--------|---------------------------------------|-----------------------------------------|
D|--------|-3--5--0---0---3--5--0-------0--0---0--|-3--5--0---0---6--3--0------0--0--0---0--|


F|---------------------------------------|---------------------------------------|
C|---------------------------------------|---------------------------------------|
G|---------------------------------------|---------------------------------------|
D|-3--5--0---0---3--5--0-------0--0---0--|-3--5--0---0---6--3--0---0---0--0---0--|


F|-----------------------------------------|-----------------------------------------|
C|-----------------------------------------|-----------------------------------------|
G|-----------------------------------------|-----------------------------------------|
D|-3--5--0---0---3--5--0------0--0--0---0--|-3--5--0---0---6--3--0------0--0--0---0--|


F|-----------------------------------------|---------------------------------------|
C|-----------------------------------------|---------------------------------------|
G|-----------------------------------------|---------------------------------------|
D|-3--5--0---0---3--5--0------0--0--0---0--|-3--5--0---0---6--3--0---0---0--0---0--|


F|-----------------------------------------------|---------------------------------------|
C|-----9-----------------------------------------|---------------------------------------|
G|-9------9--8--7--5-----5--------4--------2-----|---------------------------------------|
D|--------------------7-----5--3-----3--1-----1--|-----0---0---0---0---0--0-----0--0--0--|


F|---------------------------------------|---------------------------------------|
C|---------------------------------------|---------------------------------------|
G|---------------------------------------|---------------------------------------|
D|-----0---0---0---0---0--0-----0--0--0--|-----0---0---0---0---0--0-----0--0--0--|


F|---------------------------------------|---------------------------------------|
C|---------------------------------------|---------------------------------------|
G|---------------------------------------|---------------------------------------|
D|-----0---0---0---0---0--0-----0--0--0--|-----0---0---0---0---0--0-----0--0--0--|


F|---------------------------------------|---------------------------------------|
C|---------------------------------------|---------------------------------------|
G|---------------------------------------|---------------------------------------|
D|-----0---0---0---0---0--0-----0--0--0--|-----0---0---0---0---0--0-----0--0--0--|


F|---------------------------------------|-----------------------------------|-----------------------------------|
C|---------------------------------------|---------5-----------------7---7---|---------5-----------------7---7---|
G|---------------------------------------|-----7-------6---6-----------------|-----7-------6---6-----------------|
D|-----0---0---0---0---0--0-----0--0--0--|-0------------------5--5-----------|-0------------------5--5-----------|


F|-----------------------------------|--------------------------------|---------------------------------------|
C|---------5-----------------7---7---|---------5----------------------|---------------------------------------|
G|-----7-------6---6-----------------|-----7-------6---6--------------|---------------------------------------|
D|-0------------------5--5-----------|-0------------------5--5---5----|-----0---0---0---0---0--0-----0--0--0--|


F|---------------------------------------|-----------------|-------------------------------------------|
C|---------------------------------------|-----------------|-------------------------------------------|
G|---------------------------------------|-----------------|-------------------------------------------|
D|-----0---0---0---0---0--0-----0--0--0--|-7-----2----1----|-3--5--0---0--0--3--5--0------0--0--0---3--|


F|-----------------|-------------------------------------------|-----------------|
C|-----------------|-------------------------------------------|-----------------|
G|-----------------|-------------------------------------------|-----------------|
D|-7-----6----1----|-3--5--0---0--0--3--5--0------0--0--0---3--|-7-----6----5----|


F|-------------------------------------------|-----------------|-----------------------------------------|
C|-------------------------------------------|-----------------|-----------------------------------------|
G|-------------------------------------------|-----------------|-----------------------------------------|
D|-3--5--0---0--0--3--5--0------0--0--0---3--|-7-----2----1----|-3--5--0---0---3--5--0------10-0--0---0--|


F|-----------------------------------------|-----------------------------------------|
C|-----------------------------------------|-----------------------------------------|
G|-----------------------------------------|-----------------------------------------|
D|-3--5--0---0---6--3--0------0--0--0---0--|-3--5--0---0---3--5--0------0--0--0---0--|


F|---------------------------------------|-----------------------------------------|
C|---------------------------------------|-----------------------------------------|
G|---------------------------------------|-----------------------------------------|
D|-3--5--0---0---6--3--0---0---0--0---0--|-3--5--0---0---3--5--0------10-0--0---0--|


F|-----------------------------------------|-----------------------------------------|
C|-----------------------------------------|-----------------------------------------|
G|-----------------------------------------|-----------------------------------------|
D|-3--5--0---0---6--3--0------0--0--0---0--|-3--5--0---0---3--5--0------0--0--0---0--|


F|---------------------------------------|-----------------------------------------------|
C|---------------------------------------|-----9-----------------------------------------|
G|---------------------------------------|-9------9--8--7--5-----5--------4--------2-----|
D|-3--5--0---0---6--3--0---0---0--0---0--|--------------------7-----5--3-----3--1-----1--|


F|---------------------------------------|---------------------------------------|
C|---------------------------------------|---------------------------------------|
G|---------------------------------------|---------------------------------------|
D|-----0---0---0---0---0--0-----0--0--0--|-----0---0---0---0---0--0-----0--0--0--|


F|---------------------------------------|---------------------------------------|
C|---------------------------------------|---------------------------------------|
G|---------------------------------------|---------------------------------------|
D|-----0---0---0---0---0--0-----0--0--0--|-----0---0---0---0---0--0-----0--0--0--|


F|---------------------------------------|---------------------------------------|
C|---------------------------------------|---------------------------------------|
G|---------------------------------------|---------------------------------------|
D|-----0---0---0---0---0--0-----0--0--0--|-----0---0---0---0---0--0-----0--0--0--|


F|---------------------------------------|---------------------------------------|
C|---------------------------------------|---------------------------------------|
G|---------------------------------------|---------------------------------------|
D|-----0---0---0---0---0--0-----0--0--0--|-----0---0---0---0---0--0-----0--0--0--|


F|-----------------------------------|-----------------------------------|-----------------------------------|
C|---------5-----------------7---7---|---------5-----------------7---7---|---------5-----------------7---7---|
G|-----7-------6---6-----------------|-----7-------6---6-----------------|-----7-------6---6-----------------|
D|-0------------------5--5-----------|-0------------------5--5-----------|-0------------------5--5-----------|


F|--------------------------------|---------------------------------------|---------------------------------------|
C|---------5----------------------|---------------------------------------|---------------------------------------|
G|-----7-------6---6--------------|---------------------------------------|---------------------------------------|
D|-0------------------5--5---5----|-----0---0---0---0---0--0-----0--0--0--|-----0---0---0---0---0--0-----0--0--0--|


F|-----------------|-------------------------------------------|-----------------|
C|-----------------|-------------------------------------------|-----------------|
G|-----------------|-------------------------------------------|-----------------|
D|-7-----2----1----|-3--5--0---0--0--3--5--0------0--0--0---3--|-7-----6----1----|


F|-------------------------------------------|-----------------|-------------------------------------------|
C|-------------------------------------------|-----------------|-------------------------------------------|
G|-------------------------------------------|-----------------|-------------------------------------------|
D|-3--5--0---0--0--3--5--0------0--0--0---3--|-7-----6----5----|-3--5--0---0--0--3--5--0------0--0--0---3--|


F|-----------------|-----------------------------------------|-----------------------------------------|
C|-----------------|-----------------------------------------|-----------------------------------------|
G|-----------------|-----------------------------------------|-----------------------------------------|
D|-7-----2----1----|-3--5--0---0---3--5--0------10-0--0---0--|-3--5--0---0---6--3--0------0--0--0---0--|


F|-----------------------------------------|---------------------------------------|
C|-----------------------------------------|---------------------------------------|
G|-----------------------------------------|---------------------------------------|
D|-3--5--0---0---3--5--0------0--0--0---0--|-3--5--0---0---6--3--0---0---0--0---0--|


F|-----------------------------------------|-----------------------------------------|
C|-----------------------------------------|-----------------------------------------|
G|-----------------------------------------|-----------------------------------------|
D|-3--5--0---0---3--5--0------10-0--0---0--|-3--5--0---0---6--3--0------0--0--0---0--|


F|-----------------------------------------|---------------------------------------|
C|-----------------------------------------|---------------------------------------|
G|-----------------------------------------|---------------------------------------|
D|-3--5--0---0---3--5--0------0--0--0---0--|-3--5--0---0---6--3--0---0---0--0---0--|


F|-----------------------------------------------|-----------------------------------------------|
C|-----9-----------------------------------------|-----9-----------------------------------------|
G|-9------9--8--7--5-----5--------------4--------|-9------9--8--7--5-----5--------4--------2-----|
D|--------------------7-----7--6--5--3-----3--1--|--------------------7-----5--3-----3--1-----1--|


F|-----------------------------------------------|-----------------------------------------------|
C|-----9-----------------------------------------|-----9-----------------------------------------|
G|-9------9--8--7--5-----5--------------4--------|-9------9--8--7--5-----5--------4--------2-----|
D|--------------------7-----7--6--5--3-----3--1--|--------------------7-----5--3-----3--1-----1--|


F|-----------------------------------------------|-----------------------------------------------|
C|-----------------------------------------------|-----------------------------------------------|
G|-----5--------------5--------4--------3--------|-----5--------------5--------4--------3--------|
D|-7------7--6--5--4-----4--3-----3--2-----2--1--|-7------7--6--5--4-----4--3-----3--2-----2--1--|


F|-----------------------------------------------|-----------------------------------------------|
C|-----------------------------------------------|-----------------------------------------------|
G|-----5--------------5--------4--------3--------|-----5--------------5--------------------------|
D|-7------7--6--5--4-----4--3-----3--2-----2--1--|-7------7--6--5--4-----5--4--4--3--3--2--2--1--|


F|-----------------------------------------|---------------------------|--------|--------|
C|-----------------------------------------|---------------------------|--------|--------|
G|-----------------------------------------|---------------------------|--------|--------|
D|-3--5--0---0---3--5--0------0--0--0---0--|-3--5--0---0---5--3--------|--------|--------|


F|--------|--------|--------|--------|--------|-----------------------------------------------|
C|--------|--------|--------|--------|--------|-----------------------------------------------|
G|--------|--------|--------|--------|--------|-----------------------------------------5--7--|
D|--------|--------|--------|--------|--------|-5--5--3--5-----3---0--0--5--5--3--5--7--------|


F|---------------------------------------------|-----------------------------------------------|
C|---------------------------------------------|-----------------------------------------------|
G|-----------------------7--5------------------|-----------------------------------------5--7--|
D|-5--5--3--5-----3---0--------7--6--5--3---0--|-5--5--3--5-----3---0--0--5--5--3--5--7--------|


F|---------------------------|-----------------------------------------------|-----------------------------------------------|
C|---------------------------|-----------------------------------------8--5--|-----------------------------------------6--8--|
G|---------------------------|-3--3--1--3--3--1---------3--3--1--3--5--------|-6--6--4--6--6--4---------6--6--4--6--8--------|
D|-5--5--3--5-----3----------|--------------------3--3-----------------------|--------------------6--6-----------------------|


F|-----------------------------------------------|-----------------------------|--------|
C|-----------------------------------------8--10-|-----------------------------|--------|
G|-8--8--6--8--8--6---------8--8--6--6--10-------|-10-10-8--10-10-8------------|--------|
D|--------------------8--8-----------------------|-------------------10--10----|--------|


F|--------|--------|--------|--------|--------|--------|--------|--------|--------|
C|--------|--------|--------|--------|--------|--------|--------|--------|--------|
G|--------|--------|--------|--------|--------|--------|--------|--------|--------|
D|--------|--------|--------|--------|--------|--------|--------|--------|--------|


F|--------|--------|--------|--------|--------|--------|--------|--------|--------|
C|--------|--------|--------|--------|--------|--------|--------|--------|--------|
G|--------|--------|--------|--------|--------|--------|--------|--------|--------|
D|--------|--------|--------|--------|--------|--------|--------|--------|--------|


F|--------|--------|--------|--------|--------|--------|--------|--------|--------|
C|--------|--------|--------|--------|--------|--------|--------|--------|--------|
G|--------|--------|--------|--------|--------|--------|--------|--------|--------|
D|--------|--------|--------|--------|--------|--------|--------|--------|--------|


F|--------|--------|--------|--------|--------|--------|--------|--------|--------|
C|--------|--------|--------|--------|--------|--------|--------|--------|--------|
G|--------|--------|--------|--------|--------|--------|--------|--------|--------|
D|--------|--------|--------|--------|--------|--------|--------|--------|--------|


F|--------|--------|--------|--------|--------|--------|--------|--------|--------|
C|--------|--------|--------|--------|--------|--------|--------|--------|--------|
G|--------|--------|--------|--------|--------|--------|--------|--------|--------|
D|--------|--------|--------|--------|--------|--------|--------|--------|--------|





Track 4: Pick Scrapes

D|--------|--------|--------|--------|--------|--------|--------|--------|--------|
A|--------|--------|--------|--------|--------|--------|--------|--------|--------|
F|--------|--------|--------|--------|--------|--------|--------|--------|--------|
C|--------|--------|--------|--------|--------|--------|--------|--------|--------|
G|--------|--------|--------|--------|--------|--------|--------|--------|--------|
D|--------|--------|--------|--------|--------|--------|--------|--------|--------|


D|--------|--------|--------|--------|--------|--------|--------|--------|--------|
A|--------|--------|--------|--------|--------|--------|--------|--------|--------|
F|--------|--------|--------|--------|--------|--------|--------|--------|--------|
C|--------|--------|--------|--------|--------|--------|--------|--------|--------|
G|--------|--------|--------|--------|--------|--------|--------|--------|--------|
D|--------|--------|--------|--------|--------|--------|--------|--------|--------|


D|--------|--------|--------|--------|--------|--------|--------|--------|--------|
A|--------|--------|--------|--------|--------|--------|--------|--------|--------|
F|--------|--------|--------|--------|--------|--------|--------|--------|--------|
C|--------|--------|--------|--------|--------|--------|--------|--------|--------|
G|--------|--------|--------|--------|--------|--------|--------|--------|--------|
D|--------|--------|--------|--------|--------|--------|--------|--------|--------|


D|--------|--------|--------|--------|--------|--------|--------|--------|--------|
A|--------|--------|--------|--------|--------|--------|--------|--------|--------|
F|--------|--------|--------|--------|--------|--------|--------|--------|--------|
C|--------|--------|--------|--------|--------|--------|--------|--------|--------|
G|--------|--------|--------|--------|--------|--------|--------|--------|--------|
D|--------|--------|--------|--------|--------|--------|--------|--------|--------|


D|--------|--------|--------|--------|--------|--------|--------|--------|--------|
A|--------|--------|--------|--------|--------|--------|--------|--------|--------|
F|--------|--------|--------|--------|--------|--------|--------|--------|--------|
C|--------|--------|--------|--------|--------|--------|--------|--------|--------|
G|--------|--------|--------|--------|--------|--------|--------|--------|--------|
D|--------|--------|--------|--------|--------|--------|--------|--------|--------|


D|--------|--------|--------|--------|--------|--------|--------|--------|--------|
A|--------|--------|--------|--------|--------|--------|--------|--------|--------|
F|--------|--------|--------|--------|--------|--------|--------|--------|--------|
C|--------|--------|--------|--------|--------|--------|--------|--------|--------|
G|--------|--------|--------|--------|--------|--------|--------|--------|--------|
D|--------|--------|--------|--------|--------|--------|--------|--------|--------|


D|--------|--------|--------|--------|--------|--------|--------|--------|--------|
A|--------|--------|--------|--------|--------|--------|--------|--------|--------|
F|--------|--------|--------|--------|--------|--------|--------|--------|--------|
C|--------|--------|--------|--------|--------|--------|--------|--------|--------|
G|--------|--------|--------|--------|--------|--------|--------|--------|--------|
D|--------|--------|--------|--------|--------|--------|--------|--------|--------|


D|--------|--------|--------|--------|--------|--------|--------|--------|--------|
A|--------|--------|--------|--------|--------|--------|--------|--------|--------|
F|--------|--------|--------|--------|--------|--------|--------|--------|--------|
C|--------|--------|--------|--------|--------|--------|--------|--------|--------|
G|--------|--------|--------|--------|--------|--------|--------|--------|--------|
D|--------|--------|--------|--------|--------|--------|--------|--------|--------|


D|--------|--------|--------|--------|--------|--------|--------------------------------------|
A|--------|--------|--------|--------|--------|--------|-------5--5--5--5--5--5--5--5--5------|
F|--------|--------|--------|--------|--------|--------|-------5--5--5--5--5--5--5--5--5------|
C|--------|--------|--------|--------|--------|--------|-------5--5--5--5--5--5--5--5--5------|
G|--------|--------|--------|--------|--------|--------|--------------------------------------|
D|--------|--------|--------|--------|--------|--------|--------------------------------------|


D|--------|--------|--------|--------|--------|--------|--------|--------|--------|
A|--------|--------|--------|--------|--------|--------|--------|--------|--------|
F|--------|--------|--------|--------|--------|--------|--------|--------|--------|
C|--------|--------|--------|--------|--------|--------|--------|--------|--------|
G|--------|--------|--------|--------|--------|--------|--------|--------|--------|
D|--------|--------|--------|--------|--------|--------|--------|--------|--------|


D|--------|----------------------------------------|--------|--------|--------|--------|
A|--------|----------------------------------------|--------|--------|--------|--------|
F|--------|----------------------------------------|--------|--------|--------|--------|
C|--------|----------------------------------------|--------|--------|--------|--------|
G|--------|-------------10-15-10-15-10-15-10-15-10-|--------|--------|--------|--------|
D|--------|-------------10-15-10-15-10-15-10-15-10-|--------|--------|--------|--------|


D|--------|--------|--------|--------|--------|--------|--------|--------|--------|
A|--------|--------|--------|--------|--------|--------|--------|--------|--------|
F|--------|--------|--------|--------|--------|--------|--------|--------|--------|
C|--------|--------|--------|--------|--------|--------|--------|--------|--------|
G|--------|--------|--------|--------|--------|--------|--------|--------|--------|
D|--------|--------|--------|--------|--------|--------|--------|--------|--------|


D|-------------------------------|--------|--------|--------|--------|--------|--------|
A|-------------------------------|--------|--------|--------|--------|--------|--------|
F|-------------------------------|--------|--------|--------|--------|--------|--------|
C|-13-13-13-13-13-13-13-13-------|--------|--------|--------|--------|--------|--------|
G|-13-13-13-13-13-13-13-13-------|--------|--------|--------|--------|--------|--------|
D|-13-13-13-13-13-13-13-13-------|--------|--------|--------|--------|--------|--------|


D|--------|--------|--------|--------|--------|--------|--------|--------|--------|
A|--------|--------|--------|--------|--------|--------|--------|--------|--------|
F|--------|--------|--------|--------|--------|--------|--------|--------|--------|
C|--------|--------|--------|--------|--------|--------|--------|--------|--------|
G|--------|--------|--------|--------|--------|--------|--------|--------|--------|
D|--------|--------|--------|--------|--------|--------|--------|--------|--------|


D|--------|--------|--------|--------|--------|--------|--------|--------|--------|
A|--------|--------|--------|--------|--------|--------|--------|--------|--------|
F|--------|--------|--------|--------|--------|--------|--------|--------|--------|
C|--------|--------|--------|--------|--------|--------|--------|--------|--------|
G|--------|--------|--------|--------|--------|--------|--------|--------|--------|
D|--------|--------|--------|--------|--------|--------|--------|--------|--------|


D|--------|--------|--------|--------|--------|--------|--------|--------|--------|
A|--------|--------|--------|--------|--------|--------|--------|--------|--------|
F|--------|--------|--------|--------|--------|--------|--------|--------|--------|
C|--------|--------|--------|--------|--------|--------|--------|--------|--------|
G|--------|--------|--------|--------|--------|--------|--------|--------|--------|
D|--------|--------|--------|--------|--------|--------|--------|--------|--------|


D|--------|--------|--------|
A|--------|--------|--------|
F|--------|--------|--------|
C|--------|--------|--------|
G|--------|--------|--------|
D|--------|--------|--------|





Track 5: Rhythm Guitar

D|--------|--------|--------|--------|--------|--------|--------|--------|--------|
A|--------|--------|--------|--------|--------|--------|--------|--------|--------|
F|--------|--------|--------|--------|--------|--------|--------|--------|--------|
C|--------|--------|--------|--------|--------|--------|--------|--------|--------|
G|--------|--------|--------|--------|--------|--------|--------|--------|--------|
D|--------|--------|--------|--------|--------|--------|--------|--------|--------|


D|--------|--------|--------|--------|--------|--------|--------|--------|--------|
A|--------|--------|--------|--------|--------|--------|--------|--------|--------|
F|--------|--------|--------|--------|--------|--------|--------|--------|--------|
C|--------|--------|--------|--------|--------|--------|--------|--------|--------|
G|--------|--------|--------|--------|--------|--------|--------|--------|--------|
D|--------|--------|--------|--------|--------|--------|--------|--------|--------|


D|--------|--------|--------|--------|--------|--------|--------|--------|--------|
A|--------|--------|--------|--------|--------|--------|--------|--------|--------|
F|--------|--------|--------|--------|--------|--------|--------|--------|--------|
C|--------|--------|--------|--------|--------|--------|--------|--------|--------|
G|--------|--------|--------|--------|--------|--------|--------|--------|--------|
D|--------|--------|--------|--------|--------|--------|--------|--------|--------|


D|--------|--------|--------|--------|--------|--------|--------|--------|--------|
A|--------|--------|--------|--------|--------|--------|--------|--------|--------|
F|--------|--------|--------|--------|--------|--------|--------|--------|--------|
C|--------|--------|--------|--------|--------|--------|--------|--------|--------|
G|--------|--------|--------|--------|--------|--------|--------|--------|--------|
D|--------|--------|--------|--------|--------|--------|--------|--------|--------|


D|--------|--------|--------|--------|--------|--------|--------|--------|--------|
A|--------|--------|--------|--------|--------|--------|--------|--------|--------|
F|--------|--------|--------|--------|--------|--------|--------|--------|--------|
C|--------|--------|--------|--------|--------|--------|--------|--------|--------|
G|--------|--------|--------|--------|--------|--------|--------|--------|--------|
D|--------|--------|--------|--------|--------|--------|--------|--------|--------|


D|--------|--------|--------|--------|--------|--------|--------|--------|--------|
A|--------|--------|--------|--------|--------|--------|--------|--------|--------|
F|--------|--------|--------|--------|--------|--------|--------|--------|--------|
C|--------|--------|--------|--------|--------|--------|--------|--------|--------|
G|--------|--------|--------|--------|--------|--------|--------|--------|--------|
D|--------|--------|--------|--------|--------|--------|--------|--------|--------|


D|--------|--------|--------|--------|--------|--------|--------|--------|--------|
A|--------|--------|--------|--------|--------|--------|--------|--------|--------|
F|--------|--------|--------|--------|--------|--------|--------|--------|--------|
C|--------|--------|--------|--------|--------|--------|--------|--------|--------|
G|--------|--------|--------|--------|--------|--------|--------|--------|--------|
D|--------|--------|--------|--------|--------|--------|--------|--------|--------|


D|--------|--------|--------|--------|--------|--------|--------|--------|--------|
A|--------|--------|--------|--------|--------|--------|--------|--------|--------|
F|--------|--------|--------|--------|--------|--------|--------|--------|--------|
C|--------|--------|--------|--------|--------|--------|--------|--------|--------|
G|--------|--------|--------|--------|--------|--------|--------|--------|--------|
D|--------|--------|--------|--------|--------|--------|--------|--------|--------|


D|--------|--------|--------|--------|--------|--------|-------------|--------|--------|
A|--------|--------|--------|--------|--------|--------|-------------|--------|--------|
F|--------|--------|--------|--------|--------|--------|-------------|--------|--------|
C|--------|--------|--------|--------|--------|--------|-------------|--------|--------|
G|--------|--------|--------|--------|--------|--------|-------------|--------|--------|
D|--------|--------|--------|--------|--------|--------|-------------|--------|--------|


D|--------|--------|--------|--------|--------|--------|--------|--------|--------|
A|--------|--------|--------|--------|--------|--------|--------|--------|--------|
F|--------|--------|--------|--------|--------|--------|--------|--------|--------|
C|--------|--------|--------|--------|--------|--------|--------|--------|--------|
G|--------|--------|--------|--------|--------|--------|--------|--------|--------|
D|--------|--------|--------|--------|--------|--------|--------|--------|--------|


D|--------|--------|--------|--------|--------|--------|--------|--------|--------|
A|--------|--------|--------|--------|--------|--------|--------|--------|--------|
F|--------|--------|--------|--------|--------|--------|--------|--------|--------|
C|--------|--------|--------|--------|--------|--------|--------|--------|--------|
G|--------|--------|--------|--------|--------|--------|--------|--------|--------|
D|--------|--------|--------|--------|--------|--------|--------|--------|--------|


D|--------|--------|--------|--------|--------|--------|--------|--------|--------|
A|--------|--------|--------|--------|--------|--------|--------|--------|--------|
F|--------|--------|--------|--------|--------|--------|--------|--------|--------|
C|--------|--------|--------|--------|--------|--------|--------|--------|--------|
G|--------|--------|--------|--------|--------|--------|--------|--------|--------|
D|--------|--------|--------|--------|--------|--------|--------|--------|--------|


D|--------|--------|--------|--------|--------|--------|--------|--------|--------|
A|--------|--------|--------|--------|--------|--------|--------|--------|--------|
F|--------|--------|--------|--------|--------|--------|--------|--------|--------|
C|--------|--------|--------|--------|--------|--------|--------|--------|--------|
G|--------|--------|--------|--------|--------|--------|--------|--------|--------|
D|--------|--------|--------|--------|--------|--------|--------|--------|--------|


D|--------|--------|--------|--------|--------|--------|--------|--------|--------|
A|--------|--------|--------|--------|--------|--------|--------|--------|--------|
F|--------|--------|--------|--------|--------|--------|--------|--------|--------|
C|--------|--------|--------|--------|--------|--------|--------|--------|--------|
G|--------|--------|--------|--------|--------|--------|--------|--------|--------|
D|--------|--------|--------|--------|--------|--------|--------|--------|--------|


D|--------|--------|--------|--------|--------|--------|--------|--------|--------|
A|--------|--------|--------|--------|--------|--------|--------|--------|--------|
F|--------|--------|--------|--------|--------|--------|--------|--------|--------|
C|--------|--------|--------|--------|--------|--------|--------|--------|--------|
G|--------|--------|--------|--------|--------|--------|--------|--------|--------|
D|--------|--------|--------|--------|--------|--------|--------|--------|--------|


D|--------|--------|--------|--------|--------|
A|--------|--------|--------|--------|--------|
F|--------|--------|--------|--------|--------|
C|--------|--------|--------|--------|--------|
G|--------|--------|--------|--------|--------|
D|--------|--------|--------|--------|--------|





Track 6: Rhythm Guitar

D|--------|--------|--------|--------|--------|--------|--------|--------|--------|
A|--------|--------|--------|--------|--------|--------|--------|--------|--------|
F|--------|--------|--------|--------|--------|--------|--------|--------|--------|
C|--------|--------|--------|--------|--------|--------|--------|--------|--------|
G|--------|--------|--------|--------|--------|--------|--------|--------|--------|
D|--------|--------|--------|--------|--------|--------|--------|--------|--------|


D|--------|--------|--------|--------|--------|--------|--------|--------|--------|
A|--------|--------|--------|--------|--------|--------|--------|--------|--------|
F|--------|--------|--------|--------|--------|--------|--------|--------|--------|
C|--------|--------|--------|--------|--------|--------|--------|--------|--------|
G|--------|--------|--------|--------|--------|--------|--------|--------|--------|
D|--------|--------|--------|--------|--------|--------|--------|--------|--------|


D|--------|--------|--------|--------|--------|--------|--------|--------|--------|
A|--------|--------|--------|--------|--------|--------|--------|--------|--------|
F|--------|--------|--------|--------|--------|--------|--------|--------|--------|
C|--------|--------|--------|--------|--------|--------|--------|--------|--------|
G|--------|--------|--------|--------|--------|--------|--------|--------|--------|
D|--------|--------|--------|--------|--------|--------|--------|--------|--------|


D|--------|--------|--------|--------|--------|--------|--------|--------|--------|
A|--------|--------|--------|--------|--------|--------|--------|--------|--------|
F|--------|--------|--------|--------|--------|--------|--------|--------|--------|
C|--------|--------|--------|--------|--------|--------|--------|--------|--------|
G|--------|--------|--------|--------|--------|--------|--------|--------|--------|
D|--------|--------|--------|--------|--------|--------|--------|--------|--------|


D|--------|--------|--------|--------|--------|--------|--------|--------|--------|
A|--------|--------|--------|--------|--------|--------|--------|--------|--------|
F|--------|--------|--------|--------|--------|--------|--------|--------|--------|
C|--------|--------|--------|--------|--------|--------|--------|--------|--------|
G|--------|--------|--------|--------|--------|--------|--------|--------|--------|
D|--------|--------|--------|--------|--------|--------|--------|--------|--------|


D|--------|--------|--------|--------|--------|--------|--------|--------|--------|
A|--------|--------|--------|--------|--------|--------|--------|--------|--------|
F|--------|--------|--------|--------|--------|--------|--------|--------|--------|
C|--------|--------|--------|--------|--------|--------|--------|--------|--------|
G|--------|--------|--------|--------|--------|--------|--------|--------|--------|
D|--------|--------|--------|--------|--------|--------|--------|--------|--------|


D|--------|--------|--------|--------|--------|--------|--------|--------|--------|
A|--------|--------|--------|--------|--------|--------|--------|--------|--------|
F|--------|--------|--------|--------|--------|--------|--------|--------|--------|
C|--------|--------|--------|--------|--------|--------|--------|--------|--------|
G|--------|--------|--------|--------|--------|--------|--------|--------|--------|
D|--------|--------|--------|--------|--------|--------|--------|--------|--------|


D|--------|--------|--------|--------|--------|--------|--------|--------|--------|
A|--------|--------|--------|--------|--------|--------|--------|--------|--------|
F|--------|--------|--------|--------|--------|--------|--------|--------|--------|
C|--------|--------|--------|--------|--------|--------|--------|--------|--------|
G|--------|--------|--------|--------|--------|--------|--------|--------|--------|
D|--------|--------|--------|--------|--------|--------|--------|--------|--------|


D|--------|--------|--------|--------|--------|--------|--------|-----------------------------------------|
A|--------|--------|--------|--------|--------|--------|--------|-----------------------------------------|
F|--------|--------|--------|--------|--------|--------|--------|-----------------------------------------|
C|--------|--------|--------|--------|--------|--------|--------|-3--5--0---0---3--5--0------0--0--0---0--|
G|--------|--------|--------|--------|--------|--------|--------|-----------------------------------------|
D|--------|--------|--------|--------|--------|--------|--------|-----------------------------------------|


D|---------------------------------------|--------|-----------------------------------------------|
A|---------------------------------------|--------|-----------------------------------------3--5--|
F|---------------------------------------|--------|-3--3--1--3--3--1---------3--3--1--3--5--------|
C|-3--5--0---0---6--3--0---0---0--0---0--|-0------|--------------------3--3-----------------------|
G|---------------------------------------|--------|-----------------------------------------------|
D|---------------------------------------|--------|-----------------------------------------------|


D|--------|--------|--------|--------|--------|--------|--------|--------|--------|
A|--------|--------|--------|--------|--------|--------|--------|--------|--------|
F|--------|--------|--------|--------|--------|--------|--------|--------|--------|
C|--------|--------|--------|--------|--------|--------|--------|--------|--------|
G|--------|--------|--------|--------|--------|--------|--------|--------|--------|
D|--------|--------|--------|--------|--------|--------|--------|--------|--------|


D|--------|--------|--------|--------|--------|--------|--------|--------|--------|
A|--------|--------|--------|--------|--------|--------|--------|--------|--------|
F|--------|--------|--------|--------|--------|--------|--------|--------|--------|
C|--------|--------|--------|--------|--------|--------|--------|--------|--------|
G|--------|--------|--------|--------|--------|--------|--------|--------|--------|
D|--------|--------|--------|--------|--------|--------|--------|--------|--------|


D|--------|--------|--------|--------|--------|--------|--------|--------|--------|
A|--------|--------|--------|--------|--------|--------|--------|--------|--------|
F|--------|--------|--------|--------|--------|--------|--------|--------|--------|
C|--------|--------|--------|--------|--------|--------|--------|--------|--------|
G|--------|--------|--------|--------|--------|--------|--------|--------|--------|
D|--------|--------|--------|--------|--------|--------|--------|--------|--------|


D|--------|--------|--------|--------|--------|--------|--------|--------|--------|
A|--------|--------|--------|--------|--------|--------|--------|--------|--------|
F|--------|--------|--------|--------|--------|--------|--------|--------|--------|
C|--------|--------|--------|--------|--------|--------|--------|--------|--------|
G|--------|--------|--------|--------|--------|--------|--------|--------|--------|
D|--------|--------|--------|--------|--------|--------|--------|--------|--------|


D|--------|--------|--------|--------|--------|--------|--------|--------|--------|
A|--------|--------|--------|--------|--------|--------|--------|--------|--------|
F|--------|--------|--------|--------|--------|--------|--------|--------|--------|
C|--------|--------|--------|--------|--------|--------|--------|--------|--------|
G|--------|--------|--------|--------|--------|--------|--------|--------|--------|
D|--------|--------|--------|--------|--------|--------|--------|--------|--------|


D|--------|--------|--------|--------|--------|--------|--------|--------|--------|
A|--------|--------|--------|--------|--------|--------|--------|--------|--------|
F|--------|--------|--------|--------|--------|--------|--------|--------|--------|
C|--------|--------|--------|--------|--------|--------|--------|--------|--------|
G|--------|--------|--------|--------|--------|--------|--------|--------|--------|
D|--------|--------|--------|--------|--------|--------|--------|--------|--------|


D|--------|--------|--------|
A|--------|--------|--------|
F|--------|--------|--------|
C|--------|--------|--------|
G|--------|--------|--------|
D|--------|--------|--------|





Track 7: Solo Guitar

D|--------|--------|--------|--------|--------|--------|--------|--------|--------|
A|--------|--------|--------|--------|--------|--------|--------|--------|--------|
F|--------|--------|--------|--------|--------|--------|--------|--------|--------|
C|--------|--------|--------|--------|--------|--------|--------|--------|--------|
G|--------|--------|--------|--------|--------|--------|--------|--------|--------|
D|--------|--------|--------|--------|--------|--------|--------|--------|--------|


D|--------|--------|--------|--------|--------|--------|--------|--------|--------|
A|--------|--------|--------|--------|--------|--------|--------|--------|--------|
F|--------|--------|--------|--------|--------|--------|--------|--------|--------|
C|--------|--------|--------|--------|--------|--------|--------|--------|--------|
G|--------|--------|--------|--------|--------|--------|--------|--------|--------|
D|--------|--------|--------|--------|--------|--------|--------|--------|--------|


D|--------|--------|--------|--------|--------|--------|--------|--------|--------|
A|--------|--------|--------|--------|--------|--------|--------|--------|--------|
F|--------|--------|--------|--------|--------|--------|--------|--------|--------|
C|--------|--------|--------|--------|--------|--------|--------|--------|--------|
G|--------|--------|--------|--------|--------|--------|--------|--------|--------|
D|--------|--------|--------|--------|--------|--------|--------|--------|--------|


D|--------|--------|--------|--------|--------|--------|--------|--------|--------|
A|--------|--------|--------|--------|--------|--------|--------|--------|--------|
F|--------|--------|--------|--------|--------|--------|--------|--------|--------|
C|--------|--------|--------|--------|--------|--------|--------|--------|--------|
G|--------|--------|--------|--------|--------|--------|--------|--------|--------|
D|--------|--------|--------|--------|--------|--------|--------|--------|--------|


D|--------|--------|--------|--------|--------|--------|--------|--------|--------|
A|--------|--------|--------|--------|--------|--------|--------|--------|--------|
F|--------|--------|--------|--------|--------|--------|--------|--------|--------|
C|--------|--------|--------|--------|--------|--------|--------|--------|--------|
G|--------|--------|--------|--------|--------|--------|--------|--------|--------|
D|--------|--------|--------|--------|--------|--------|--------|--------|--------|


D|--------|--------|--------|--------|--------|--------|--------|--------|--------|
A|--------|--------|--------|--------|--------|--------|--------|--------|--------|
F|--------|--------|--------|--------|--------|--------|--------|--------|--------|
C|--------|--------|--------|--------|--------|--------|--------|--------|--------|
G|--------|--------|--------|--------|--------|--------|--------|--------|--------|
D|--------|--------|--------|--------|--------|--------|--------|--------|--------|


D|--------|--------|--------|--------|--------|--------|--------|--------|--------|
A|--------|--------|--------|--------|--------|--------|--------|--------|--------|
F|--------|--------|--------|--------|--------|--------|--------|--------|--------|
C|--------|--------|--------|--------|--------|--------|--------|--------|--------|
G|--------|--------|--------|--------|--------|--------|--------|--------|--------|
D|--------|--------|--------|--------|--------|--------|--------|--------|--------|


D|--------|--------|--------|--------|--------|--------|--------|--------|--------|
A|--------|--------|--------|--------|--------|--------|--------|--------|--------|
F|--------|--------|--------|--------|--------|--------|--------|--------|--------|
C|--------|--------|--------|--------|--------|--------|--------|--------|--------|
G|--------|--------|--------|--------|--------|--------|--------|--------|--------|
D|--------|--------|--------|--------|--------|--------|--------|--------|--------|


D|--------|--------|--------|--------|--------|--------|--------|--------|--------|
A|--------|--------|--------|--------|--------|--------|--------|--------|--------|
F|--------|--------|--------|--------|--------|--------|--------|--------|--------|
C|--------|--------|--------|--------|--------|--------|--------|--------|--------|
G|--------|--------|--------|--------|--------|--------|--------|--------|--------|
D|--------|--------|--------|--------|--------|--------|--------|--------|--------|


D|--------|--------|--------|--------|--------|-19----19----|-19--19----19----|-19----19--19----|
A|--------|--------|--------|--------|--------|-------------|-----------------|-----------------|
F|--------|--------|--------|--------|--------|-------------|-----------------|-----------------|
C|--------|--------|--------|--------|--------|-------------|-----------------|-----------------|
G|--------|--------|--------|--------|--------|-------------|-----------------|-----------------|
D|--------|--------|--------|--------|--------|-------------|-----------------|-----------------|


D|-19---19---19-19-19-18-17-15-17-15-15-15-|-15-------------------19---|-19-----|--------|
A|-19---19---------------------------------|------17-17---17--17-------|--------|--------|
F|-----------------------------------------|---------------------------|--------|--------|
C|-----------------------------------------|---------------------------|--------|--------|
G|-----------------------------------------|---------------------------|--------|--------|
D|-----------------------------------------|---------------------------|--------|--------|


D|------------------------|--------|--------|--------|--------|--------|--------|--------|
A|------------------------|--------|--------|--------|--------|--------|--------|--------|
F|----------3---3----3----|--------|--------|--------|--------|--------|--------|--------|
C|------------------------|--------|--------|--------|--------|--------|--------|--------|
G|------------------------|--------|--------|--------|--------|--------|--------|--------|
D|------------------------|--------|--------|--------|--------|--------|--------|--------|


D|--------|--------|--------|--------|--------|--------|--------|--------|--------|
A|--------|--------|--------|--------|--------|--------|--------|--------|--------|
F|--------|--------|--------|--------|--------|--------|--------|--------|--------|
C|--------|--------|--------|--------|--------|--------|--------|--------|--------|
G|--------|--------|--------|--------|--------|--------|--------|--------|--------|
D|--------|--------|--------|--------|--------|--------|--------|--------|--------|


D|--------|---------------------------|-----------------------------------------|-----------------------------------------|
A|--------|---------------------------|-----------------------------------------|-----------------------------------------|
F|--------|---------------------------|-----------1--1--------------------------|--------------0--1-----------------------|
C|--------|-------3--5--0---0---3--5--|-0---0--0--------3---3--5--0---0---3--5--|-0---0--0--3---------3--5--0---0---3--5--|
G|--------|---------------------------|-----------------------------------------|-----------------------------------------|
D|--------|---------------------------|-----------------------------------------|-----------------------------------------|


D|-------------------------------------------|-------------------------------------------|
A|-------------------------------------------|-------------------------------------------|
F|-----------1--1----------------------------|----------------0--1-----------------------|
C|-0---0--0--------3---0--1--1--1--1---1--1--|-1--1--1--1--3---------3--5--0---0---3--5--|
G|-------------------------------------------|-------------------------------------------|
D|-------------------------------------------|-------------------------------------------|


D|-----------------------------------------|-----------------------------------------|
A|-----------------------------------------|-----------------------------------------|
F|-----------1--1--------------------------|--------------0--1-----------------------|
C|-0---0--0--------3---3--5--0---0---3--5--|-0---0--0--3---------3--5--0---0---3--5--|
G|-----------------------------------------|-----------------------------------------|
D|-----------------------------------------|-----------------------------------------|


D|-------------------------------------------|-----------------------------|--------|
A|-------------------------------------------|-----------------------------|--------|
F|-----------1--1----------------------------|----------------0--1---------|--------|
C|-0---0--0--------3---0--1--1--1--1---1--1--|-1--1--1--1--3---------------|--------|
G|-------------------------------------------|-----------------------------|--------|
D|-------------------------------------------|-----------------------------|--------|


D|--------|--------|--------|--------|--------|--------|--------|--------|--------|
A|--------|--------|--------|--------|--------|--------|--------|--------|--------|
F|--------|--------|--------|--------|--------|--------|--------|--------|--------|
C|--------|--------|--------|--------|--------|--------|--------|--------|--------|
G|--------|--------|--------|--------|--------|--------|--------|--------|--------|
D|--------|--------|--------|--------|--------|--------|--------|--------|--------|


D|--------|--------|--------|--------|--------|--------|--------|--------|--------|
A|--------|--------|--------|--------|--------|--------|--------|--------|--------|
F|--------|--------|--------|--------|--------|--------|--------|--------|--------|
C|--------|--------|--------|--------|--------|--------|--------|--------|--------|
G|--------|--------|--------|--------|--------|--------|--------|--------|--------|
D|--------|--------|--------|--------|--------|--------|--------|--------|--------|


D|--------|
A|--------|
F|--------|
C|--------|
G|--------|
D|--------|





Track 8: Rhythm Guitar

D|--------|--------|--------|--------|--------|--------|--------|--------|--------|
A|--------|--------|--------|--------|--------|--------|--------|--------|--------|
F|--------|--------|--------|--------|--------|--------|--------|--------|--------|
C|--------|--------|--------|--------|--------|--------|--------|--------|--------|
G|--------|--------|--------|--------|--------|--------|--------|--------|--------|
D|--------|--------|--------|--------|--------|--------|--------|--------|--------|


D|--------|--------|--------|--------|--------|--------|--------|--------|--------|
A|--------|--------|--------|--------|--------|--------|--------|--------|--------|
F|--------|--------|--------|--------|--------|--------|--------|--------|--------|
C|--------|--------|--------|--------|--------|--------|--------|--------|--------|
G|--------|--------|--------|--------|--------|--------|--------|--------|--------|
D|--------|--------|--------|--------|--------|--------|--------|--------|--------|


D|--------|--------|--------|--------|--------|--------|--------|--------|--------|
A|--------|--------|--------|--------|--------|--------|--------|--------|--------|
F|--------|--------|--------|--------|--------|--------|--------|--------|--------|
C|--------|--------|--------|--------|--------|--------|--------|--------|--------|
G|--------|--------|--------|--------|--------|--------|--------|--------|--------|
D|--------|--------|--------|--------|--------|--------|--------|--------|--------|


D|--------|--------|--------|--------|--------|--------|--------|--------|--------|
A|--------|--------|--------|--------|--------|--------|--------|--------|--------|
F|--------|--------|--------|--------|--------|--------|--------|--------|--------|
C|--------|--------|--------|--------|--------|--------|--------|--------|--------|
G|--------|--------|--------|--------|--------|--------|--------|--------|--------|
D|--------|--------|--------|--------|--------|--------|--------|--------|--------|


D|--------|--------|--------|--------|--------|--------|--------|--------|--------|
A|--------|--------|--------|--------|--------|--------|--------|--------|--------|
F|--------|--------|--------|--------|--------|--------|--------|--------|--------|
C|--------|--------|--------|--------|--------|--------|--------|--------|--------|
G|--------|--------|--------|--------|--------|--------|--------|--------|--------|
D|--------|--------|--------|--------|--------|--------|--------|--------|--------|


D|--------|--------|--------|--------|--------|--------|--------|--------|--------|
A|--------|--------|--------|--------|--------|--------|--------|--------|--------|
F|--------|--------|--------|--------|--------|--------|--------|--------|--------|
C|--------|--------|--------|--------|--------|--------|--------|--------|--------|
G|--------|--------|--------|--------|--------|--------|--------|--------|--------|
D|--------|--------|--------|--------|--------|--------|--------|--------|--------|


D|--------|--------|--------|--------|--------|--------|--------|--------|--------|
A|--------|--------|--------|--------|--------|--------|--------|--------|--------|
F|--------|--------|--------|--------|--------|--------|--------|--------|--------|
C|--------|--------|--------|--------|--------|--------|--------|--------|--------|
G|--------|--------|--------|--------|--------|--------|--------|--------|--------|
D|--------|--------|--------|--------|--------|--------|--------|--------|--------|


D|--------|--------|--------|--------|--------|--------|--------|--------|--------|
A|--------|--------|--------|--------|--------|--------|--------|--------|--------|
F|--------|--------|--------|--------|--------|--------|--------|--------|--------|
C|--------|--------|--------|--------|--------|--------|--------|--------|--------|
G|--------|--------|--------|--------|--------|--------|--------|--------|--------|
D|--------|--------|--------|--------|--------|--------|--------|--------|--------|


D|--------|--------|--------|--------|--------|--------|--------|--------|--------|
A|--------|--------|--------|--------|--------|--------|--------|--------|--------|
F|--------|--------|--------|--------|--------|--------|--------|--------|--------|
C|--------|--------|--------|--------|--------|--------|--------|--------|--------|
G|--------|--------|--------|--------|--------|--------|--------|--------|--------|
D|--------|--------|--------|--------|--------|--------|--------|--------|--------|


D|--------|--------|---------------------------------------------|-----------------------------------------------|
A|--------|--------|-----------------------------------------3---|-----------------------------------------6--8--|
F|--------|--------|-3--3--1--3--3--1---------3--3--1--3--4------|-6--6--4--6--6--4---------6--6--4--6--8--------|
C|--------|--------|--------------------3--3---------------------|--------------------6--6-----------------------|
G|--------|--------|---------------------------------------------|-----------------------------------------------|
D|--------|--------|---------------------------------------------|-----------------------------------------------|


D|-----------------------------|--------|--------|--------|--------|--------|--------|
A|-----------------------------|--------|--------|--------|--------|--------|--------|
F|-6--6--4--6--6--4------------|--------|--------|--------|--------|--------|--------|
C|-----------------------------|--------|--------|--------|--------|--------|--------|
G|-----------------------------|--------|--------|--------|--------|--------|--------|
D|-----------------------------|--------|--------|--------|--------|--------|--------|


D|--------|--------|--------|--------|--------|--------|--------|--------|--------|
A|--------|--------|--------|--------|--------|--------|--------|--------|--------|
F|--------|--------|--------|--------|--------|--------|--------|--------|--------|
C|--------|--------|--------|--------|--------|--------|--------|--------|--------|
G|--------|--------|--------|--------|--------|--------|--------|--------|--------|
D|--------|--------|--------|--------|--------|--------|--------|--------|--------|


D|--------|--------|--------|--------|--------|--------|--------|--------|--------|
A|--------|--------|--------|--------|--------|--------|--------|--------|--------|
F|--------|--------|--------|--------|--------|--------|--------|--------|--------|
C|--------|--------|--------|--------|--------|--------|--------|--------|--------|
G|--------|--------|--------|--------|--------|--------|--------|--------|--------|
D|--------|--------|--------|--------|--------|--------|--------|--------|--------|


D|--------|--------|--------|--------|--------|--------|--------|--------|--------|
A|--------|--------|--------|--------|--------|--------|--------|--------|--------|
F|--------|--------|--------|--------|--------|--------|--------|--------|--------|
C|--------|--------|--------|--------|--------|--------|--------|--------|--------|
G|--------|--------|--------|--------|--------|--------|--------|--------|--------|
D|--------|--------|--------|--------|--------|--------|--------|--------|--------|


D|--------|--------|--------|--------|--------|--------|--------|--------|--------|
A|--------|--------|--------|--------|--------|--------|--------|--------|--------|
F|--------|--------|--------|--------|--------|--------|--------|--------|--------|
C|--------|--------|--------|--------|--------|--------|--------|--------|--------|
G|--------|--------|--------|--------|--------|--------|--------|--------|--------|
D|--------|--------|--------|--------|--------|--------|--------|--------|--------|


D|--------|--------|--------|--------|--------|--------|--------|--------|--------|
A|--------|--------|--------|--------|--------|--------|--------|--------|--------|
F|--------|--------|--------|--------|--------|--------|--------|--------|--------|
C|--------|--------|--------|--------|--------|--------|--------|--------|--------|
G|--------|--------|--------|--------|--------|--------|--------|--------|--------|
D|--------|--------|--------|--------|--------|--------|--------|--------|--------|


D|--------|--------|--------|
A|--------|--------|--------|
F|--------|--------|--------|
C|--------|--------|--------|
G|--------|--------|--------|
D|--------|--------|--------|





Track 9: Rhythm Guitar

D|--------|--------|--------|--------|--------|--------|--------|--------|--------|
A|--------|--------|--------|--------|--------|--------|--------|--------|--------|
F|--------|--------|--------|--------|--------|--------|--------|--------|--------|
C|--------|--------|--------|--------|--------|--------|--------|--------|--------|
G|--------|--------|--------|--------|--------|--------|--------|--------|--------|
D|--------|--------|--------|--------|--------|--------|--------|--------|--------|


D|--------|--------|--------|--------|--------|--------|--------|--------|--------|
A|--------|--------|--------|--------|--------|--------|--------|--------|--------|
F|--------|--------|--------|--------|--------|--------|--------|--------|--------|
C|--------|--------|--------|--------|--------|--------|--------|--------|--------|
G|--------|--------|--------|--------|--------|--------|--------|--------|--------|
D|--------|--------|--------|--------|--------|--------|--------|--------|--------|


D|--------|--------|--------|--------|--------|--------|--------|--------|--------|
A|--------|--------|--------|--------|--------|--------|--------|--------|--------|
F|--------|--------|--------|--------|--------|--------|--------|--------|--------|
C|--------|--------|--------|--------|--------|--------|--------|--------|--------|
G|--------|--------|--------|--------|--------|--------|--------|--------|--------|
D|--------|--------|--------|--------|--------|--------|--------|--------|--------|


D|--------|--------|--------|--------|--------|--------|--------|--------|--------|
A|--------|--------|--------|--------|--------|--------|--------|--------|--------|
F|--------|--------|--------|--------|--------|--------|--------|--------|--------|
C|--------|--------|--------|--------|--------|--------|--------|--------|--------|
G|--------|--------|--------|--------|--------|--------|--------|--------|--------|
D|--------|--------|--------|--------|--------|--------|--------|--------|--------|


D|--------|--------|--------|--------|--------|--------|--------|--------|--------|
A|--------|--------|--------|--------|--------|--------|--------|--------|--------|
F|--------|--------|--------|--------|--------|--------|--------|--------|--------|
C|--------|--------|--------|--------|--------|--------|--------|--------|--------|
G|--------|--------|--------|--------|--------|--------|--------|--------|--------|
D|--------|--------|--------|--------|--------|--------|--------|--------|--------|


D|--------|--------|--------|--------|--------|--------|--------|--------|--------|
A|--------|--------|--------|--------|--------|--------|--------|--------|--------|
F|--------|--------|--------|--------|--------|--------|--------|--------|--------|
C|--------|--------|--------|--------|--------|--------|--------|--------|--------|
G|--------|--------|--------|--------|--------|--------|--------|--------|--------|
D|--------|--------|--------|--------|--------|--------|--------|--------|--------|


D|--------|--------|--------|--------|--------|--------|--------|--------|--------|
A|--------|--------|--------|--------|--------|--------|--------|--------|--------|
F|--------|--------|--------|--------|--------|--------|--------|--------|--------|
C|--------|--------|--------|--------|--------|--------|--------|--------|--------|
G|--------|--------|--------|--------|--------|--------|--------|--------|--------|
D|--------|--------|--------|--------|--------|--------|--------|--------|--------|


D|--------|--------|--------|--------|--------|--------|--------|--------|--------|
A|--------|--------|--------|--------|--------|--------|--------|--------|--------|
F|--------|--------|--------|--------|--------|--------|--------|--------|--------|
C|--------|--------|--------|--------|--------|--------|--------|--------|--------|
G|--------|--------|--------|--------|--------|--------|--------|--------|--------|
D|--------|--------|--------|--------|--------|--------|--------|--------|--------|


D|--------|--------|--------|--------|--------|--------|--------|--------|--------|
A|--------|--------|--------|--------|--------|--------|--------|--------|--------|
F|--------|--------|--------|--------|--------|--------|--------|--------|--------|
C|--------|--------|--------|--------|--------|--------|--------|--------|--------|
G|--------|--------|--------|--------|--------|--------|--------|--------|--------|
D|--------|--------|--------|--------|--------|--------|--------|--------|--------|


D|--------|--------|--------|--------|----------19--19----|--------|--------|--------|
A|--------|--------|--------|--------|--------------------|--------|--------|--------|
F|--------|--------|--------|--------|--------------------|--------|--------|--------|
C|--------|--------|--------|--------|--------------------|--------|--------|--------|
G|--------|--------|--------|--------|--------------------|--------|--------|--------|
D|--------|--------|--------|--------|--------------------|--------|--------|--------|


D|--------|--------|--------|--------|--------|--------|--------|--------|--------|
A|--------|--------|--------|--------|--------|--------|--------|--------|--------|
F|--------|--------|--------|--------|--------|--------|--------|--------|--------|
C|--------|--------|--------|--------|--------|--------|--------|--------|--------|
G|--------|--------|--------|--------|--------|--------|--------|--------|--------|
D|--------|--------|--------|--------|--------|--------|--------|--------|--------|


D|--------|--------|--------|--------|--------|--------|--------|--------|--------|
A|--------|--------|--------|--------|--------|--------|--------|--------|--------|
F|--------|--------|--------|--------|--------|--------|--------|--------|--------|
C|--------|--------|--------|--------|--------|--------|--------|--------|--------|
G|--------|--------|--------|--------|--------|--------|--------|--------|--------|
D|--------|--------|--------|--------|--------|--------|--------|--------|--------|


D|--------|--------|--------|--------|--------|--------|--------|--------|--------|
A|--------|--------|--------|--------|--------|--------|--------|--------|--------|
F|--------|--------|--------|--------|--------|--------|--------|--------|--------|
C|--------|--------|--------|--------|--------|--------|--------|--------|--------|
G|--------|--------|--------|--------|--------|--------|--------|--------|--------|
D|--------|--------|--------|--------|--------|--------|--------|--------|--------|


D|--------|--------|--------|--------|--------|--------|--------|--------|--------|
A|--------|--------|--------|--------|--------|--------|--------|--------|--------|
F|--------|--------|--------|--------|--------|--------|--------|--------|--------|
C|--------|--------|--------|--------|--------|--------|--------|--------|--------|
G|--------|--------|--------|--------|--------|--------|--------|--------|--------|
D|--------|--------|--------|--------|--------|--------|--------|--------|--------|


D|--------|--------|--------|--------|--------|--------|--------|--------|--------|
A|--------|--------|--------|--------|--------|--------|--------|--------|--------|
F|--------|--------|--------|--------|--------|--------|--------|--------|--------|
C|--------|--------|--------|--------|--------|--------|--------|--------|--------|
G|--------|--------|--------|--------|--------|--------|--------|--------|--------|
D|--------|--------|--------|--------|--------|--------|--------|--------|--------|


D|--------|--------|--------|--------|--------|--------|
A|--------|--------|--------|--------|--------|--------|
F|--------|--------|--------|--------|--------|--------|
C|--------|--------|--------|--------|--------|--------|
G|--------|--------|--------|--------|--------|--------|
D|--------|--------|--------|--------|--------|--------|





Track 10: Rhythm Guitar

D|--------|--------|--------|--------|--------|--------|--------|--------|--------|
A|--------|--------|--------|--------|--------|--------|--------|--------|--------|
F|--------|--------|--------|--------|--------|--------|--------|--------|--------|
C|--------|--------|--------|--------|--------|--------|--------|--------|--------|
G|--------|--------|--------|--------|--------|--------|--------|--------|--------|
D|--------|--------|--------|--------|--------|--------|--------|--------|--------|


D|--------|--------|--------|--------|--------|--------|--------|--------|--------|
A|--------|--------|--------|--------|--------|--------|--------|--------|--------|
F|--------|--------|--------|--------|--------|--------|--------|--------|--------|
C|--------|--------|--------|--------|--------|--------|--------|--------|--------|
G|--------|--------|--------|--------|--------|--------|--------|--------|--------|
D|--------|--------|--------|--------|--------|--------|--------|--------|--------|


D|--------|--------|--------|--------|--------|--------|--------|--------|--------|
A|--------|--------|--------|--------|--------|--------|--------|--------|--------|
F|--------|--------|--------|--------|--------|--------|--------|--------|--------|
C|--------|--------|--------|--------|--------|--------|--------|--------|--------|
G|--------|--------|--------|--------|--------|--------|--------|--------|--------|
D|--------|--------|--------|--------|--------|--------|--------|--------|--------|


D|--------|--------|--------|--------|--------|--------|--------|--------|--------|
A|--------|--------|--------|--------|--------|--------|--------|--------|--------|
F|--------|--------|--------|--------|--------|--------|--------|--------|--------|
C|--------|--------|--------|--------|--------|--------|--------|--------|--------|
G|--------|--------|--------|--------|--------|--------|--------|--------|--------|
D|--------|--------|--------|--------|--------|--------|--------|--------|--------|


D|--------|--------|--------|--------|--------|--------|--------|--------|--------|
A|--------|--------|--------|--------|--------|--------|--------|--------|--------|
F|--------|--------|--------|--------|--------|--------|--------|--------|--------|
C|--------|--------|--------|--------|--------|--------|--------|--------|--------|
G|--------|--------|--------|--------|--------|--------|--------|--------|--------|
D|--------|--------|--------|--------|--------|--------|--------|--------|--------|


D|--------|--------|--------|--------|--------|--------|--------|--------|--------|
A|--------|--------|--------|--------|--------|--------|--------|--------|--------|
F|--------|--------|--------|--------|--------|--------|--------|--------|--------|
C|--------|--------|--------|--------|--------|--------|--------|--------|--------|
G|--------|--------|--------|--------|--------|--------|--------|--------|--------|
D|--------|--------|--------|--------|--------|--------|--------|--------|--------|


D|--------|--------|--------|--------|--------|--------|--------|--------|--------|
A|--------|--------|--------|--------|--------|--------|--------|--------|--------|
F|--------|--------|--------|--------|--------|--------|--------|--------|--------|
C|--------|--------|--------|--------|--------|--------|--------|--------|--------|
G|--------|--------|--------|--------|--------|--------|--------|--------|--------|
D|--------|--------|--------|--------|--------|--------|--------|--------|--------|


D|--------|--------|--------|--------|--------|--------|--------|--------|--------|
A|--------|--------|--------|--------|--------|--------|--------|--------|--------|
F|--------|--------|--------|--------|--------|--------|--------|--------|--------|
C|--------|--------|--------|--------|--------|--------|--------|--------|--------|
G|--------|--------|--------|--------|--------|--------|--------|--------|--------|
D|--------|--------|--------|--------|--------|--------|--------|--------|--------|


D|--------|--------|--------|--------|--------|--------|--------|--------|--------|
A|--------|--------|--------|--------|--------|--------|--------|--------|--------|
F|--------|--------|--------|--------|--------|--------|--------|--------|--------|
C|--------|--------|--------|--------|--------|--------|--------|--------|--------|
G|--------|--------|--------|--------|--------|--------|--------|--------|--------|
D|--------|--------|--------|--------|--------|--------|--------|--------|--------|


D|--------|--------|--------|--------|--------|--------|--------|--------|--------|
A|--------|--------|--------|--------|--------|--------|--------|--------|--------|
F|--------|--------|--------|--------|--------|--------|--------|--------|--------|
C|--------|--------|--------|--------|--------|--------|--------|--------|--------|
G|--------|--------|--------|--------|--------|--------|--------|--------|--------|
D|--------|--------|--------|--------|--------|--------|--------|--------|--------|


D|--------|--------|--------|--------|-----------------------------------|---------------------------------------|
A|--------|--------|--------|--------|-----------------------------------|---------------------------------------|
F|--------|--------|--------|--------|-------------1---------------------|---------------1-----------------------|
C|--------|--------|--------|--------|-1---------------1--0----------1---|-1--0--------------0---1--0--0--1--3---|
G|--------|--------|--------|--------|-----------------------------------|---------------------------------------|
D|--------|--------|--------|--------|-----------------------------------|---------------------------------------|


D|-----------------------------------|---------------------------------------|-----------------------------------|
A|-----------------------------------|---------------------------------------|-----------------------------------|
F|-------------1---------------------|---------------1-----------------------|-------------1---------------------|
C|-1---------------1--0----------1---|-1--0--------------0---1--0--0--1--3---|-1---------------1--0----------1---|
G|-----------------------------------|---------------------------------------|-----------------------------------|
D|-----------------------------------|---------------------------------------|-----------------------------------|


D|---------------------------------------|-----------------------------------|---------------------------------------|
A|---------------------------------------|-----------------------------------|---------------------------------------|
F|---------------1-----------------------|-------------1---------------------|---------------1-----------------------|
C|-1--0--------------0---1--0--0--1--3---|-1---------------1--0----------1---|-1--0--------------0---1--0--0--1--3---|
G|---------------------------------------|-----------------------------------|---------------------------------------|
D|---------------------------------------|-----------------------------------|---------------------------------------|


D|-----------------------------------------|--------|--------|--------|--------|--------|
A|-----------------------------------------|--------|--------|--------|--------|--------|
F|-----------------------------------------|--------|--------|--------|--------|--------|
C|-0---1--0--0--1--3---0---1--0--0--1--3---|--------|--------|--------|--------|--------|
G|-----------------------------------------|--------|--------|--------|--------|--------|
D|-----------------------------------------|--------|--------|--------|--------|--------|


D|--------|--------|--------|--------|--------|--------|--------|--------|--------|
A|--------|--------|--------|--------|--------|--------|--------|--------|--------|
F|--------|--------|--------|--------|--------|--------|--------|--------|--------|
C|--------|--------|--------|--------|--------|--------|--------|--------|--------|
G|--------|--------|--------|--------|--------|--------|--------|--------|--------|
D|--------|--------|--------|--------|--------|--------|--------|--------|--------|


D|--------|--------|--------|--------|--------|--------|--------|--------|--------|
A|--------|--------|--------|--------|--------|--------|--------|--------|--------|
F|--------|--------|--------|--------|--------|--------|--------|--------|--------|
C|--------|--------|--------|--------|--------|--------|--------|--------|--------|
G|--------|--------|--------|--------|--------|--------|--------|--------|--------|
D|--------|--------|--------|--------|--------|--------|--------|--------|--------|


D|--------|--------|--------|--------|--------|--------|--------|--------|--------|
A|--------|--------|--------|--------|--------|--------|--------|--------|--------|
F|--------|--------|--------|--------|--------|--------|--------|--------|--------|
C|--------|--------|--------|--------|--------|--------|--------|--------|--------|
G|--------|--------|--------|--------|--------|--------|--------|--------|--------|
D|--------|--------|--------|--------|--------|--------|--------|--------|--------|


D|--------|--------|--------|--------|--------|
A|--------|--------|--------|--------|--------|
F|--------|--------|--------|--------|--------|
C|--------|--------|--------|--------|--------|
G|--------|--------|--------|--------|--------|
D|--------|--------|--------|--------|--------|





Track 11: Rhythm Guitar

D|--------|--------|--------|--------|--------|--------|--------|--------|--------|
A|--------|--------|--------|--------|--------|--------|--------|--------|--------|
F|--------|--------|--------|--------|--------|--------|--------|--------|--------|
C|--------|--------|--------|--------|--------|--------|--------|--------|--------|
G|--------|--------|--------|--------|--------|--------|--------|--------|--------|
D|--------|--------|--------|--------|--------|--------|--------|--------|--------|


D|--------|--------|--------|--------|--------|--------|--------|--------|--------|
A|--------|--------|--------|--------|--------|--------|--------|--------|--------|
F|--------|--------|--------|--------|--------|--------|--------|--------|--------|
C|--------|--------|--------|--------|--------|--------|--------|--------|--------|
G|--------|--------|--------|--------|--------|--------|--------|--------|--------|
D|--------|--------|--------|--------|--------|--------|--------|--------|--------|


D|--------|--------|--------|--------|--------|--------|--------|--------|--------|
A|--------|--------|--------|--------|--------|--------|--------|--------|--------|
F|--------|--------|--------|--------|--------|--------|--------|--------|--------|
C|--------|--------|--------|--------|--------|--------|--------|--------|--------|
G|--------|--------|--------|--------|--------|--------|--------|--------|--------|
D|--------|--------|--------|--------|--------|--------|--------|--------|--------|


D|--------|--------|--------|--------|--------|--------|--------|--------|--------|
A|--------|--------|--------|--------|--------|--------|--------|--------|--------|
F|--------|--------|--------|--------|--------|--------|--------|--------|--------|
C|--------|--------|--------|--------|--------|--------|--------|--------|--------|
G|--------|--------|--------|--------|--------|--------|--------|--------|--------|
D|--------|--------|--------|--------|--------|--------|--------|--------|--------|


D|--------|--------|--------|--------|--------|--------|--------|--------|--------|
A|--------|--------|--------|--------|--------|--------|--------|--------|--------|
F|--------|--------|--------|--------|--------|--------|--------|--------|--------|
C|--------|--------|--------|--------|--------|--------|--------|--------|--------|
G|--------|--------|--------|--------|--------|--------|--------|--------|--------|
D|--------|--------|--------|--------|--------|--------|--------|--------|--------|


D|--------|--------|--------|--------|--------|--------|--------|--------|--------|
A|--------|--------|--------|--------|--------|--------|--------|--------|--------|
F|--------|--------|--------|--------|--------|--------|--------|--------|--------|
C|--------|--------|--------|--------|--------|--------|--------|--------|--------|
G|--------|--------|--------|--------|--------|--------|--------|--------|--------|
D|--------|--------|--------|--------|--------|--------|--------|--------|--------|


D|--------|--------|--------|--------|--------|--------|--------|--------|--------|
A|--------|--------|--------|--------|--------|--------|--------|--------|--------|
F|--------|--------|--------|--------|--------|--------|--------|--------|--------|
C|--------|--------|--------|--------|--------|--------|--------|--------|--------|
G|--------|--------|--------|--------|--------|--------|--------|--------|--------|
D|--------|--------|--------|--------|--------|--------|--------|--------|--------|


D|--------|--------|--------|--------|--------|--------|--------|--------|--------|
A|--------|--------|--------|--------|--------|--------|--------|--------|--------|
F|--------|--------|--------|--------|--------|--------|--------|--------|--------|
C|--------|--------|--------|--------|--------|--------|--------|--------|--------|
G|--------|--------|--------|--------|--------|--------|--------|--------|--------|
D|--------|--------|--------|--------|--------|--------|--------|--------|--------|


D|--------|--------|--------|--------|--------|--------|--------|--------|--------|
A|--------|--------|--------|--------|--------|--------|--------|--------|--------|
F|--------|--------|--------|--------|--------|--------|--------|--------|--------|
C|--------|--------|--------|--------|--------|--------|--------|--------|--------|
G|--------|--------|--------|--------|--------|--------|--------|--------|--------|
D|--------|--------|--------|--------|--------|--------|--------|--------|--------|


D|--------|--------|--------|--------|--------|--------|--------|--------|--------|
A|--------|--------|--------|--------|--------|--------|--------|--------|--------|
F|--------|--------|--------|--------|--------|--------|--------|--------|--------|
C|--------|--------|--------|--------|--------|--------|--------|--------|--------|
G|--------|--------|--------|--------|--------|--------|--------|--------|--------|
D|--------|--------|--------|--------|--------|--------|--------|--------|--------|


D|--------|--------|--------|--------|--------|--------|--------|--------|--------|
A|--------|--------|--------|--------|--------|--------|--------|--------|--------|
F|--------|--------|--------|--------|--------|--------|--------|--------|--------|
C|--------|--------|--------|--------|--------|--------|--------|--------|--------|
G|--------|--------|--------|--------|--------|--------|--------|--------|--------|
D|--------|--------|--------|--------|--------|--------|--------|--------|--------|


D|--------|--------|--------|--------|-------------|--------|--------|--------|--------|
A|--------|--------|--------|--------|-------------|--------|--------|--------|--------|
F|--------|--------|--------|--------|-------------|--------|--------|--------|--------|
C|--------|--------|--------|--------|-------------|--------|--------|--------|--------|
G|--------|--------|--------|--------|-------------|--------|--------|--------|--------|
D|--------|--------|--------|--------|-------------|--------|--------|--------|--------|


D|--------|--------|--------|--------|--------|--------|--------|--------|--------|
A|--------|--------|--------|--------|--------|--------|--------|--------|--------|
F|--------|--------|--------|--------|--------|--------|--------|--------|--------|
C|--------|--------|--------|--------|--------|--------|--------|--------|--------|
G|--------|--------|--------|--------|--------|--------|--------|--------|--------|
D|--------|--------|--------|--------|--------|--------|--------|--------|--------|


D|--------|--------|--------|--------|--------|--------|--------|--------|--------|
A|--------|--------|--------|--------|--------|--------|--------|--------|--------|
F|--------|--------|--------|--------|--------|--------|--------|--------|--------|
C|--------|--------|--------|--------|--------|--------|--------|--------|--------|
G|--------|--------|--------|--------|--------|--------|--------|--------|--------|
D|--------|--------|--------|--------|--------|--------|--------|--------|--------|


D|--------|--------|--------|--------|--------|--------|--------|--------|--------|
A|--------|--------|--------|--------|--------|--------|--------|--------|--------|
F|--------|--------|--------|--------|--------|--------|--------|--------|--------|
C|--------|--------|--------|--------|--------|--------|--------|--------|--------|
G|--------|--------|--------|--------|--------|--------|--------|--------|--------|
D|--------|--------|--------|--------|--------|--------|--------|--------|--------|


D|--------|--------|--------|--------|--------|
A|--------|--------|--------|--------|--------|
F|--------|--------|--------|--------|--------|
C|--------|--------|--------|--------|--------|
G|--------|--------|--------|--------|--------|
D|--------|--------|--------|--------|--------|





Track 12: Rhythm Guitar

D|--------|--------|--------|--------|--------|--------|--------|--------|--------|
A|--------|--------|--------|--------|--------|--------|--------|--------|--------|
F|--------|--------|--------|--------|--------|--------|--------|--------|--------|
C|--------|--------|--------|--------|--------|--------|--------|--------|--------|
G|--------|--------|--------|--------|--------|--------|--------|--------|--------|
D|--------|--------|--------|--------|--------|--------|--------|--------|--------|


D|--------|--------|--------|--------|--------|--------|--------|--------|--------|
A|--------|--------|--------|--------|--------|--------|--------|--------|--------|
F|--------|--------|--------|--------|--------|--------|--------|--------|--------|
C|--------|--------|--------|--------|--------|--------|--------|--------|--------|
G|--------|--------|--------|--------|--------|--------|--------|--------|--------|
D|--------|--------|--------|--------|--------|--------|--------|--------|--------|


D|--------|--------|--------|--------|--------|--------|--------|--------|--------|
A|--------|--------|--------|--------|--------|--------|--------|--------|--------|
F|--------|--------|--------|--------|--------|--------|--------|--------|--------|
C|--------|--------|--------|--------|--------|--------|--------|--------|--------|
G|--------|--------|--------|--------|--------|--------|--------|--------|--------|
D|--------|--------|--------|--------|--------|--------|--------|--------|--------|


D|--------|--------|--------|--------|--------|--------|--------|--------|--------|
A|--------|--------|--------|--------|--------|--------|--------|--------|--------|
F|--------|--------|--------|--------|--------|--------|--------|--------|--------|
C|--------|--------|--------|--------|--------|--------|--------|--------|--------|
G|--------|--------|--------|--------|--------|--------|--------|--------|--------|
D|--------|--------|--------|--------|--------|--------|--------|--------|--------|


D|--------|--------|--------|--------|--------|--------|--------|--------|--------|
A|--------|--------|--------|--------|--------|--------|--------|--------|--------|
F|--------|--------|--------|--------|--------|--------|--------|--------|--------|
C|--------|--------|--------|--------|--------|--------|--------|--------|--------|
G|--------|--------|--------|--------|--------|--------|--------|--------|--------|
D|--------|--------|--------|--------|--------|--------|--------|--------|--------|


D|--------|--------|--------|--------|--------|--------|--------|--------|--------|
A|--------|--------|--------|--------|--------|--------|--------|--------|--------|
F|--------|--------|--------|--------|--------|--------|--------|--------|--------|
C|--------|--------|--------|--------|--------|--------|--------|--------|--------|
G|--------|--------|--------|--------|--------|--------|--------|--------|--------|
D|--------|--------|--------|--------|--------|--------|--------|--------|--------|


D|--------|--------|--------|--------|--------|--------|--------|--------|--------|
A|--------|--------|--------|--------|--------|--------|--------|--------|--------|
F|--------|--------|--------|--------|--------|--------|--------|--------|--------|
C|--------|--------|--------|--------|--------|--------|--------|--------|--------|
G|--------|--------|--------|--------|--------|--------|--------|--------|--------|
D|--------|--------|--------|--------|--------|--------|--------|--------|--------|


D|--------|--------|--------|--------|--------|--------|--------|--------|--------|
A|--------|--------|--------|--------|--------|--------|--------|--------|--------|
F|--------|--------|--------|--------|--------|--------|--------|--------|--------|
C|--------|--------|--------|--------|--------|--------|--------|--------|--------|
G|--------|--------|--------|--------|--------|--------|--------|--------|--------|
D|--------|--------|--------|--------|--------|--------|--------|--------|--------|


D|--------|--------|--------|--------|--------|--------|--------|--------|--------|
A|--------|--------|--------|--------|--------|--------|--------|--------|--------|
F|--------|--------|--------|--------|--------|--------|--------|--------|--------|
C|--------|--------|--------|--------|--------|--------|--------|--------|--------|
G|--------|--------|--------|--------|--------|--------|--------|--------|--------|
D|--------|--------|--------|--------|--------|--------|--------|--------|--------|


D|--------|--------|--------|--------|--------|--------|--------|--------|--------|
A|--------|--------|--------|--------|--------|--------|--------|--------|--------|
F|--------|--------|--------|--------|--------|--------|--------|--------|--------|
C|--------|--------|--------|--------|--------|--------|--------|--------|--------|
G|--------|--------|--------|--------|--------|--------|--------|--------|--------|
D|--------|--------|--------|--------|--------|--------|--------|--------|--------|


D|--------|--------|--------|--------|--------|--------|--------|--------|--------|
A|--------|--------|--------|--------|--------|--------|--------|--------|--------|
F|--------|--------|--------|--------|--------|--------|--------|--------|--------|
C|--------|--------|--------|--------|--------|--------|--------|--------|--------|
G|--------|--------|--------|--------|--------|--------|--------|--------|--------|
D|--------|--------|--------|--------|--------|--------|--------|--------|--------|


D|--------|--------|--------|--------|---------------------------|-----------------------------------------|
A|--------|--------|--------|--------|---------------------------|-----------------------------------------|
F|--------|--------|--------|--------|---------------------------|-----------------------------------------|
C|--------|--------|--------|--------|-------3--5--0---0---3--5--|-0------0--0--0---0--3--5--0---0---6--3--|
G|--------|--------|--------|--------|---------------------------|-----------------------------------------|
D|--------|--------|--------|--------|---------------------------|-----------------------------------------|


D|-----------------------------------------|-----------------------------------------|
A|-----------------------------------------|-----------------------------------------|
F|-----------------------------------------|-----------------------------------------|
C|-0------0--0--0---0--3--5--0---0---3--5--|-0------0--0--0---0--3--5--0---0---6--3--|
G|-----------------------------------------|-----------------------------------------|
D|-----------------------------------------|-----------------------------------------|


D|---------------------------------------|-----------------------------------------|
A|---------------------------------------|-----------------------------------------|
F|---------------------------------------|-----------------------------------------|
C|-0---0---0--0---0--3--5--0---0---3--5--|-0------0--0--0---0--3--5--0---0---6--3--|
G|---------------------------------------|-----------------------------------------|
D|---------------------------------------|-----------------------------------------|


D|-----------------------------------------|-----------------------------------------|
A|-----------------------------------------|-----------------------------------------|
F|-----------------------------------------|-----------------------------------------|
C|-0------0--0--0---0--3--5--0---0---3--5--|-0------0--0--0---0--3--5--0---0---6--3--|
G|-----------------------------------------|-----------------------------------------|
D|-----------------------------------------|-----------------------------------------|


D|-------------------------|--------|--------|--------|--------|--------|--------|
A|-------------------------|--------|--------|--------|--------|--------|--------|
F|-------------------------|--------|--------|--------|--------|--------|--------|
C|-0---0---0--0---0--------|--------|--------|--------|--------|--------|--------|
G|-------------------------|--------|--------|--------|--------|--------|--------|
D|-------------------------|--------|--------|--------|--------|--------|--------|


D|--------|--------|--------|--------|--------|--------|--------|--------|--------|
A|--------|--------|--------|--------|--------|--------|--------|--------|--------|
F|--------|--------|--------|--------|--------|--------|--------|--------|--------|
C|--------|--------|--------|--------|--------|--------|--------|--------|--------|
G|--------|--------|--------|--------|--------|--------|--------|--------|--------|
D|--------|--------|--------|--------|--------|--------|--------|--------|--------|


D|--------|--------|--------|--------|--------|--------|--------|--------|--------|
A|--------|--------|--------|--------|--------|--------|--------|--------|--------|
F|--------|--------|--------|--------|--------|--------|--------|--------|--------|
C|--------|--------|--------|--------|--------|--------|--------|--------|--------|
G|--------|--------|--------|--------|--------|--------|--------|--------|--------|
D|--------|--------|--------|--------|--------|--------|--------|--------|--------|


D|--------|--------|--------|--------|
A|--------|--------|--------|--------|
F|--------|--------|--------|--------|
C|--------|--------|--------|--------|
G|--------|--------|--------|--------|
D|--------|--------|--------|--------|





Track 13: Rhythm Guitar

D|--------|--------|--------|--------|--------|--------|--------|--------|--------|
A|--------|--------|--------|--------|--------|--------|--------|--------|--------|
F|--------|--------|--------|--------|--------|--------|--------|--------|--------|
C|--------|--------|--------|--------|--------|--------|--------|--------|--------|
G|--------|--------|--------|--------|--------|--------|--------|--------|--------|
D|--------|--------|--------|--------|--------|--------|--------|--------|--------|


D|--------|--------|--------|--------|--------|--------|--------|--------|--------|
A|--------|--------|--------|--------|--------|--------|--------|--------|--------|
F|--------|--------|--------|--------|--------|--------|--------|--------|--------|
C|--------|--------|--------|--------|--------|--------|--------|--------|--------|
G|--------|--------|--------|--------|--------|--------|--------|--------|--------|
D|--------|--------|--------|--------|--------|--------|--------|--------|--------|


D|--------|--------|--------|--------|--------|--------|--------|--------|--------|
A|--------|--------|--------|--------|--------|--------|--------|--------|--------|
F|--------|--------|--------|--------|--------|--------|--------|--------|--------|
C|--------|--------|--------|--------|--------|--------|--------|--------|--------|
G|--------|--------|--------|--------|--------|--------|--------|--------|--------|
D|--------|--------|--------|--------|--------|--------|--------|--------|--------|


D|--------|--------|--------|--------|--------|--------|--------|--------|--------|
A|--------|--------|--------|--------|--------|--------|--------|--------|--------|
F|--------|--------|--------|--------|--------|--------|--------|--------|--------|
C|--------|--------|--------|--------|--------|--------|--------|--------|--------|
G|--------|--------|--------|--------|--------|--------|--------|--------|--------|
D|--------|--------|--------|--------|--------|--------|--------|--------|--------|


D|--------|--------|--------|--------|--------|--------|--------|--------|--------|
A|--------|--------|--------|--------|--------|--------|--------|--------|--------|
F|--------|--------|--------|--------|--------|--------|--------|--------|--------|
C|--------|--------|--------|--------|--------|--------|--------|--------|--------|
G|--------|--------|--------|--------|--------|--------|--------|--------|--------|
D|--------|--------|--------|--------|--------|--------|--------|--------|--------|


D|--------|--------|--------|--------|--------|--------|--------|--------|--------|
A|--------|--------|--------|--------|--------|--------|--------|--------|--------|
F|--------|--------|--------|--------|--------|--------|--------|--------|--------|
C|--------|--------|--------|--------|--------|--------|--------|--------|--------|
G|--------|--------|--------|--------|--------|--------|--------|--------|--------|
D|--------|--------|--------|--------|--------|--------|--------|--------|--------|


D|--------|--------|--------|--------|--------|--------|--------|--------|--------|
A|--------|--------|--------|--------|--------|--------|--------|--------|--------|
F|--------|--------|--------|--------|--------|--------|--------|--------|--------|
C|--------|--------|--------|--------|--------|--------|--------|--------|--------|
G|--------|--------|--------|--------|--------|--------|--------|--------|--------|
D|--------|--------|--------|--------|--------|--------|--------|--------|--------|


D|--------|--------|--------|--------|--------|--------|--------|--------|--------|
A|--------|--------|--------|--------|--------|--------|--------|--------|--------|
F|--------|--------|--------|--------|--------|--------|--------|--------|--------|
C|--------|--------|--------|--------|--------|--------|--------|--------|--------|
G|--------|--------|--------|--------|--------|--------|--------|--------|--------|
D|--------|--------|--------|--------|--------|--------|--------|--------|--------|


D|--------|--------|--------|--------|--------|--------|--------|--------|--------|
A|--------|--------|--------|--------|--------|--------|--------|--------|--------|
F|--------|--------|--------|--------|--------|--------|--------|--------|--------|
C|--------|--------|--------|--------|--------|--------|--------|--------|--------|
G|--------|--------|--------|--------|--------|--------|--------|--------|--------|
D|--------|--------|--------|--------|--------|--------|--------|--------|--------|


D|--------|--------|--------|--------|--------|--------|--------|--------|--------|
A|--------|--------|--------|--------|--------|--------|--------|--------|--------|
F|--------|--------|--------|--------|--------|--------|--------|--------|--------|
C|--------|--------|--------|--------|--------|--------|--------|--------|--------|
G|--------|--------|--------|--------|--------|--------|--------|--------|--------|
D|--------|--------|--------|--------|--------|--------|--------|--------|--------|


D|--------|--------|--------|--------|--------|--------|--------|--------|--------|
A|--------|--------|--------|--------|--------|--------|--------|--------|--------|
F|--------|--------|--------|--------|--------|--------|--------|--------|--------|
C|--------|--------|--------|--------|--------|--------|--------|--------|--------|
G|--------|--------|--------|--------|--------|--------|--------|--------|--------|
D|--------|--------|--------|--------|--------|--------|--------|--------|--------|


D|--------|--------|--------|--------|--------|--------|--------|--------|--------|
A|--------|--------|--------|--------|--------|--------|--------|--------|--------|
F|--------|--------|--------|--------|--------|--------|--------|--------|--------|
C|--------|--------|--------|--------|--------|--------|--------|--------|--------|
G|--------|--------|--------|--------|--------|--------|--------|--------|--------|
D|--------|--------|--------|--------|--------|--------|--------|--------|--------|


D|--------|--------|--------|-------------|-------------------------|-------------------------|
A|--------|--------|--------|-------------|-------------------------|-------------------------|
F|--------|--------|--------|-------------|-------------------------|-------------------------|
C|--------|--------|--------|-------------|-------------------------|-------------------------|
G|--------|--------|--------|-------2-----|-2---2--5--5---7---2-----|-2---2--8--8---8---2-----|
D|--------|--------|--------|-------0-----|-0---0--3--3---5---0-----|-0---0--6--6---6---0-----|


D|--------------------------------|---------------------------|-------------------------|
A|--------------------------------|---------------------------|-------------------------|
F|--------------------------------|---------------------------|-------------------------|
C|--------------------------------|---------------------------|-------------------------|
G|-2---2--5--5---7---0----0-------|----3---------3---3--2-----|-2---2--5--5---7---2-----|
D|-0---0--3--3---5---1----1----1--|-1--1---1--1--1---1--0-----|-0---0--3--3---5---0-----|


D|-------------------------|--------------------------------|---------------------------|
A|-------------------------|--------------------------------|---------------------------|
F|-------------------------|--------------------------------|---------------------------|
C|-------------------------|--------------------------------|---------------------------|
G|-2---2--8--8---8---2-----|-2---2--5--5---7---0----0-------|----3---------3---3--------|
D|-0---0--6--6---6---0-----|-0---0--3--3---5---1----1----1--|-1--1---1--1--1---1--------|


D|--------|--------|--------|--------|--------|--------|--------|--------|--------|
A|--------|--------|--------|--------|--------|--------|--------|--------|--------|
F|--------|--------|--------|--------|--------|--------|--------|--------|--------|
C|--------|--------|--------|--------|--------|--------|--------|--------|--------|
G|--------|--------|--------|--------|--------|--------|--------|--------|--------|
D|--------|--------|--------|--------|--------|--------|--------|--------|--------|


D|--------|--------|--------|--------|--------|--------|--------|--------|--------|
A|--------|--------|--------|--------|--------|--------|--------|--------|--------|
F|--------|--------|--------|--------|--------|--------|--------|--------|--------|
C|--------|--------|--------|--------|--------|--------|--------|--------|--------|
G|--------|--------|--------|--------|--------|--------|--------|--------|--------|
D|--------|--------|--------|--------|--------|--------|--------|--------|--------|


D|--------|--------|
A|--------|--------|
F|--------|--------|
C|--------|--------|
G|--------|--------|
D|--------|--------|





Track 14: Rhythm Guitar

D|--------|--------|--------|--------|--------|--------|--------|--------|--------|
A|--------|--------|--------|--------|--------|--------|--------|--------|--------|
F|--------|--------|--------|--------|--------|--------|--------|--------|--------|
C|--------|--------|--------|--------|--------|--------|--------|--------|--------|
G|--------|--------|--------|--------|--------|--------|--------|--------|--------|
D|--------|--------|--------|--------|--------|--------|--------|--------|--------|


D|--------|--------|--------|--------|--------|--------|--------|--------|--------|
A|--------|--------|--------|--------|--------|--------|--------|--------|--------|
F|--------|--------|--------|--------|--------|--------|--------|--------|--------|
C|--------|--------|--------|--------|--------|--------|--------|--------|--------|
G|--------|--------|--------|--------|--------|--------|--------|--------|--------|
D|--------|--------|--------|--------|--------|--------|--------|--------|--------|


D|--------|--------|--------|--------|--------|--------|--------|--------|--------|
A|--------|--------|--------|--------|--------|--------|--------|--------|--------|
F|--------|--------|--------|--------|--------|--------|--------|--------|--------|
C|--------|--------|--------|--------|--------|--------|--------|--------|--------|
G|--------|--------|--------|--------|--------|--------|--------|--------|--------|
D|--------|--------|--------|--------|--------|--------|--------|--------|--------|


D|--------|--------|--------|--------|--------|--------|--------|--------|--------|
A|--------|--------|--------|--------|--------|--------|--------|--------|--------|
F|--------|--------|--------|--------|--------|--------|--------|--------|--------|
C|--------|--------|--------|--------|--------|--------|--------|--------|--------|
G|--------|--------|--------|--------|--------|--------|--------|--------|--------|
D|--------|--------|--------|--------|--------|--------|--------|--------|--------|


D|--------|--------|--------|--------|--------|--------|--------|--------|--------|
A|--------|--------|--------|--------|--------|--------|--------|--------|--------|
F|--------|--------|--------|--------|--------|--------|--------|--------|--------|
C|--------|--------|--------|--------|--------|--------|--------|--------|--------|
G|--------|--------|--------|--------|--------|--------|--------|--------|--------|
D|--------|--------|--------|--------|--------|--------|--------|--------|--------|


D|--------|--------|--------|--------|--------|--------|--------|--------|--------|
A|--------|--------|--------|--------|--------|--------|--------|--------|--------|
F|--------|--------|--------|--------|--------|--------|--------|--------|--------|
C|--------|--------|--------|--------|--------|--------|--------|--------|--------|
G|--------|--------|--------|--------|--------|--------|--------|--------|--------|
D|--------|--------|--------|--------|--------|--------|--------|--------|--------|


D|--------|--------|--------|--------|--------|--------|--------|--------|--------|
A|--------|--------|--------|--------|--------|--------|--------|--------|--------|
F|--------|--------|--------|--------|--------|--------|--------|--------|--------|
C|--------|--------|--------|--------|--------|--------|--------|--------|--------|
G|--------|--------|--------|--------|--------|--------|--------|--------|--------|
D|--------|--------|--------|--------|--------|--------|--------|--------|--------|


D|--------|--------|--------|--------|--------|--------|--------|--------|--------|
A|--------|--------|--------|--------|--------|--------|--------|--------|--------|
F|--------|--------|--------|--------|--------|--------|--------|--------|--------|
C|--------|--------|--------|--------|--------|--------|--------|--------|--------|
G|--------|--------|--------|--------|--------|--------|--------|--------|--------|
D|--------|--------|--------|--------|--------|--------|--------|--------|--------|


D|--------|--------|--------|--------|--------|--------|--------|--------|--------|
A|--------|--------|--------|--------|--------|--------|--------|--------|--------|
F|--------|--------|--------|--------|--------|--------|--------|--------|--------|
C|--------|--------|--------|--------|--------|--------|--------|--------|--------|
G|--------|--------|--------|--------|--------|--------|--------|--------|--------|
D|--------|--------|--------|--------|--------|--------|--------|--------|--------|


D|--------|--------|--------|--------|--------|--------|--------|--------|--------|
A|--------|--------|--------|--------|--------|--------|--------|--------|--------|
F|--------|--------|--------|--------|--------|--------|--------|--------|--------|
C|--------|--------|--------|--------|--------|--------|--------|--------|--------|
G|--------|--------|--------|--------|--------|--------|--------|--------|--------|
D|--------|--------|--------|--------|--------|--------|--------|--------|--------|


D|--------|--------|--------|--------|--------|--------|--------|--------|--------|
A|--------|--------|--------|--------|--------|--------|--------|--------|--------|
F|--------|--------|--------|--------|--------|--------|--------|--------|--------|
C|--------|--------|--------|--------|--------|--------|--------|--------|--------|
G|--------|--------|--------|--------|--------|--------|--------|--------|--------|
D|--------|--------|--------|--------|--------|--------|--------|--------|--------|


D|--------|--------|--------|--------|--------|--------|--------|--------|--------|
A|--------|--------|--------|--------|--------|--------|--------|--------|--------|
F|--------|--------|--------|--------|--------|--------|--------|--------|--------|
C|--------|--------|--------|--------|--------|--------|--------|--------|--------|
G|--------|--------|--------|--------|--------|--------|--------|--------|--------|
D|--------|--------|--------|--------|--------|--------|--------|--------|--------|


D|--------|--------|--------|--------|--------|--------|--------|--------|--------|
A|--------|--------|--------|--------|--------|--------|--------|--------|--------|
F|--------|--------|--------|--------|--------|--------|--------|--------|--------|
C|--------|--------|--------|--------|--------|--------|--------|--------|--------|
G|--------|--------|--------|--------|--------|--------|--------|--------|--------|
D|--------|--------|--------|--------|--------|--------|--------|--------|--------|


D|--------|--------|-----------------------------|---------------------------------------------|
A|--------|--------|-----------------------------|---------------------------------------------|
F|--------|--------|-----------------------------|---------------------------------------------|
C|--------|--------|-------3--5--0---0--0--3--5--|-0---0--0--0--0--0--0--3--5--0---0--0--6--3--|
G|--------|--------|-----------------------------|---------------------------------------------|
D|--------|--------|-----------------------------|---------------------------------------------|


D|---------------------------------------------|---------------------------------------------|
A|---------------------------------------------|---------------------------------------------|
F|---------------------------------------------|---------------------------------------------|
C|-0---0--0--0--0--0--0--3--5--0---0--0--3--5--|-0---0--0--0--0--0--0--3--5--0---0--0--6--3--|
G|---------------------------------------------|---------------------------------------------|
D|---------------------------------------------|---------------------------------------------|


D|---------------------------------------------|---------------------------------------------|
A|---------------------------------------------|---------------------------------------------|
F|---------------------------------------------|---------------------------------------------|
C|-0---0--0--0--0--0--0--3--5--0---0--0--3--5--|-0---0--0--0--0--0--0--3--5--0---0--0--6--3--|
G|---------------------------------------------|---------------------------------------------|
D|---------------------------------------------|---------------------------------------------|


D|---------------------------------------------|---------------------------------------------|
A|---------------------------------------------|---------------------------------------------|
F|---------------------------------------------|---------------------------------------------|
C|-0---0--0--0--0--0--0--3--5--0---0--0--3--5--|-0---0--0--0--0--0--0--3--5--0---0--0--6--3--|
G|---------------------------------------------|---------------------------------------------|
D|---------------------------------------------|---------------------------------------------|


D|---------------------------------------------|-------------------------------------------|
A|---------------------------------------------|-------------------------------------------|
F|---------------------------------------------|-------------------------------------------|
C|-0---0--0--0--0--0--0--3--5--0---0--0--3--5--|-0---0--0--6--3--0---0--0--3--5--0---0--0--|
G|---------------------------------------------|-------------------------------------------|
D|---------------------------------------------|-------------------------------------------|


D|-------------------------------------------|-------------------------------------------|
A|-------------------------------------------|-------------------------------------------|
F|--------------0--1-------------------------|-------------------------------------------|
C|-6--3--0---3---------3--5--0---0--0--3--5--|-0---0--0--6--3--0---0--0--3--5--0---0--0--|
G|-------------------------------------------|-------------------------------------------|
D|-------------------------------------------|-------------------------------------------|


D|-------------------------------------------|-------------------------------------------|
A|-------------------------------------------|-------------------------------------------|
F|--------------0--1-------------------------|-------------------------------------------|
C|-6--3--0---3---------3--5--0---0--0--3--5--|-0---0--0--6--3--0---0--0--3--5--0---0--0--|
G|-------------------------------------------|-------------------------------------------|
D|-------------------------------------------|-------------------------------------------|


D|-------------------------------------------|-------------------------------------------|
A|-------------------------------------------|-------------------------------------------|
F|--------------0--1-------------------------|-------------------------------------------|
C|-6--3--0---3---------3--5--0---0--0--3--5--|-0---0--0--6--3--0---0--0--3--5--0---0--0--|
G|-------------------------------------------|-------------------------------------------|
D|-------------------------------------------|-------------------------------------------|


D|-------------------------------------------|-------------------------------------------|
A|-------------------------------------------|-------------------------------------------|
F|--------------0--1-------------------------|-------------------------------------------|
C|-6--3--0---3---------3--5--0---0--0--3--5--|-0---0--0--6--3--0---0--0--3--5--0---0--0--|
G|-------------------------------------------|-------------------------------------------|
D|-------------------------------------------|-------------------------------------------|


D|-------------------------------------------|-------------------------------------------|
A|-------------------------------------------|-------------------------------------------|
F|--------------0--1-------------------------|-------------------------------------------|
C|-6--3--0---3---------3--5--0---0--0--3--5--|-0---0--0--6--3--0---0--0--3--5--0---0--0--|
G|-------------------------------------------|-------------------------------------------|
D|-------------------------------------------|-------------------------------------------|


D|---------------------------|
A|---------------------------|
F|--------------0--1---------|
C|-6--3--0---3---------------|
G|---------------------------|
D|---------------------------|





Track 15: Drums

B|----------------------------------------|---------------------------|---------------------------|
G|-------------4--9-----9-----9-----------|---------------------------|---------------------------|
D|----------------------------------------|-9-----------------14------|------14-----------14------|
A|----------------7-----7-----7-----7--7--|-13---13---13------13------|-13---13---13------13------|
E|-------------------7-----7-----7--------|------12-------------------|---------------------------|
B|----------------------------------------|-----------12---12----12---|-12--------12---12----12---|


B|---------------------------|-------------------------------|-10---10---10------10------|
G|---------------------------|-------------------------------|------9------------9-------|
D|------14-----------14------|------14---------14--14--------|----------------9-----9----|
A|-13---13---13------13------|-13---13---13------------------|---------------------------|
E|---------------------------|-----------------12--12--------|---------------------------|
B|-12--------12---12----12---|-12--------12-12--------12--12-|-12--------12--------------|


B|-10---10---10------10------|-10---10---10------10------|-10---10------10------10--------|
G|------9------------9-------|------9------------9-------|------9----9----------9---------|
D|----------------9-----9----|----------------9-----9----|------------------9------9---9--|
A|---------------------------|---------------------------|--------------------------------|
E|---------------------------|---------------------------|--------------------------------|
B|-12--------12--------------|-12--------12--------------|-12-----------12----------------|


B|-8------------------------|-2-------------------------------|-----------------------------10--|
G|----------------15--------|-4---15--15--15----------15------|-------------------------15------|
D|-9------------------14-14-|---------14--------------14------|---------14--------------14------|
A|--------------------------|-----------------13--13------13--|-13--13--13--13--13--13----------|
E|--------------------------|---------------------------------|---------------------------------|
B|--------------------------|-----------------12----------12--|-----12----------12----------12--|


B|-----2---------------------------|-----------------------------10--|---------------------------------|
G|-----4---15--15----------15------|-------------------------15------|-------------15--15----------15--|
D|---------14--------------14------|---------14--------------14------|-------------14--------------14--|
A|-13--------------13--13------13--|-13--13--13--13--13--13----------|-13--13--13----------13--13------|
E|---------------------------------|---------------------------------|---------------------------------|
B|-----------------12----------12--|-----12----------12----------12--|-----12--------------12----------|


B|-2---------------------------2---|-----10--------------------------|-------------------------------------|
G|-4---15--15--15----------15--4---|-15----------------------15------|-------------------------------------|
D|---------14--------------14------|-------------------------14------|---------14----------14--14-14-14-14-|
A|-----------------13--13----------|---------13--13--13--13------13--|-13--13--13--13--13--13--------------|
E|---------------------------------|---------12----------------------|-------------------------------------|
B|-----------------12--------------|-----12----------12----------12--|-----12----------12------------------|


B|-10-10-10-----------------------|-10-10-10--------------------------|-10-10-10-----------------------|
G|--------------------------------|-----------------------------------|--------------------------------|
D|---------------------------14---|---------------------------14------|---------------------------14---|
A|-----------13------13------13---|-----------13------13------13------|-----------13------13------13---|
E|-----------12-------------------|-----------12----------------------|-----------12-------------------|
B|-12-12-12------12------12-------|-12-12-12------12------12-----12---|-12-12-12------12------12-------|


B|-10-10-10----------------------------|-2-------------------------------|-------------------------------------|
G|-------------------------------------|-4---15--15--15----------15------|-------------------------------------|
D|-----------------------14--14--------|---------14--------------14------|---------14-----------------14----14-|
A|-----------13------13----------------|-----------------13--13------13--|-13--13--13--13--13--13--------------|
E|-----------12----------12--12--12-12-|---------------------------------|-------------------------12-12-12-12-|
B|-12-12-12------12--12----------------|-----------------12----------12--|-----12----------12--12--------------|


B|-10--6---6---6---10---10---|-2-------------------------|-10--6---6---6---10---10---|
G|---------------------------|-4----15-------------------|---------------------------|
D|-----------------9---------|------14-----------14------|-----------------9---------|
A|---------------------------|-----------13------13------|---------------------------|
E|---------------------------|---------------------------|---------------------------|
B|-12-------------------12---|-----------12---12----12---|-12-------------------12---|


B|-2-------------------------|-10--6---6---6---10---10---|-2-------------------------|
G|-4----15-------------------|---------------------------|-4----15-------------------|
D|------14-----------14------|-----------------9---------|------14-----------14------|
A|-----------13------13------|---------------------------|-----------13------13------|
E|---------------------------|---------------------------|---------------------------|
B|-----------12---12----12---|-12-------------------12---|-----------12---12----12---|


B|-10--6---6---6---10---10---|-2-------------------------|---------------------------|
G|---------------------------|-4----15-------------------|---------------------------|
D|-----------------9---------|------14-----------14------|------14-----------14------|
A|---------------------------|-----------13------13------|-13---13---13------13------|
E|---------------------------|---------------------------|---------------------------|
B|-12-------------------12---|-----------12---12----12---|-12--------12---12----12---|


B|---------------------------|-------------------------------|-10---10---10------10------|
G|---------------------------|-------------------------------|------9------------9-------|
D|------14-----------14------|------14---------14--14--------|----------------9-----9----|
A|-13---13---13------13------|-13---13---13------------------|---------------------------|
E|---------------------------|-----------------12--12--------|---------------------------|
B|-12--------12---12----12---|-12--------12-12--------12--12-|-12--------12--------------|


B|-10---10---10------10------|-10---10---10------10------|-10---10------10------10--------|
G|------9------------9-------|------9------------9-------|------9----9----------9---------|
D|----------------9-----9----|----------------9-----9----|------------------9------9---9--|
A|---------------------------|---------------------------|--------------------------------|
E|---------------------------|---------------------------|--------------------------------|
B|-12--------12--------------|-12--------12--------------|-12-----------12----------------|


B|-8------------------------|-2-------------------------------|-----------------------------10--|
G|----------------15--------|-4---15--15--15----------15------|-------------------------15------|
D|-9------------------14-14-|---------14--------------14------|---------14--------------14------|
A|--------------------------|-----------------13--13------13--|-13--13--13--13--13--13----------|
E|--------------------------|---------------------------------|---------------------------------|
B|--------------------------|-----------------12----------12--|-----12----------12----------12--|


B|-----2---------------------------|-----------------------------10--|---------------------------------|
G|-----4---15--15----------15------|-------------------------15------|-------------15--15----------15--|
D|---------14--------------14------|---------14--------------14------|-------------14--------------14--|
A|-13--------------13--13------13--|-13--13--13--13--13--13----------|-13--13--13----------13--13------|
E|---------------------------------|---------------------------------|---------------------------------|
B|-----------------12----------12--|-----12----------12----------12--|-----12--------------12----------|


B|-2---------------------------2---|-----10--------------------------|-------------------------------------|
G|-4---15--15--15----------15--4---|-15----------------------15------|-------------------------------------|
D|---------14--------------14------|-------------------------14------|---------14----------14--14-14-14-14-|
A|-----------------13--13----------|---------13--13--13--13------13--|-13--13--13--13--13--13--------------|
E|---------------------------------|---------12----------------------|-------------------------------------|
B|-----------------12--------------|-----12----------12----------12--|-----12----------12------------------|


B|-10-10-10-----------------------|-10-10-10--------------------------|-10-10-10-----------------------|
G|--------------------------------|-----------------------------------|--------------------------------|
D|---------------------------14---|---------------------------14------|---------------------------14---|
A|-----------13------13------13---|-----------13------13------13------|-----------13------13------13---|
E|-----------12-------------------|-----------12----------------------|-----------12-------------------|
B|-12-12-12------12------12-------|-12-12-12------12------12-----12---|-12-12-12------12------12-------|


B|-10-10-10----------------------------|-2-------------------------------|-------------------------------------|
G|-------------------------------------|-4---15--15--15----------15------|-------------------------------------|
D|-----------------------14--14--------|---------14--------------14------|---------14-----------------14----14-|
A|-----------13------13----------------|-----------------13--13------13--|-13--13--13--13--13--13--------------|
E|-----------12----------12--12--12-12-|---------------------------------|-------------------------12-12-12-12-|
B|-12-12-12------12--12----------------|-----------------12----------12--|-----12----------12--12--------------|


B|-10--6---6---6---10---10---|-2-------------------------|-10--6---6---6---10---10---|
G|---------------------------|-4----15-------------------|---------------------------|
D|-----------------9---------|------14-----------14------|-----------------9---------|
A|---------------------------|-----------13------13------|---------------------------|
E|---------------------------|---------------------------|---------------------------|
B|-12-------------------12---|-----------12---12----12---|-12-------------------12---|


B|-2-------------------------|-10--6---6---6---10---10---|-2-------------------------|
G|-4----15-------------------|---------------------------|-4----15-------------------|
D|------14-----------14------|-----------------9---------|------14-----------14------|
A|-----------13------13------|---------------------------|-----------13------13------|
E|---------------------------|---------------------------|---------------------------|
B|-----------12---12----12---|-12-------------------12---|-----------12---12----12---|


B|-10--6---6---6---10---10---|-2-------------------------|---------------------------|
G|---------------------------|-4----15-------------------|---------------------------|
D|-----------------9---------|------14-----------14------|------14-----------14------|
A|---------------------------|-----------13------13------|-13---13---13------13------|
E|---------------------------|---------------------------|---------------------------|
B|-12-------------------12---|-----------12---12----12---|-12--------12---12----12---|


B|---------------------------|-------------------------------|-10---10---10------10------|
G|---------------------------|-------------------------------|------9------------9-------|
D|------14-----------14------|------14---------14--14--------|----------------9-----9----|
A|-13---13---13------13------|-13---13---13------------------|---------------------------|
E|---------------------------|-----------------12--12--------|---------------------------|
B|-12--------12---12----12---|-12--------12-12--------12--12-|-12--------12--------------|


B|-10---10---10------10------|-10---10---10------10------|-10---10------10------10--------|
G|------9------------9-------|------9------------9-------|------9----9----------9---------|
D|----------------9-----9----|----------------9-----9----|------------------9------9---9--|
A|---------------------------|---------------------------|--------------------------------|
E|---------------------------|---------------------------|--------------------------------|
B|-12--------12--------------|-12--------12--------------|-12-----------12----------------|


B|-10------------------|---------------------|-------------------------------------------------|
G|------11---11---11---|-11---11---11---11---|-12-12-12-12-12-12-12-12-12-12-12-12-12-12-12-12-|
D|---------------------|---------------------|-14-14-14-14-14-14-14-14-14-14-14-14-14-14-14-14-|
A|---------------------|---------------------|-------------------------------------------------|
E|---------------------|---------------------|-------------------------------------------------|
B|-12------------------|---------------------|-------------------------------------------------|


B|-------------------------------------------------|-2---6--6--6--6--6--6--6--6--6--6--6--6--6--6--|
G|-12-12-12-12-12-12-12-12-12-12-12-12-12-12-12-12-|-4---------9--------4-----4--4--4--9--------4--|
D|-14-14-14-14-14-14-14-14-14-14-14-14-14-14-14-14-|-----------------------------------------------|
A|-------------------------------------------------|-----------------------------------------------|
E|-------------------------------------------------|-----------------------------------------------|
B|-------------------------------------------------|-----------------------------------------------|


B|-6--6--6--6--6--6--6--6--6--6--6--6--6--6--6--6--|-2---2--6--6--6--6--6--6--6--6--6--6--6--6--6--|
G|-4-----4-----9--------4-----4--4--4--9--4-----4--|-4---4-----9--------4-----4--4--4--9--------4--|
D|-------------------------------------------------|-----------------------------------9-----------|
A|-------------------------------------------------|-----------------------------------------------|
E|-------------------------------------------------|-----------------------------------------------|
B|-------------------------------------------------|-----------------------------------------------|


B|-6--6--6--6--6--6--6--6--6--6--6--6--------------|-10---10---10------10------|-10---10---------------------10--|
G|-4-----4-----9--------4-----4--4--4-----9--9--9--|-9----9------------9-------|------9----------------------9---|
D|-------------------------------------------------|-9--------------9-----9----|-----------9--9--9--9--9--9--9---|
A|-------------------------------------7--7--7--7--|---------------------------|---------------------------------|
E|-------------------------------------------------|---------------------------|---------------------------------|
B|-------------------------------------------------|-----------12--------------|-12-----------12----12----12-----|


B|-10---10---10------10------|-10---10------10------10--------|-2-------------------|
G|------9------------9-------|------9----9----------9---------|-4----15---15---15---|
D|----------------9-----9----|------------------9------9---9--|---------------------|
A|---------------------------|--------------------------------|---------------------|
E|---------------------------|--------------------------------|---------------------|
B|-12--------12--------------|-12-----------12----------------|---------------------|


B|-10-------10--------10-------10------------|-10-------10----10--10-------10------------|
G|-9--------9-----9---9--------9---9---------|-9--------9-----9---9--------9---9---------|
D|----9--10--------------9--9-------------10-|----9--10--------------9--9-------------10-|
A|------------------------------------11-----|------------------------------------11-----|
E|-------------------------------------------|-------------------------------------------|
B|-------------------------------------------|-------------------------------------------|


B|-10-------10----10--10-------10------------|-10-------10-10------------------------------|
G|-9--------9-----9---9--------9---9---------|-9--------9--9-------9-----9-----9-----------|
D|----9--10--------------9--9-------------10-|----9--10--------9---------------------------|
A|------------------------------------11-----|---------------------7-----7-----7-----7--7--|
E|-------------------------------------------|------------------------7-----7-----7--------|
B|-------------------------------------------|---------------------------------------------|


B|---------------------------|---------------------------|---------------------------|
G|---------------------------|---------------------------|---------------------------|
D|-9-----------------14------|------14-----------14------|------14-----------14------|
A|-13---13---13------13------|-13---13---13------13------|-13---13---13------13------|
E|------12-------------------|---------------------------|---------------------------|
B|---------------12-----12---|-12------------12-----12---|-12------------12-----12---|


B|---------10---------------------------|-10-------10----10--10-------10------------|
G|---------9----9-----9-----9-----9-----|-9--------9-----9---9--------9---9---------|
D|---------9----------------------------|----9--10--------------9--9-------------10-|
A|-13-----------7-----7-----7-----7-----|------------------------------------11-----|
E|-----------------7-----7-----7-----7--|-------------------------------------------|
B|-12---12------------------------------|-------------------------------------------|


B|-10-------10----10--10-------10------------|-10-------10----10--10-------10------------|
G|-9--------9-----9---9--------9---9---------|-9--------9-----9---9--------9---9---------|
D|----9--10--------------9--9-------------10-|----9--10--------------9--9-------------10-|
A|------------------------------------11-----|------------------------------------11-----|
E|-------------------------------------------|-------------------------------------------|
B|-------------------------------------------|-------------------------------------------|


B|-10-------10-------10------------------|------------------------------|-----------------10-------10-------10--|
G|-9--------9-----9----------------------|------------------------------|-----------------9--------9--------9---|
D|----9--10------------------------------|------14--------------14------|---------14---------9--9-----9--9------|
A|---------------------------13--13--13--|-13---13------13------13------|-13------13----------------------------|
E|---------------------------------------|------------------------------|---------------------------------------|
B|-------------------12------------------|-12-------12--12-12-------12--|-12-12-------12------------------------|


B|------------------------------|-----------------10-------10-------10--|------------------------------|
G|------------------------------|-----------------9--------9--------9---|------------------------------|
D|-9--------------------14------|---------14---------9--9-----9--9------|-9--------------------14------|
A|-13---13------13------13------|-13------13----------------------------|-13---13------13------13------|
E|------12----------------------|---------------------------------------|------12----------------------|
B|----------12--12-12-------12--|-12-12-------12------------------------|----------12--12-12-------12--|


B|-----------------10-------10-------10--|------------------------------|-----------------10-------10-------10--|
G|-----------------9--------9--------9---|------------------------------|-----------------9--------9--------9---|
D|---------14---------9--9-----9--9------|-9--------------------14------|---------14---------9--9-----9--9------|
A|-13------13----------------------------|-13---13------13------13------|-13------13----------------------------|
E|---------------------------------------|------12----------------------|---------------------------------------|
B|-12-12-------12------------------------|----------12--12-12-------12--|-12-12-------12------------------------|


B|-10-------10-------10--10-------10-------10--|-------------------------2---------|
G|-9--------9--------9---9--------9--------9---|-9-----9-----9-----------4----15---|
D|----9--9-----9--9---------9--9-----9--9------|------------------------------14---|
A|---------------------------------------------|-7-----7-----7-----7--7------------|
E|---------------------------------------------|----7-----7-----7-----7------------|
B|---------------------------------------------|-----------------------------------|


B|---------------------------|---------------------------|---------------------------|
G|---------------------------|---------------------------|---------------------------|
D|---------14-----------14---|---------14-----------14---|---------14-----------14---|
A|-13------13------13---13---|-13------13------13---13---|-13------13------13---13---|
E|---------------------------|---------------------------|---------------------------|
B|-12---12----12---12--------|-12---12----12---12--------|-12---12----12---12--------|


B|---------------------2---------|---------------------------|---------------------------|
G|---------------------4----15---|---------------------------|---------------------------|
D|-------14--14-------------14---|---------14-----------14---|---------14-----------14---|
A|-13----------------------------|-13------13------13---13---|-13------13------13---13---|
E|-------12--12------------------|---------------------------|---------------------------|
B|-12-12--------12--12-----------|-12---12----12---12--------|-12---12----12---12--------|


B|---------------------------|---------------------10---10---|-10------10------10---10---|
G|---------------------------|--------------------------9----|---------9------------9----|
D|---------14-----------14---|-------14--14------------------|------9-----9--------------|
A|-13------13------13---13---|-13----------------------------|---------------------------|
E|---------------------------|-------12--12------------------|---------------------------|
B|-12---12----12---12--------|-12-12--------12--12-12--------|-12--------------12--------|


B|-10------10------10---10---|-10------10------10------10------|-10------10------10---10---|
G|---------9------------9----|---------9---------------9-------|---------9------------9----|
D|------9-----9--------------|------9-----9---------9------9---|------9------9-------------|
A|---------------------------|---------------------------------|---------------------------|
E|---------------------------|---------------------------------|---------------------------|
B|-12--------------12--------|-12--------------12--------------|-12--------------12--------|


B|-10------10------10---10---|-10------10------10---10---|-10------10------10--------10------|
G|---------9------------9----|---------9------------9----|---------9-----------------9-------|
D|------9-----9--------------|------9-----9--------------|------9-----9--------9--9------9---|
A|---------------------------|---------------------------|-----------------------------------|
E|---------------------------|---------------------------|-----------------------------------|
B|-12--------------12--------|-12--------------12--------|-12--------------12----------------|


B|-10--10--------------10---10---|-10------10------10---10---|-10------10------10---10---|
G|---------9--9--9--9--9----9----|---------9------------9----|---------9------------9----|
D|---------9-----------9---------|------9-----9--------------|------9-----9--------------|
A|------------7--7--7------------|---------------------------|---------------------------|
E|-------------------------------|---------------------------|---------------------------|
B|-12--12------------------------|-12--------------12--------|-12--------------12--------|


B|-10------10------10---10---|-10------10------10---10---|-10------10------10---10---|
G|---------9------------9----|---------9------------9----|---------9------------9----|
D|------9-----9--------------|------9-----9--------------|------9-----9--------------|
A|---------------------------|---------------------------|---------------------------|
E|---------------------------|---------------------------|---------------------------|
B|-12--------------12--------|-12--------------12--------|-12--------------12--------|


B|-10------10------10---10---|-10------10------10---10---|-10------10------10---10---|
G|---------9------------9----|---------9------------9----|---------9------------9----|
D|------9-----9--------------|------9-----9--------------|------9-----9--------------|
A|---------------------------|---------------------------|---------------------------|
E|---------------------------|---------------------------|---------------------------|
B|-12--------------12--------|-12--------------12--------|-12--------------12--------|


B|-10------10------10---10---|-10------10------10---10---|-10------10------10---10---|
G|---------9------------9----|---------9------------9----|---------9------------9----|
D|------9-----9--------------|------9-----9--------------|------9-----9--------------|
A|---------------------------|---------------------------|---------------------------|
E|---------------------------|---------------------------|---------------------------|
B|-12--------------12--------|-12--------------12--------|-12--------------12--------|


B|-10------10------10---10---|-10------10------10---10---|-10------10------10---10---|
G|---------9------------9----|---------9------------9----|---------9------------9----|
D|------9-----9--------------|------9-----9--------------|------9-----9--------------|
A|---------------------------|---------------------------|---------------------------|
E|---------------------------|---------------------------|---------------------------|
B|-12--------------12--------|-12--------------12--------|-12--------------12--------|


B|-10------10------10---10---|-10------10------10---10---|-10------10------10---10---|
G|---------9------------9----|---------9------------9----|---------9------------9----|
D|------9-----9--------------|------9-----9--------------|------9-----9--------------|
A|---------------------------|---------------------------|---------------------------|
E|---------------------------|---------------------------|---------------------------|
B|-12--------------12--------|-12--------------12--------|-12--------------12--------|


B|-10------10------10---10---|-10------10------10---10---|-10------10------------|
G|---------9------------9----|---------9------------9----|---------9-------------|
D|------9-----9--------------|------9-----9--------------|------9-----9----------|
A|---------------------------|---------------------------|-----------------------|
E|---------------------------|---------------------------|-----------------------|
B|-12--------------12--------|-12--------------12--------|-12--------------------|