Menu:

 

Search:

 

pantera - 13 steps to nowhere:

 



Title: 13 Steps To Nowhere 
Artist: 
Album: The Great Southern Trendkill
Author: Pantera


Track 1: Dimebag Darrell

C#|--------|--------|--------|--------|--------|--------|-----------------|--------------------|
G#|--------|--------|--------|--------|--------|--------|-----------------|--------------------|
 E|--------|--------|--------|--------|--------|--------|-----------------|--------------------|
 B|--------|--------|--------|--------|--------|--------|-2---------------|-------2------------|
F#|--------|--------|--------|--------|--------|--------|-2-----8-----8---|-8-----2------------|
C#|--------|--------|--------|--------|--------|--------|-0-----6-----6---|-6-----0------------|


C#|--------|-----------------|--------------------|--------|-----------------|--------------------|
G#|--------|-----------------|--------------------|--------|-----------------|--------------------|
 E|--------|-----------------|--------------------|--------|-----------------|--------------------|
 B|--------|-2---------------|-------2------------|--------|-2---------------|-------2------------|
F#|--------|-2-----8-----8---|-8-----2------------|--------|-2-----8-----8---|-8-----2------------|
C#|--------|-0-----6-----6---|-6-----0------------|--------|-0-----6-----6---|-6-----0------------|


C#|--------|-----------------|-------------|---------------------------------------------|
G#|--------|-----------------|-------------|---------------------------------------------|
 E|--------|-----------------|-------------|---------------------------------------------|
 B|--------|-2---------------|-------------|------------------------------------5-----7--|
F#|--------|-2-----8-----8---|-8-----2-----|-2----------------5-----7--5--6--7-----7-----|
C#|--------|-0-----6-----6---|-6-----0-----|-0---7---5--6--7-----7-----------------------|


C#|------------------------------------------|-----------------------------|----------------------------|
G#|------------------------------------------|-----------------------------|----------------------------|
 E|----------------------------12----14------|-----------------------------|----------------------------|
 B|----------12----14-12-13-14----14---------|---------------------------0-|-------------2--------------|
F#|-12-13-14----14----------------------2----|-----8--------------1--2-----|---1--0------2-----8---8----|
C#|-------------------------------------0----|-----6-----------0-----------|---------3---0-----6---6----|


C#|------------------------------------------|-----------------------------|----------------------------|
G#|------------------------------------------|-----------------------------|----------------------------|
 E|------------------------------------------|-----------------------------|----------------------------|
 B|----------------------------5-----7-------|---------------------------0-|-------------2--------------|
F#|----------5-----7--5--6--7-----7-----2----|-----8--------------1--2-----|---1--0------2-----8---8----|
C#|-5--6--7-----7-----------------------0----|-----6-----------0-----------|---------3---0-----6---6----|


C#|------------------------------------------|-----------------------------|----------------------------|
G#|------------------------------------------|-----------------------------|----------------------------|
 E|------------------------------------------|-----------------------------|----------------------------|
 B|----------------------------5-----7-------|---------------------------0-|-------------2--------------|
F#|----------5-----7--5--6--7-----7-----2----|-----8--------------1--2-----|---1--0------2-----8---8----|
C#|-5--6--7-----7-----------------------0----|-----6-----------0-----------|---------3---0-----6---6----|


C#|------------------------------------------|-----------------------------|----------------------------|
G#|------------------------------------------|-----------------------------|----------------------------|
 E|------------------------------------------|-----------------------------|----------------------------|
 B|----------------------------5-----7-------|---------------------------0-|-------------2--------------|
F#|----------5-----7--5--6--7-----7-----2----|-----8--------------1--2-----|---1--0------2-----8---8----|
C#|-5--6--7-----7-----------------------0----|-----6-----------0-----------|---------3---0-----6---6----|


C#|---------------------------------------------|-0--0----------0--0----------0--0------|
G#|---------------------------------------------|-0--0----------0--0----------0--0------|
 E|---------------------------------------------|-0--0----------0--0----------0--0------|
 B|----------------------------5-----7--8---8---|-0--0--8---8---0--0--8---8---0--0--8---|
F#|----------5-----7--5--6--7-----7-----8---8---|-0--0--8---8---0--0--8---8---0--0--8---|
C#|-5--6--7-----7-----------------------6---6---|-0--0--6---6---0--0--6---6---0--0--6---|


C#|-----0--0----------0--0----------0--0--|----------------------------|------------------------------|
G#|-----0--0----------0--0----------0--0--|----------------------------|------------------------------|
 E|-----0--0----------0--0----------0--0--|----------------------------|------------------------------|
 B|-8---0--0--8---8---0--0--8---8---0--0--|-8--------------------------|--------------------2---------|
F#|-8---0--0--8---8---0--0--8---8---0--0--|-8-------------5--7-7--5--7-|-7--5--7-7--5--7----2-----8---|
C#|-6---0--0--6---6---0--0--6---6---0--0--|-6--------------------------|--------------------0-----6---|


C#|-----------------|--------------------|-----------------|-----------------|--------------------|
G#|-----------------|--------------------|-----------------|-----------------|--------------------|
 E|-----------------|--------------------|-----------------|-----------------|--------------------|
 B|-----------------|-2------------------|-------2---------|-----------------|-2------------------|
F#|-------8---8-----|-2------------------|-------2-----8---|-------8---8-----|-2------------------|
C#|-------6---6-----|-0------------------|-------0-----6---|-------6---6-----|-0------------------|


C#|-----------------|-----------------|--------------------|-----------------|-----------------|
G#|-----------------|-----------------|--------------------|-----------------|-----------------|
 E|-----------------|-----------------|--------------------|-----------------|-----------------|
 B|-------2---------|-----------------|-2------------------|-------2---------|-----------------|
F#|-------2-----8---|-------8---8-----|-2------------------|-------2-----8---|-------8---8-----|
C#|-------0-----6---|-------6---6-----|-0------------------|-------0-----6---|-------6---6-----|


C#|---------------------------|-------------------------------------------------|-------------------------|
G#|---------------------------|-------------------------------------------------|-------------------------|
 E|---------------------------|-------------------------------------------------|----12----14-------------|
 B|---------------------------|----------------5-----7-----------12----14-12-13-|-14----14----------------|
F#|-2-----2----------------5--|----7--5--6--7-----7-----12-13-14----14----------|-------------2-----8-----|
C#|-0-----0---7---5--6--7-----|-7-----------------------------------------------|-------------0-----6-----|


C#|---------------------------------------|--------------------------------------|
G#|---------------------------------------|--------------------------------------|
 E|---------------------------------------|--------------------------------------|
 B|---------------------0------------2----|--------------------------------------|
F#|--------------1--2------1--0------2----|-----8---8-------------5-----7--5--6--|
C#|-----------0------------------3---0----|-----6---6----5--6--7-----7-----------|


C#|-------------------------|---------------------------------------|--------------------------------------|
G#|-------------------------|---------------------------------------|--------------------------------------|
 E|-------------------------|---------------------------------------|--------------------------------------|
 B|----5-----7--------------|---------------------0------------2----|--------------------------------------|
F#|-7-----7-----2-----8-----|--------------1--2------1--0------2----|-----8---8-------------5-----7--5--6--|
C#|-------------0-----6-----|-----------0------------------3---0----|-----6---6----5--6--7-----7-----------|


C#|-------------------------|---------------------------------------|--------------------------------------|
G#|-------------------------|---------------------------------------|--------------------------------------|
 E|-------------------------|---------------------------------------|--------------------------------------|
 B|----5-----7--------------|---------------------0------------2----|--------------------------------------|
F#|-7-----7-----2-----8-----|--------------1--2------1--0------2----|-----8---8-------------5-----7--5--6--|
C#|-------------0-----6-----|-----------0------------------3---0----|-----6---6----5--6--7-----7-----------|


C#|-------------------------|---------------------------------------|--------------------------------------|
G#|-------------------------|---------------------------------------|--------------------------------------|
 E|-------------------------|---------------------------------------|--------------------------------------|
 B|----5-----7--------------|---------------------0------------2----|--------------------------------------|
F#|-7-----7-----2-----8-----|--------------1--2------1--0------2----|-----8---8-------------5-----7--5--6--|
C#|-------------0-----6-----|-----------0------------------3---0----|-----6---6----5--6--7-----7-----------|


C#|---------------------0--0----------0--0--|---------0--0----------0--0----------|
G#|---------------------0--0----------0--0--|---------0--0----------0--0----------|
 E|---------------------0--0----------0--0--|---------0--0----------0--0----------|
 B|----5-----7--8---8---0--0--8---8---0--0--|-8---8---0--0--8---8---0--0--8---8---|
F#|-7-----7-----8---8---0--0--8---8---0--0--|-8---8---0--0--8---8---0--0--8---8---|
C#|-------------6---6---0--0--6---6---0--0--|-6---6---0--0--6---6---0--0--6---6---|


C#|-0--0----------0--0---------------|------------------|---------------------------------|
G#|-0--0----------0--0---------------|------------------|---------------------------------|
 E|-0--0----------0--0---------------|------------------|---------------------------------|
 B|-0--0--8---8---0--0---------------|------------------|---------------------------------|
F#|-0--0--8---8---0--0---------------|------------5-----|-2-------------------------------|
C#|-0--0--6---6---0--0-----------4---|------1-----------|-------1--4--5--6----1--4--5--6--|


C#|---------------------------------------|-------------------------------------|---------------------------------|
G#|---------------------------------------|-------------------------------------|---------------------------------|
 E|---------------------------------------|-------------------------------------|---------------------------------|
 B|---------------------------------------|-------------------------------------|---------------------------------|
F#|---------------------------------------|-------------------------------------|-------------------------5----2--|
C#|-----1--4--5--6----1--4--5--6----1--4--|-5--6----1--4--5--6----1--4--5--6----|-1--4--5--6----4----1------------|


C#|---------------------------------------|-------------------------------------|-----------------------------------------|
G#|---------------------------------------|-------------------------------------|-----------------------------------------|
 E|---------------------------------------|-------------------------------------|-----------------------------------------|
 B|---------------------------------------|-------------------------------------|-----------------------------------------|
F#|---------------------------------------|-------------------------------------|-----------------------------------------|
C#|-----1--4--5--6----1--4--5--6----1--4--|-5--6----1--4--5--6----1--4--5--6----|-1--4--5--6----1--4--5--6----1--4--5--6--|


C#|---------------------|--------------------------|-----------------------------------------|
G#|---------------------|--------------------------|-----------------------------------------|
 E|---------------------|--------------------------|-----------------------------------------|
 B|-----------------6---|------5-------------------|-----------------------------------------|
F#|-----------------4---|------2-------------------|-----------------------------------------|
C#|-----4-----1-----4---|------2-----1--4--5--6----|-1--4--5--6----1--4--5--6----1--4--5--6--|


C#|---------------------------------------|---------------------------------|-------------------------------------|
G#|---------------------------------------|---------------------------------|-------------------------------------|
 E|---------------------------------------|---------------------------------|-------------------------------------|
 B|---------------------------------------|---------------------------------|-------------------------------------|
F#|---------------------------------------|---------------------------------|-5----2------------------------------|
C#|-----1--4--5--6----1--4--5--6----1--4--|-5--6----1--4--5--6----4----1----|-----------1--4--5--6----1--4--5--6--|


C#|---------------------------------------|-------------------------------------|--------------------------|
G#|---------------------------------------|-------------------------------------|--------------------------|
 E|---------------------------------------|-------------------------------------|--------------------------|
 B|---------------------------------------|-------------------------------------|--------------------------|
F#|---------------------------------------|-------------------------------------|--------------------------|
C#|-----1--4--5--6----1--4--5--6----1--4--|-5--6----1--4--5--6----1--4--5--6----|-1--4--5--6----4-----1----|


C#|---------------------|------------------|--------------|----------------|----------------16--|
G#|---------------------|------------------|--------------|----------------|--------------------|
 E|---------------------|------------------|--------------|----------------|--------------------|
 B|---------------------|------------------|--------------|----------------|--------------------|
F#|-----5-----2---------|------------5-----|-2------------|------------5---|-----------2--------|
C#|-----------------4---|------1-----------|-------4------|-----1----------|--------------------|


C#|--------------|----------------|-----------------|--------------|----------------|
G#|--------------|----------------|-----------7-----|--------------|----------------|
 E|--------------|----------------|-----------------|--------------|----------------|
 B|--------------|----------------|-----------------|--------------|----------------|
F#|--------------|------------5---|-----------------|--------------|------------5---|
C#|-------4------|-----1----------|-----------------|-------4------|-----1----------|


C#|-----------7-----|--------------|----------------|-----------17----|--------------|
G#|-----------------|--------------|----------------|-----------------|--------------|
 E|-----------------|--------------|----------------|-----------------|--------------|
 B|-----------------|--------------|----------------|-----------------|--------------|
F#|-----------------|--------------|------------5---|-----------------|--------------|
C#|-----------------|-------4------|-----1----------|-----------------|-------4------|


C#|----------------|-----------17----|--------------|----------------|-----------7-----|
G#|----------------|-----------------|--------------|----------------|-----------------|
 E|----------------|-----------------|--------------|----------------|-----------------|
 B|----------------|-----------------|--------------|----------------|-----------------|
F#|------------5---|-----------------|--------------|------------5---|-----------------|
C#|-----1----------|-----------------|-------4------|-----1----------|-----------------|


C#|--------------|----------------|-----------7-----|--------------|----------------|
G#|--------------|----------------|-----------------|--------------|----------------|
 E|--------------|----------------|-----------------|--------------|----------------|
 B|--------------|----------------|-----------------|--------------|----------------|
F#|--------------|------------5---|-----------------|--------------|------------5---|
C#|-------4------|-----1----------|-----------------|-------4------|-----1----------|


C#|-----------17----|--------------|----------------|-----------12----|--------------|
G#|-----------------|--------------|----------------|-----------------|--------------|
 E|-----------------|--------------|----------------|-----------------|--------------|
 B|-----------------|--------------|----------------|-----------------|--------------|
F#|-----------------|--------------|------------5---|-----------------|--------------|
C#|-----------------|-------4------|-----1----------|-----------------|-------4------|


C#|----------------|-----------------------------|--------------------------|-----------------------------------------|
G#|----------------|-----------------------------|--------------------------|-----------------------------------------|
 E|----------------|-----------------------------|--------------------------|-----------------------------------------|
 B|----------------|-----------------------------|---------------2----------|-------------------------------------2---|
F#|------------5---|-----------5--7--7--7--7--7--|-7--7--7--7----2-----8----|-----5--7--7--7--7--7--7--7--7--7----2---|
C#|-----1----------|-----------------------------|---------------0-----6----|-------------------------------------0---|


C#|------------------------------|--------------------------|-----------------------------------------|
G#|------------------------------|--------------------------|-----------------------------------------|
 E|------------------------------|--------------------------|-----------------------------------------|
 B|------------------------------|---------------2----------|-------------------------------------2---|
F#|------8-----5--7--7--5--7--7--|-5--7--7--7----2-----8----|-----5--7--7--7--7--7--7--7--7--7----2---|
C#|------6-----------------------|---------------0-----6----|-------------------------------------0---|


C#|------------------------------|-----------------------0--0----------|-0--0----------0--0----------0--0------|
G#|------------------------------|-----------------------0--0----------|-0--0----------0--0----------0--0------|
 E|------------------------------|-----------------------0--0----------|-0--0----------0--0----------0--0------|
 B|------------------------------|---------------8---8---0--0--8---8---|-0--0--8---8---0--0--8---8---0--0--8---|
F#|------8-----5--7--7--5--7--7--|-5--7--7--7----8---8---0--0--8---8---|-0--0--8---8---0--0--8---8---0--0--8---|
C#|------6-----------------------|---------------6---6---0--0--6---6---|-0--0--6---6---0--0--6---6---0--0--6---|


C#|----------------------------------|-----------------|
G#|----------------------------------|-----------------|
 E|----------------------------------|-----------------|
 B|-8---------8---8---------8--------|-----------------|
F#|-8---------8---8---------8--------|-----------------|
C#|-6---------6---6---------6--------|-----------------|





Track 2: Dimebag Darrell 2

C#|--------|--------|--------|--------|--------|--------|--------|--------|--------|
G#|--------|--------|--------|--------|--------|--------|--------|--------|--------|
 E|--------|--------|--------|--------|--------|--------|--------|--------|--------|
 B|--------|--------|--------|--------|--------|--------|--------|--------|--------|
F#|--------|--------|--------|--------|--------|--------|--------|--------|--------|
C#|--------|--------|--------|--------|--------|--------|--------|--------|--------|


C#|--------|--------|--------|--------|--------|--------|--------|--------|--------|
G#|--------|--------|--------|--------|--------|--------|--------|--------|--------|
 E|--------|--------|--------|--------|--------|--------|--------|--------|--------|
 B|--------|--------|--------|--------|--------|--------|--------|--------|--------|
F#|--------|--------|--------|--------|--------|--------|--------|--------|--------|
C#|--------|--------|--------|--------|--------|--------|--------|--------|--------|


C#|--------|--------|--------|--------|--------|--------|--------|--------|--------|
G#|--------|--------|--------|--------|--------|--------|--------|--------|--------|
 E|--------|--------|--------|--------|--------|--------|--------|--------|--------|
 B|--------|--------|--------|--------|--------|--------|--------|--------|--------|
F#|--------|--------|--------|--------|--------|--------|--------|--------|--------|
C#|--------|--------|--------|--------|--------|--------|--------|--------|--------|


C#|--------|--------|--------|--------|--------|--------|--------|--------|--------|
G#|--------|--------|--------|--------|--------|--------|--------|--------|--------|
 E|--------|--------|--------|--------|--------|--------|--------|--------|--------|
 B|--------|--------|--------|--------|--------|--------|--------|--------|--------|
F#|--------|--------|--------|--------|--------|--------|--------|--------|--------|
C#|--------|--------|--------|--------|--------|--------|--------|--------|--------|


C#|--------|--------|--------|--------|--------|--------|--------|--------|--------|
G#|--------|--------|--------|--------|--------|--------|--------|--------|--------|
 E|--------|--------|--------|--------|--------|--------|--------|--------|--------|
 B|--------|--------|--------|--------|--------|--------|--------|--------|--------|
F#|--------|--------|--------|--------|--------|--------|--------|--------|--------|
C#|--------|--------|--------|--------|--------|--------|--------|--------|--------|


C#|--------|--------|--------|--------|--------|--------|--------|--------|--------|
G#|--------|--------|--------|--------|--------|--------|--------|--------|--------|
 E|--------|--------|--------|--------|--------|--------|--------|--------|--------|
 B|--------|--------|--------|--------|--------|--------|--------|--------|--------|
F#|--------|--------|--------|--------|--------|--------|--------|--------|--------|
C#|--------|--------|--------|--------|--------|--------|--------|--------|--------|


C#|--------|--------|--------|--------|--------|--------|--------|--------|--------|
G#|--------|--------|--------|--------|--------|--------|--------|--------|--------|
 E|--------|--------|--------|--------|--------|--------|--------|--------|--------|
 B|--------|--------|--------|--------|--------|--------|--------|--------|--------|
F#|--------|--------|--------|--------|--------|--------|--------|--------|--------|
C#|--------|--------|--------|--------|--------|--------|--------|--------|--------|


C#|--------|--------|--------|--------|--------|--------|--------|--------|--------|
G#|--------|--------|--------|--------|--------|--------|--------|--------|--------|
 E|--------|--------|--------|--------|--------|--------|--------|--------|--------|
 B|--------|--------|--------|--------|--------|--------|--------|--------|--------|
F#|--------|--------|--------|--------|--------|--------|--------|--------|--------|
C#|--------|--------|--------|--------|--------|--------|--------|--------|--------|


C#|--------|--------|--------|--------|--------|--------|------------------|---------------------|
G#|--------|--------|--------|--------|--------|--------|------------------|---------------------|
 E|--------|--------|--------|--------|--------|--------|-------1----------|-----4-----1-----4---|
 B|--------|--------|--------|--------|--------|--------|-------------3----|---------------------|
F#|--------|--------|--------|--------|--------|--------|------------------|---------------------|
C#|--------|--------|--------|--------|--------|--------|------------------|---------------------|


C#|------------------|-----------------|--------|--------|--------|--------|--------|
G#|------------------|-----------------|--------|--------|--------|--------|--------|
 E|------------7-----|-4---------------|--------|--------|--------|--------|--------|
 B|------6-----------|-----------------|--------|--------|--------|--------|--------|
F#|------------------|-----------------|--------|--------|--------|--------|--------|
C#|------------------|-----------------|--------|--------|--------|--------|--------|


C#|--------|--------|--------|--------|--------|--------|--------|--------|--------|
G#|--------|--------|--------|--------|--------|--------|--------|--------|--------|
 E|--------|--------|--------|--------|--------|--------|--------|--------|--------|
 B|--------|--------|--------|--------|--------|--------|--------|--------|--------|
F#|--------|--------|--------|--------|--------|--------|--------|--------|--------|
C#|--------|--------|--------|--------|--------|--------|--------|--------|--------|


C#|--------|--------|--------|--------|--------|--------|--------|--------|--------|
G#|--------|--------|--------|--------|--------|--------|--------|--------|--------|
 E|--------|--------|--------|--------|--------|--------|--------|--------|--------|
 B|--------|--------|--------|--------|--------|--------|--------|--------|--------|
F#|--------|--------|--------|--------|--------|--------|--------|--------|--------|
C#|--------|--------|--------|--------|--------|--------|--------|--------|--------|


C#|--------|--------|--------|--------|--------|--------|--------|--------|--------|
G#|--------|--------|--------|--------|--------|--------|--------|--------|--------|
 E|--------|--------|--------|--------|--------|--------|--------|--------|--------|
 B|--------|--------|--------|--------|--------|--------|--------|--------|--------|
F#|--------|--------|--------|--------|--------|--------|--------|--------|--------|
C#|--------|--------|--------|--------|--------|--------|--------|--------|--------|


C#|--------|--------|--------|--------|--------|--------|--------|
G#|--------|--------|--------|--------|--------|--------|--------|
 E|--------|--------|--------|--------|--------|--------|--------|
 B|--------|--------|--------|--------|--------|--------|--------|
F#|--------|--------|--------|--------|--------|--------|--------|
C#|--------|--------|--------|--------|--------|--------|--------|





Track 3: Vinnie Paul -drums

D|-------------------0-----------------------------|-------0-----------------------------------0-----|
B|-0--0--------------------------------------------|-------------------------------------------------|
G|-------0--------------------------0--0--------0--|-------------------------------------------------|
D|----------0-----0-----0--0--0-----0--0--0--0--0--|----0-----0--0--0-----0--0--0--0--0-----0-----0--|
B|-0--------0--------0--------0--------0--------0--|-------0--------0--------0--------0--------0-----|


D|-------------------------------0-----------------|-------------------0-----------------------------|
B|-------------------------------------------------|-------------------------------------------------|
G|----------0--0--------0--------------------------|----------------------------------0--0--------0--|
D|-0--0-----0--0-----0--0--0--0-----0--0--0--0--0--|-0--0--0--0-----0-----0--0--0-----0--0-----0--0--|
B|----0--------0--------0--------0--------0--------|-0--------0--------0--------0--------0--------0--|


D|-------0-----------------------------------0-----|-------------------------------------------------|
B|-------------------------------------------------|----------------0--0--0--0--0--0-----------------|
G|-------------------------------------------------|----------------------------------0--0--0--0--0--|
D|----0-----0--0--0--0--0--0--0--0--0-----0-----0--|-0--0-----0--0-----------------------------------|
B|-------0--------0--------0--------0--------0-----|----0--------0-----------------------------------|


D|-------------------0-----------------------------|-------0-----------------------------------0-----|
B|-0--0--------------------------------------------|-------------------------------------------------|
G|-------0--------------------------0--0--------0--|-------------------------------------------------|
D|----------0-----0-----0--0--0-----0--0--0--0--0--|----0-----0--0--0-----0--0--0--0--0-----0-----0--|
B|-0--------0--------0--------0--------0--------0--|-------0--------0--------0--------0--------0-----|


D|-------------------------------0-----------------|-------------------0-----------------------------|
B|-------------------------------------------------|-------------------------------------------------|
G|----------0--0--------0--------------------------|----------------------------------0--0--------0--|
D|-0--0-----0--0-----0--0--0--0-----0--0--0--0--0--|-0--0--0--0-----0-----0--0--0-----0--0-----0--0--|
B|----0--------0--------0--------0--------0--------|-0--------0--------0--------0--------0--------0--|


D|----0-----------------------------------0--------|----------0------------------0--------0--------|
B|-------------------------------------------------|-----------------------------------------------|
G|-------------------------------------------------|-------0-----------0---------------------------|
D|-0-----0--0--0--0--0--0--0--0--0-----0-----0--0--|-0-----0--------0--0---0--0-----0--0--0--0--0--|
B|----0--------0--------0--------0--------0--------|-0--------0--------0---------0--------0--------|


D|-------------------0-----------------------------|-------0-----------------------------------0-----|
B|-0--0--------------------------------------------|-------------------------------------------------|
G|-------0--------------------------0--0--------0--|-------------------------------------------------|
D|----------0-----0-----0--0--0-----0--0--0--0--0--|----0-----0--0--0-----0--0--0--0--0-----0-----0--|
B|-0--------0--------0--------0--------0--------0--|-------0--------0--------0--------0--------0-----|


D|-------------------------------------------------|-------------------0-----------------------------|
B|----------------0--0--0--0--0--0-----------------|-------------------------------------------------|
G|----------------------------------0--0--0--0--0--|----------------------------------0--0--------0--|
D|-0--0-----0--0-----------------------------------|-0--0--0--0-----0-----0--0--0-----0--0-----0--0--|
B|----0--------0-----------------------------------|-0--------0--------0--------0--------0--------0--|


D|-------0-----------------------------------0-----|-------------------------------------------------|
B|-------------------------------------------------|-------------------------------------------------|
G|-------------------------------------------------|----------0--------------------------------------|
D|-0--0-----0--0--0--0--0--0--0--0--0-----0-----0--|-0--0-----0--0--0--0--0--0--0-----0--0--0--0--0--|
B|-------0--------0--------0--------0--------0-----|----0--------0--0--0--0--0--0--0--0--0--0--0--0--|


D|-------------------------------------------------|-------0-----------------------------------0-----|
B|-------------------------------------------------|-------------------------------------------------|
G|-------------------------------------------------|-------------------------------------------------|
D|-0--0--0-----0--0--0--0-----0--0--0--------------|-------------------------------------------------|
B|-0--0--0--0--0--0--0--0--0--0--0--0--0--0--0--0--|-0--0--0--0--0--0--0--0--0--0--0--0--0--0--0--0--|


D|-------------------------------0-----------------|-------------------0-----------------------------|
B|-------------------------------------------------|-------------------------------------------------|
G|-------------------------------------------------|-------------------------------------------------|
D|-------------------------------------------------|-------------------------------------------------|
B|-0--0--0--0--0--0--0--0--0--0--0--0--0--0--0--0--|-0--0--0--0--0--0--0--0--0--0--0--0--0--0--0--0--|


D|-------0-----------------------------------0-----|-------------------------------0-----------------|
B|-------------------------------------------------|-------------------------------------------------|
G|-------------------------------------------------|-------------------------------------------------|
D|-------------------------------------------------|-------------------------------------------------|
B|-0--0--0--0--0--0--0--0--0--0--0--0--0--0--0--0--|-0--0--0--0--0--0--0--0--0--0--0--0--0--0--0--0--|


D|-------------------0-----------------------------|-------0-----------------------------------0-----|
B|-------------------------------------------------|-------------------------------------------------|
G|-------------------------------------------------|-------------------------------------------------|
D|-------------------------------------------------|-------------------------------------------------|
B|-0--0--0--0--0--0--0--0--0--0--0--0--0--0--0--0--|-0--0--0--0--0--0--0--0--0--0--0--0--0--0--0--0--|


D|-------------------------------0-----------------|-------------------0-----------------------------|
B|-------------------------------------------------|-------------------------------------------------|
G|-------------------------------------------------|-------------------------------------------------|
D|-------------------------------------------------|-------------------------------------------------|
B|-0--0--0--0--0--0--0--0--0--0--0--0--0--0--0--0--|-0--0--0--0--0--0--0--0--0--0--0--0--0--0--0--0--|


D|-------0-----------------------------------0-----|-------------------------------0-----------------|
B|-------------------------------------------------|-------------------------------------------------|
G|-------------------------------------------------|-------------------------------------------------|
D|-------------------------------------------------|-------------------------------------------------|
B|-0--0--0--0--0--0--0--0--0--0--0--0--0--0--0--0--|-0--0--0--0--0--0--0--0--0--0--0--0--0--0--0--0--|


D|-------------------------------------0---0---|-----0---0-------0---0-------0---|
B|---------------------------------------------|---------------------------------|
G|---------------------------------------------|---------------------------------|
D|-0--0--0--0--0--0-----0--0--0--0--0----------|---------------------------------|
B|-0--0--0--0--0--0--0--0--0--0--0--0--0---0---|-----0---0-------0---0-------0---|


D|-0-------0---0-------0---0-------|-0------------------|------0----------------------0-----|
B|---------------------------------|--------------------|-----------0--0--------------------|
G|---------------------------------|--------------------|-----------------0-----------------|
D|---------------------------------|--------------------|--------------------0-----0-----0--|
B|-0-------0---0-------0---0-------|-0------------------|-----------0--------0--------0-----|


D|-------------------------------0-----------------|-------------------0-----------------------------|
B|-------------------------------------------------|-------------------------------------------------|
G|----------0--0--------0--------------------------|----------------------------------0--0--------0--|
D|-0--0-----0--0--0--0--0-----0-----0--0--0-----0--|-0--0--0--0-----0-----0--0--0-----0--0-----0--0--|
B|----0--------0--------0--------0--------0--------|-0--------0--------0--------0--------0--------0--|


D|-------0-----------------------------------0-----|----------------------------0--------------------|
B|-------------------------------------------------|-------------------------------------------------|
G|-------------------------------------------------|----------0--0--------0--------------------------|
D|-0--0-----0--0--0--0--0--0--0--0--0-----0-----0--|-0--0-----0--0-----0--0--0-----0--0--0--0--0--0--|
B|-------0--------0--------0--------0--------0-----|----0--------0--------0-----0--------0--------0--|


D|----------------0-----------------0------------|-------0--------0--------------------------0-----|
B|-----------------------------------------------|-------------------------0--0--------------------|
G|-------------------------------0-----------0---|-------------------------------0-----------------|
D|-0--0--0-----0-----0--0--0-----0--------0--0---|-0--0-----0--0--0--0--0-----------0-----0-----0--|
B|-------0--------0--------0--------0--------0---|-------0--------0--------0--------0--------0-----|


D|-------------------------------0-----------------|-------------------0-----------------------------|
B|-------------------------------------------------|----------------------------------------0--0--0--|
G|----------0--0--------0--------------------------|-------------------------------------------------|
D|-0--0-----0--0--0--0--0-----0-----0--0--0-----0--|-0--0--0--0-----0-----0--0--0-----0--0-----------|
B|----0--------0--------0--------0--------0--------|-0--------0--------0--------0--------0-----------|


D|-------------------------------------------0-----|-------------------------------0-----------------|
B|-0--0--0-----------------------------------------|-------------------------------------------------|
G|----------0--0--0--0--0--------------------------|----------0--0--------0--------------------------|
D|-------------------------0--0--0--0-----0-----0--|-0--0-----0--0-----0--0--0--0-----0--0--0--0--0--|
B|-------------------------0--------0--------0-----|----0--------0--------0--------0--------0--------|


D|-------------------0-----------------------------|-------------------------------------------------|
B|-------------------------------------------------|-------------------------------------------------|
G|----------------------------------0--------------|-------------------------------------------------|
D|-0--0--0--0-----0-----0--0--0-----0--0--0--0--0--|-0--0-----0--0--0--0--0--0--0--0-----0--0--0--0--|
B|-0--------0--------0--------0--------0--0--0--0--|-0--0--0--0--0--0--0--0--0--0--0--0--0--0--0--0--|


D|-------------------------------0-----------------|-------------------0-----------------------------|
B|-------------------------------------------------|-------------------------------------------------|
G|-------------------------------------------------|-------------------------------------------------|
D|----0--0--0--------------------------------------|-------------------------------------------------|
B|-0--0--0--0--0--0--0--0--0--0--0--0--0--0--0--0--|-0--0--0--0--0--0--0--0--0--0--0--0--0--0--0--0--|


D|-------0-----------------------------------0-----|-------------------------------0-----------------|
B|-------------------------------------------------|-------------------------------------------------|
G|-------------------------------------------------|-------------------------------------------------|
D|-------------------------------------------------|-------------------------------------------------|
B|-0--0--0--0--0--0--0--0--0--0--0--0--0--0--0--0--|-0--0--0--0--0--0--0--0--0--0--0--0--0--0--0--0--|


D|-------------------0-----------------------------|-------0-----------------------------------0-----|
B|-------------------------------------------------|-------------------------------------------------|
G|-------------------------------------------------|-------------------------------------------------|
D|-------------------------------------------------|-------------------------------------------------|
B|-0--0--0--0--0--0--0--0--0--0--0--0--0--0--0--0--|-0--0--0--0--0--0--0--0--0--0--0--0--0--0--0--0--|


D|-------------------------------0-----------------|-------------------0-----------------------------|
B|-------------------------------------------------|-------------------------------------------------|
G|-------------------------------------------------|-------------------------------------------------|
D|-------------------------------------------------|-------------------------------------------------|
B|-0--0--0--0--0--0--0--0--0--0--0--0--0--0--0--0--|-0--0--0--0--0--0--0--0--0--0--0--0--0--0--0--0--|


D|-------0-----------------------------------0-----|-------------------------------0-----------------|
B|-------------------------------------------------|-------------------------------------------------|
G|-------------------------------------------------|-------------------------------------------------|
D|-------------------------------------------------|-------------------------------------------------|
B|-0--0--0--0--0--0--0--0--0--0--0--0--0--0--0--0--|-0--0--0--0--0--0--0--0--0--0--0--0--0--0--0--0--|


D|-------------------0-----------------------------|-------0-----------------------------------------|
B|-------------------------------------------------|-------------------------------------------------|
G|-------------------------------------------------|-------------------------------------------------|
D|-------------------------------------------------|-------------------------0--0--0--0--0--0-----0--|
B|-0--0--0--0--0--0--0--0--0--0--0--0--0--0--0--0--|-0--0--0--0--0--0--0--0--0--0--0--0--0--0--0--0--|


D|-------------0---0-------0---0-------|-0---0-------0---0-------0---0---|-----0---0----------------0---|
B|-------------------------------------|---------------------------------|------------------------------|
G|-------------------------------------|---------------------------------|------------------------------|
D|-0--0--0--0--------------------------|---------------------------------|------------------------------|
B|-0--0--0--0--0---0-------0---0-------|-0---0-------0---0-------0---0---|-----0---0--------------------|


D|------------0-----|-------------------------0-----------|-------------------------0-----------------------|
B|------------------|-------------------------------------|-------------------------------------------------|
G|------------------|-------------------------------------|-------------------------------------------------|
D|------------------|-------------------------------------|-------------------------------------------------|
B|------0-----------|-0-----0--0--0--0--0--0--0--0--0--0--|-0--0--0--0--0--0--0--0--0--0--0--0--0--0--0--0--|


D|-------------0-----------------------------------|-0-------------0---------0-------|
B|-------------------------------------------------|----0----------------------------|
G|-------------------------------------------------|-------0-------------------------|
D|-------------------------------------------------|----------0----------------------|
B|-0--0--0--0--0--0--0--0--0--0--0--0--0--0--0--0--|--------------------0---------0--|


D|-----------------------0-----------------------|-------------0-----------------------------------|
B|-----------------------------------------------|-------------------------------------------------|
G|-----------------------------------------------|-------------------------------------------------|
D|-----------------------------------------------|-------------------------------------------------|
B|-----0--0--0--0--0--0--0--0--0--0--0--0--0--0--|-0--0--0--0--0--0--0--0--0--0--0--0--0--0--0--0--|


D|-0-----------------------------------0-----------|-----0-----------0---|------------------------------|
B|----------------------------------------0--------|---------------------|------------------------------|
G|-------------------------------------------0-----|---------------------|------------------------------|
D|----------------------------------------------0--|---------------------|------------------------------|
B|-0--0--0--0--0--0--0--0--0--0--0--0--------------|-----------0---------|------0-----0--0--0--0--0--0--|


D|-0-----------------------------------0-----------|-------------------------0-----------------------|
B|-------------------------------------------------|-------------------------------------------------|
G|-------------------------------------------------|-------------------------------------------------|
D|-------------------------------------------------|-------------------------------------------------|
B|-0--0--0--0--0--0--0--0--0--0--0--0--0--0--0--0--|-0--0--0--0--0--0--0--0--0--0--0--0--0--0--0--0--|


D|-------------0-------------0---------|-0---------------------------0-----------|
B|----------------0--------------------|-----------------------------------------|
G|-------------------0-----------------|-----------------------------------------|
D|----------------------0--------------|-----------------------------------------|
B|-0--0--0--0---------------------0----|------0----0--0--0--0--0--0--0--0--0--0--|


D|-------------------------0-----------------------|-------------0-----------------------------------|
B|-------------------------------------------------|-------------------------------------------------|
G|-------------------------------------------------|-------------------------------------------------|
D|-------------------------------------------------|-------------------------------------------------|
B|-0--0--0--0--0--0--0--0--0--0--0--0--0--0--0--0--|-0--0--0--0--0--0--0--0--0--0--0--0--0--0--0--0--|


D|-0-------------------0----|-----------0--------------|-----------0---------------------|
B|----0---------------------|--------------------------|---------------------------------|
G|-------0------------------|--------------------------|---------------------------------|
D|----------0---------------|--------------------------|---------------------------------|
B|---------------0----------|-----0----------0--0--0---|-----0--0-------0--0--0----0--0--|


D|-0-----------------|-----0----------|-----------0-------0--|---------0--0---------|
B|-------------------|----------------|----------------------|----------------------|
G|-------------------|----------------|----------------------|----------------------|
D|-------------------|----------------|----------------------|----------------------|
B|------0--0--0------|------------0---|----------------------|---------------0------|


D|-----0----------|----------------------0-------0--|---------0--0---------|-----0----------|
B|----------------|---------------------------------|----------------------|----------------|
G|----------------|---------------------------------|----------------------|----------------|
D|----------------|---------------------------------|----------------------|----------------|
B|------------0---|--------0-------0--0-------------|---------------0------|------------0---|


D|------------0--------|-----0---0-------------|-----0------0---|-----0-----------------------------|
B|---------------------|-----------------------|----------------|---------0--------------0--0-------|
G|---------------------|-----------------------|----------------|-------------0-------0---------0---|
D|---------------------|-----------------------|----------------|-----------------0-----------------|
B|-------0-------------|-------------0---------|-0--------------|-0---------------------------------|


D|--------------------|-----0----------|---------------0--------|----------0---------|
B|--------------------|----------------|------------------------|--------------------|
G|-0------------------|----------------|------------------------|--------------------|
D|-----0---0----------|----------------|------------------------|--------------------|
B|-------------0------|------------0---|-----------0------------|-------------0------|


D|-----0----------|----------------------0-------0--|---------0--0---------|-----0----------|
B|----------------|---------------------------------|----------------------|----------------|
G|----------------|---------------------------------|----------------------|----------------|
D|----------------|---------------------------------|----------------------|----------------|
B|------------0---|--------0-------0--0-------------|---------------0------|------------0---|


D|---------------0--------|--------------------|-----0----------|-----------0-------0--|
B|------------------------|--------------------|----------------|----------------------|
G|------------------------|--------------------|----------------|----------------------|
D|------------------------|--------------------|----------------|----------------------|
B|-----------0------------|-------------0------|------------0---|----------------------|


D|---------0--0---------|-----0----------|---------------0--------|----------0------0---0-------0--0--|
B|----------------------|----------------|------------------------|-----------------------------------|
G|----------------------|----------------|------------------------|-----------------------------------|
D|----------------------|----------------|------------------------|-----------------------------------|
B|---------------0------|------------0---|-----------0------------|-------------0---------------------|


D|-0-----------0---0-------0--0--0-----------|-0---0-------0--0--0--0--------------------|
B|-------------------------------------------|-------------------------------------------|
G|-------------------------------------------|-------------------------------------------|
D|-------------------------------------------|-------------------------0--0--0--0--0--0--|
B|-------0--0--------------------------0--0--|-------------------------0--0--0--0--0--0--|


D|----------0----------------------0-----------|-----0--0--0--0--0--0--0--0--0--0----------|
B|---------------0--0--------------------------|-------------------------------------0--0--|
G|---------------------0-----------------------|-------------------------------------------|
D|-0--0--0----------------0-----0-----0--0--0--|-------------------------------------------|
B|-0--0--0-------0--------0--------0--------0--|-------------------------------------0-----|


D|-------------0---------------0--0--0--0--0--0--|-0--0--0--0----------------------0-----------|
B|-----------------------------------------------|---------------0--0--------------------------|
G|-0---------------------------------------------|---------------------0-----------------------|
D|----0-----0-----0--0--0------------------------|------------------------0-----0-----0--0--0--|
B|----0--------0--------0------------------------|---------------0--------0--------0--------0--|


D|-----0--0--0--0--0--0--0--0--0--0----------|-------------0---------------0--0--0--0--0--0--|
B|-------------------------------------0--0--|-----------------------------------------------|
G|-------------------------------------------|-0---------------------------------------------|
D|-------------------------------------------|----0-----0-----0--0--0------------------------|
B|-------------------------------------0-----|----0--------0--------0------------------------|


D|-0--0--0--0----0---0-------0---0---|-----0---0-------0---0-------0---|-0-------0---0-------0--------|
B|-----------------------------------|---------------------------------|------------------------------|
G|-----------------------------------|---------------------------------|------------------------------|
D|-----------------------------------|---------------------------------|------------------------------|
B|---------------0---0-------0---0---|-----0---0-------0---0-------0---|-0-------0---0-------0--------|


D|-----------------|
B|-----------------|
G|-----------------|
D|-----------------|
B|-----------------|





Track 4: Rex Brown- Bass

 E|--------|--------|--------|--------|--------|--------|-----------------|--------------------|
 B|--------|--------|--------|--------|--------|--------|-----------------|--------------------|
F#|--------|--------|--------|--------|--------|--------|-----------------|--------------------|
C#|--------|--------|--------|--------|--------|--------|-0-----6-----6---|-6-----0------------|


 E|--------|-----------------|--------------------|--------|-----------------|--------------------|
 B|--------|-----------------|--------------------|--------|-----------------|--------------------|
F#|--------|-----------------|--------------------|--------|-----------------|--------------------|
C#|--------|-0-----6-----6---|-6-----0------------|--------|-0-----6-----6---|-6-----0------------|


 E|--------|-----------------|--------------------|---------------------------------------------|
 B|--------|-----------------|--------------------|------------------------------------5-----7--|
F#|--------|-----------------|--------------------|------------------5-----7--5--6--7-----7-----|
C#|--------|-0-----6-----6---|-6-----0------------|-0---7---5--6--7-----7-----------------------|


 E|----------------------------12----14------|-----------------------------|----------------------------|
 B|----------12----14-12-13-14----14---------|---------------------------0-|----------------------------|
F#|-12-13-14----14---------------------------|--------------------1--2-----|---1--0---------------------|
C#|-------------------------------------0----|-----6-----------0-----------|---------3---0-----6---6----|


 E|------------------------------------------|-----------------------------|----------------------------|
 B|----------------------------5-----7-------|---------------------------0-|----------------------------|
F#|----------5-----7--5--6--7-----7----------|--------------------1--2-----|---1--0---------------------|
C#|-5--6--7-----7-----------------------0----|-----6-----------0-----------|---------3---0-----6---6----|


 E|------------------------------------------|-----------------------------|----------------------------|
 B|----------------------------5-----7-------|---------------------------0-|----------------------------|
F#|----------5-----7--5--6--7-----7----------|--------------------1--2-----|---1--0---------------------|
C#|-5--6--7-----7-----------------------0----|-----6-----------0-----------|---------3---0-----6---6----|


 E|------------------------------------------|-----------------------------|----------------------------|
 B|----------------------------5-----7-------|---------------------------0-|----------------------------|
F#|----------5-----7--5--6--7-----7----------|--------------------1--2-----|---1--0---------------------|
C#|-5--6--7-----7-----------------------0----|-----6-----------0-----------|---------3---0-----6---6----|


 E|---------------------------------------------|---------------------------------|
 B|----------------------------5-----7----------|---------------------------------|
F#|----------5-----7--5--6--7-----7-------------|---------------------------------|
C#|-5--6--7-----7-----------------------6---6---|-----6---6-------6---6-------6---|


 E|---------------------------------|--------------------|-----------------|-----------------|
 B|---------------------------------|--------------------|-----------------|-----------------|
F#|---------------------------------|--------------------|-----------------|-----------------|
C#|-6-------6---6-------6---6-------|-6------------------|-------0-----6---|-------6---6-----|


 E|--------------------|-----------------|-----------------|--------------------|-----------------|
 B|--------------------|-----------------|-----------------|--------------------|-----------------|
F#|--------------------|-----------------|-----------------|--------------------|-----------------|
C#|-0------------------|-------0-----6---|-------6---6-----|-0------------------|-------0-----6---|


 E|-----------------|--------------------|-----------------|-----------------|----------------------------------|
 B|-----------------|--------------------|-----------------|-----------------|----------------------------------|
F#|-----------------|--------------------|-----------------|-----------------|-------------------------------5--|
C#|-------6---6-----|-0------------------|-------0-----6---|-------6---6-----|-0------------0---7---5--6--7-----|


 E|-------------------------------------------------|----12----14-------------|---------------------------------------|
 B|----------------5-----7-----------12----14-12-13-|-14----14----------------|---------------------0-----------------|
F#|----7--5--6--7-----7-----12-13-14----14----------|-------------------------|--------------1--2------1--0-----------|
C#|-7-----------------------------------------------|-------------0-----6-----|-----------0------------------3---0----|


 E|--------------------------------------|-------------------------|---------------------------------------|
 B|--------------------------------------|----5-----7--------------|---------------------0-----------------|
F#|-----------------------5-----7--5--6--|-7-----7-----------------|--------------1--2------1--0-----------|
C#|-----6---6----5--6--7-----7-----------|-------------0-----6-----|-----------0------------------3---0----|


 E|--------------------------------------|-------------------------|---------------------------------------|
 B|--------------------------------------|----5-----7--------------|---------------------0-----------------|
F#|-----------------------5-----7--5--6--|-7-----7-----------------|--------------1--2------1--0-----------|
C#|-----6---6----5--6--7-----7-----------|-------------0-----6-----|-----------0------------------3---0----|


 E|--------------------------------------|-------------------------|---------------------------------------|
 B|--------------------------------------|----5-----7--------------|---------------------0-----------------|
F#|-----------------------5-----7--5--6--|-7-----7-----------------|--------------1--2------1--0-----------|
C#|-----6---6----5--6--7-----7-----------|-------------0-----6-----|-----------0------------------3---0----|


 E|--------------------------------------|-------------------------------------|---------------------------------|
 B|--------------------------------------|----5-----7--------------------------|---------------------------------|
F#|-----------------------5-----7--5--6--|-7-----7-----------------------------|---------------------------------|
C#|-----6---6----5--6--7-----7-----------|-------------6---6-------6---6-------|-6---6-------6---6-------6---6---|


 E|------------------------------|------------------|---------------------------------|
 B|------------------------------|------------------|---------------------------------|
F#|------------------------------|------------5-----|-2-------------------------------|
C#|-----6---6----------------4---|------1-----------|-------1--4--5--6----1--4--5--6--|


 E|---------------------------------------|-------------------------------------|---------------------------------|
 B|---------------------------------------|-------------------------------------|---------------------------------|
F#|---------------------------------------|-------------------------------------|-------------------------5----2--|
C#|-----1--4--5--6----1--4--5--6----1--4--|-5--6----1--4--5--6----1--4--5--6----|-1--4--5--6----4----1------------|


 E|---------------------------------------|-------------------------------------|-----------------------------------------|
 B|---------------------------------------|-------------------------------------|-----------------------------------------|
F#|---------------------------------------|-------------------------------------|-----------------------------------------|
C#|-----1--4--5--6----1--4--5--6----1--4--|-5--6----1--4--5--6----1--4--5--6----|-1--4--5--6----1--4--5--6----1--4--5--6--|


 E|---------------------|--------------------------|-----------------------------------------|
 B|---------------------|--------------------------|-----------------------------------------|
F#|---------------------|--------------------------|-----------------------------------------|
C#|-----4-----1-----4---|------2-----1--4--5--6----|-1--4--5--6----1--4--5--6----1--4--5--6--|


 E|---------------------------------------|---------------------------------|-------------------------------------|
 B|---------------------------------------|---------------------------------|-------------------------------------|
F#|---------------------------------------|---------------------------------|-5----2------------------------------|
C#|-----1--4--5--6----1--4--5--6----1--4--|-5--6----1--4--5--6----4----1----|-----------1--4--5--6----1--4--5--6--|


 E|---------------------------------------|-------------------------------------|--------------------------|
 B|---------------------------------------|-------------------------------------|--------------------------|
F#|---------------------------------------|-------------------------------------|--------------------------|
C#|-----1--4--5--6----1--4--5--6----1--4--|-5--6----1--4--5--6----1--4--5--6----|-1--4--5--6----4-----1----|


 E|---------------------|------------------|--------------|----------------|-----------------|
 B|---------------------|------------------|--------------|----------------|-----------------|
F#|-----5-----2---------|------------5-----|-2------------|------------5---|-----------2-----|
C#|-----------------4---|------1-----------|-------4------|-----1----------|-----------------|


 E|--------------|----------------|-----------------|--------------|----------------|
 B|--------------|----------------|-----------------|--------------|----------------|
F#|--------------|------------5---|-----------2-----|--------------|------------5---|
C#|-------4------|-----1----------|-----------------|-------4------|-----1----------|


 E|-----------------|--------------|----------------|-----------------|--------------|
 B|-----------------|--------------|----------------|-----------------|--------------|
F#|-----------2-----|--------------|------------5---|-----------2-----|--------------|
C#|-----------------|-------4------|-----1----------|-----------------|-------4------|


 E|----------------|-----------------|--------------|----------------|-----------------|
 B|----------------|-----------------|--------------|----------------|-----------------|
F#|------------5---|-----------2-----|--------------|------------5---|-----------2-----|
C#|-----1----------|-----------------|-------4------|-----1----------|-----------------|


 E|--------------|----------------|-----------------|--------------|----------------|
 B|--------------|----------------|-----------------|--------------|----------------|
F#|--------------|------------5---|-----------2-----|--------------|------------5---|
C#|-------4------|-----1----------|-----------------|-------4------|-----1----------|


 E|-----------------|--------------|----------------|-----------------|--------------|
 B|-----------------|--------------|----------------|-----------------|--------------|
F#|-----------2-----|--------------|------------5---|-----------2-----|--------------|
C#|-----------------|-------4------|-----1----------|-----------------|-------4------|


 E|----------------|-----------------------------|--------------------------|-----------------------------------------|
 B|----------------|-----------------------------|--------------------------|-----------------------------------------|
F#|------------5---|-----------5--7--7--7--7--7--|-7--7--7--7---------------|-----5--7--7--7--7--7--7--7--7--7--------|
C#|-----1----------|-----------------------------|---------------0-----6----|-------------------------------------0---|


 E|------------------------------|--------------------------|-----------------------------------------|
 B|------------------------------|--------------------------|-----------------------------------------|
F#|------------5--7--7--7--7--7--|-7--7--7--7---------------|-----5--7--7--7--7--7--7--7--7--7--------|
C#|------6-----------------------|---------------0-----6----|-------------------------------------0---|


 E|------------------------------|-----------------------------------|---------------------------------|
 B|------------------------------|-----------------------------------|---------------------------------|
F#|------------5--7--7--7--7--7--|-7--7--7--7------------------------|---------------------------------|
C#|------6-----------------------|---------------6---6-------6---6---|-----6---6-------6---6-------6---|


 E|------------------------------|-----------------|
 B|------------------------------|-----------------|
F#|------------------------------|-----------------|
C#|-6-------6---6-------6--------|-----------------|