Menu:

 

Search:

 

pantera - 10s:

 



Title: 10's
Artist: 
Album: The Great Southern Trendkill
Author: Vincent Abbott, Darrell Abbott, Philip Anselmo, Rex Brown


Track 1: Bass

 E|-------------------------------|-------------------------------|-------------------------------|
 B|-4--4--4--4--4--4--4--4--4-----|-4--4--4--4--4--4--4--4--4-----|-4--4--4--4--4--4--4--4--4-----|
F#|-------------------------------|-------------------------------|-------------------------------|
C#|-------------------------------|-------------------------------|-------------------------------|


 E|-------------------------------------------------|-------------------------------------------------|
 B|-4--4--4--4--4--4--4--4--4-----------------------|-------------------------------------------------|
F#|-------------------------------------------------|-------------------------------------------------|
C#|----------------------------2--2--2--2--2--2--2--|-2--2--2--2--2--2--2--2--2--2--2--2--2--2--0--2--|


 E|-------------------------------------------------|-------------------------------------------------|
 B|-------------------------------------------------|-------------------------------------------------|
F#|-------------------------------------------------|-------------------------------------------------|
C#|-2--2--2--2--2--2--2--2--2--2--2--2--2--2--0--2--|-2--2--2--2--2--2--2--2--2--2--2--2--2--2--0--2--|


 E|-------------------------------|-------------------------------|-------------------------------|
 B|-------------------------------|-4--4--4--4--4--4--4--4--4-----|-4--4--4--4--4--4--4--4--4-----|
F#|-------------------------------|-------------------------------|-------------------------------|
C#|-2--2--2--2--2--2--2--2--2-----|-------------------------------|-------------------------------|


 E|-------------------------------|-------------------------------------------------|
 B|-4--4--4--4--4--4--4--4--4-----|-4--4--4--4--4--4--4--4--4-----------------------|
F#|-------------------------------|-------------------------------------------------|
C#|-------------------------------|----------------------------2--2--2--2--2--2--2--|


 E|-------------------------------------------------|-------------------------------------------------|
 B|-------------------------------------------------|-------------------------------------------------|
F#|-------------------------------------------------|-------------------------------------------------|
C#|-2--2--2--2--2--2--2--2--2--2--2--2--2--2--0--2--|-2--2--2--2--2--2--2--2--2--2--2--2--2--2--0--2--|


 E|-------------------------------------------------|-------------------------------|
 B|-------------------------------------------------|-------------------------------|
F#|-------------------------------------------------|-------------------------------|
C#|-2--2--2--2--2--2--2--2--2--2--2--2--2--2--0--2--|-2--2--2--2--2--2--2--2--2-----|


 E|-------------------------------------------|---------------------------------------------|
 B|---------------2---------------------------|---------------2-----------------------------|
F#|------------2------------------------------|------------2--------------------------------|
C#|-0----2--4--------2---2--2--2--2--2--2--2--|-0----2--4--------0--0--0--0--0--0--0--0--0--|


 E|-------------------------------------------|------------------------------------|
 B|---------------2---------------------------|---------------2--------------------|
F#|------------2------------------------------|------------2-----------------------|
C#|-0----2--4--------2---2--2--2--2--2--2--2--|-0----2--4--------0--0---0--0--0----|


 E|-------------------------------|-------------------------------|-------------------------------|
 B|-4--4--4--4--4--4--4--4--4-----|-4--4--4--4--4--4--4--4--4-----|-4--4--4--4--4--4--4--4--4-----|
F#|-------------------------------|-------------------------------|-------------------------------|
C#|-------------------------------|-------------------------------|-------------------------------|


 E|-------------------------------------------------|-------------------------------------------------|
 B|-4--4--4--4--4--4--4--4--4-----------------------|-------------------------------------------------|
F#|-------------------------------------------------|-------------------------------------------------|
C#|----------------------------2--2--2--2--2--2--2--|-2--2--2--2--2--2--2--2--2--2--2--2--2--2--0--2--|


 E|-------------------------------------------------|-------------------------------------------------|
 B|-------------------------------------------------|-------------------------------------------------|
F#|-------------------------------------------------|-------------------------------------------------|
C#|-2--2--2--2--2--2--2--2--2--2--2--2--2--2--0--2--|-2--2--2--2--2--2--2--2--2--2--2--2--2--2--0--2--|


 E|---------------------------------------------|-------------------------------------------|
 B|---------------------------------------------|---------------2---------------------------|
F#|---------------------------------------------|------------2------------------------------|
C#|-2--2--2--2--2--2--2--2--2--2--2--2--2---12--|-0----2--4--------2---2--2--2--2--2--2--2--|


 E|---------------------------------------------|-------------------------------------------|
 B|---------------2-----------------------------|---------------2---------------------------|
F#|------------2--------------------------------|------------2------------------------------|
C#|-0----2--4--------0--0--0--0--0--0--0--0--0--|-0----2--4--------2---2--2--2--2--2--2--2--|


 E|---------------------------------------------|-------------------------------------------|
 B|---------------2-----------------------------|---------------2---------------------------|
F#|------------2--------------------------------|------------2------------------------------|
C#|-0----2--4--------0--0--0--0--0--0--0--0--0--|-0----2--4--------2---2--2--2--2--2--2--2--|


 E|---------------------------------------------|-------------------------------------------|
 B|---------------2-----------------------------|---------------2---------------------------|
F#|------------2--------------------------------|------------2------------------------------|
C#|-0----2--4--------0--0--0--0--0--0--0--0--0--|-0----2--4--------2---2--2--2--2--2--2--2--|


 E|---------------------------|----------------------|----------------------------------|
 B|---------------2-----------|-------------------5--|-9--------------------------------|
F#|------------2--------------|----------------------|------9---9--10-10--10-7---7--21--|
C#|-0----2--4--------0-----0--|----------------------|----------------------------------|


 E|--------------------------------|----------------------------------|------------------------------------|
 B|--------------------------------|----------------------------------|------------------------------------|
F#|--------------------------------|----------------------------------|---------------------------9-----7--|
C#|-7----2---2--3--3---3--0---0----|-7----2---2--3--3---3--0---0--15--|-7----2---2--3--3---3--0------------|


 E|--------------------------------|----------------------------------|------------------------------------|
 B|--------------------------------|----------------------------------|------------------------------------|
F#|--------------------------------|----------------------------------|------------------------------------|
C#|-7----2---2--3--3---3--0---0----|-7----2---2--3--3---3--0---14--9--|-7----2--0--2--3---3---0---0--0--0--|


 E|------------------------------------|------------------------------------|--------------------------------|
 B|------------------------------------|------------------------------------|--------------------------------|
F#|---------------------------9-----7--|------------------------------------|--------------------------------|
C#|-7----2---2--3--3---3--0------------|-7----2--0--2--3---3---0---0--0--0--|-7----2---2--3--3---3--0---0----|


 E|------------------------------------|------------------------|----------------------------------|
 B|------------------------------------|------------------------|----------------------------------|
F#|------------------------------------|------------------------|-5---5--7----7--7--9----9--12--12-|
C#|-7----2--0--2--3---3---0---0--0--0--|-3----3----2----2--2----|----------------------------------|


 E|-----------------|------------------------------------|------------------------------------|
 B|-----------------|------------------------------------|------------------------------------|
F#|-----------------|------------------------------------|------9---9--10-10--10-7---7--21-21-|
C#|-3-----2----6----|-7----2---2--3--3---3--0---0--14-14-|-7----------------------------------|


 E|--------------------------------|-------------------------------|-------------------------------------------|
 B|--------------------------------|-------------------------------|---------------2---------------------------|
F#|--------------------------------|-------------------------------|------------2------------------------------|
C#|-7----2---2--3--3---3--0---0----|-7----2---2--3----3---3--14-14-|-0----2--4--------2---2--2--2--2--2--2--2--|


 E|---------------------------------------------|-------------------------------------------|
 B|---------------2-----------------------------|---------------2---------------------------|
F#|------------2--------------------------------|------------2------------------------------|
C#|-0----2--4--------0--0--0--0--0--0--0--0--0--|-0----2--4--------2---2--2--2--2--2--2--2--|


 E|-------------------------------------------|-------------------------------------------|
 B|---------------2---------------------------|---------------2---------------------------|
F#|------------2------------------------------|------------2------------------------------|
C#|-0----2--4--------0---0--0--0--0--0--0--0--|-0----2--4--------2---2--2--2--2--2--2--2--|


 E|-------------------------------------------|-------------------------------------------|
 B|---------------2---------------------------|---------------2---------------------------|
F#|------------2------------------------------|------------2------------------------------|
C#|-0----2--4--------0---0--0--0--0--0--0--0--|-0----2--4--------2---2--2--2--2--2--2--2--|


 E|---------------------------|--------|
 B|---------------2-----------|--------|
F#|------------2--------------|--------|
C#|-0----2--4--------0-----0--|-0------|