Menu:

 

Search:

 

palpable defeat - dicaliber:

 



Title: Dicaliber
Artist: 
Album: 
Author: Ben Daniels


Track 1: Rythm 1

D|--------|-------------|---------------------|--------|-------------|---------------------|
A|--------|-------------|---------------------|--------|-------------|---------------------|
F|--------|-------------|---------------------|--------|-------------|---------------------|
C|-5------|-------------|-4---5---4-----7-----|-5------|-------------|-4---5---4-----7-----|
G|--------|-------5-----|---------------------|--------|-------5-----|---------------------|
D|--------|-------------|---------------------|--------|-------------|---------------------|


D|--------|-------------|---------------------|--------|-------------|---------------------|
A|--------|-------------|---------------------|--------|-------------|---------------------|
F|--------|-------------|---------------------|--------|-------------|---------------------|
C|-5------|-------------|-4---5---4-----7-----|-5------|-------------|-4---5---4-----7-----|
G|--------|-------5-----|---------------------|--------|-------5-----|---------------------|
D|--------|-------------|---------------------|--------|-------------|---------------------|


D|--------|-------------|---------------------|--------|-------------|---------------------|
A|--------|-------------|---------------------|--------|-------------|---------------------|
F|--------|-------------|---------------------|--------|-------------|---------------------|
C|-5------|-------------|-4---5---4-----7-----|-5------|-------------|-4---5---4-----7-----|
G|--------|-------5-----|---------------------|--------|-------5-----|---------------------|
D|--------|-------------|---------------------|--------|-------------|---------------------|


D|--------|-------------|---------------------|--------|-------------|---------------------|
A|--------|-------------|---------------------|--------|-------------|---------------------|
F|--------|-------------|---------------------|--------|-------------|---------------------|
C|-5------|-------------|-4---5---4-----7-----|-5------|-------------|-4---5---4-----7-----|
G|--------|-------5-----|---------------------|--------|-------5-----|---------------------|
D|--------|-------------|---------------------|--------|-------------|---------------------|


D|---------------------------------|---------------------------------|---------------------------------|
A|---------------------------------|---------------------------------|---------------------------------|
F|---------------------------------|---------------------------------|---------------------------------|
C|---------------------------------|---------------------------------|---------------------------------|
G|-2---2---2---2-------2---2-------|-2-------2---2---2---2---2---2---|-----2---2-------2-------2---2---|
D|-0---0---0---0-------0---0-------|-0-------0---0---0---0---0---0---|-----0---0-------0-------0---0---|


D|---------------------------------|---------------------------------|-----------------------|
A|---------------------------------|---------------------------------|-----------------------|
F|---------------------------------|---------------------------------|-----------------------|
C|---------------------------------|---------------------------------|-----------------------|
G|-2---2---2---2-------2---2-------|-2-------2---2---2---2---2---2---|-----2---2-------------|
D|-0---0---0---0-------0---0-------|-0-------0---0---0---0---0---0---|-----0---0-------------|


D|---------------------------------|---------------------------------|---------------------------------|
A|---------------------------------|---------------------------------|---------------------------------|
F|---------------------------------|---------------------------------|---------------------------------|
C|---------------------------------|---------------------------------|---------------------------------|
G|-2---2---2---2-------2---2-------|-2-------2---2---2---2---2---2---|-----2---2-------2-------2---2---|
D|-0---0---0---0-------0---0-------|-0-------0---0---0---0---0---0---|-----0---0-------0-------0---0---|


D|---------------------------------|---------------------------------|---------------------------------|
A|---------------------------------|---------------------------------|---------------------------------|
F|---------------------------------|---------------------------------|---------------------------------|
C|---------------------------------|---------------------------------|---------------------------------|
G|-2---2---2---2-------2---2-------|-2-------2---2---2---2---2---2---|-----2---2-------2-------2---2---|
D|-0---0---0---0-------0---0-------|-0-------0---0---0---0---0---0---|-----0---0-------0-------0---0---|


D|---------------------------------|---------------------------------|---------------------------------|
A|---------------------------------|---------------------------------|---------------------------------|
F|---------------------------------|---------------------------------|---------------------------------|
C|---------------------------------|---------------------------------|---------------------------------|
G|-5---5---5---5-------5---5-------|-5-------5---5---5---5---5---5---|-----5---5-------5-------5---5---|
D|-3---3---3---3-------3---3-------|-3-------3---3---3---3---3---3---|-----3---3-------3-------3---3---|


D|---------------------------------|---------------------------------|---------------------------------|
A|---------------------------------|---------------------------------|---------------------------------|
F|---------------------------------|---------------------------------|---------------------------------|
C|---------------------------------|---------------------------------|---------------------------------|
G|-5---5---5---5-------5---5-------|-5-------5---5---5---5---5---5---|-----5---5-------5-------5---5---|
D|-3---3---3---3-------3---3-------|-3-------3---3---3---3---3---3---|-----3---3-------3-------3---3---|


D|---------------------------------|---------------------------------|---------------------------------|
A|---------------------------------|---------------------------------|---------------------------------|
F|---------------------------------|---------------------------------|---------------------------------|
C|---------------------------------|---------------------------------|---------------------------------|
G|-2---2---2---2-------2---2-------|-2-------2---2---2---2---2---2---|-----2---2-------2-------2---2---|
D|-0---0---0---0-------0---0-------|-0-------0---0---0---0---0---0---|-----0---0-------0-------0---0---|


D|---------------------------------|---------------------------------|---------------------------------|
A|---------------------------------|---------------------------------|---------------------------------|
F|---------------------------------|---------------------------------|---------------------------------|
C|---------------------------------|---------------------------------|---------------------------------|
G|-2---2---2---2-------2---2-------|-2-------2---2---2---2---2---2---|-----2---2-------2-------2---2---|
D|-0---0---0---0-------0---0-------|-0-------0---0---0---0---0---0---|-----0---0-------0-------0---0---|


D|---------------------------------|---------------------------------|---------------------------------|
A|---------------------------------|---------------------------------|---------------------------------|
F|---------------------------------|---------------------------------|---------------------------------|
C|---------------------------------|---------------------------------|---------------------------------|
G|-5---5---5---5-------5---5-------|-5-------5---5---5---5---5---5---|-----5---5-------5-------5---5---|
D|-3---3---3---3-------3---3-------|-3-------3---3---3---3---3---3---|-----3---3-------3-------3---3---|


D|---------------------------------|---------------------------------|---------------------------------|
A|---------------------------------|---------------------------------|---------------------------------|
F|---------------------------------|---------------------------------|---------------------------------|
C|---------------------------------|---------------------------------|---------------------------------|
G|-5---5---5---5-------5---5-------|-5-------5---5---5---5---5---5---|-----5---5-------5-------5---5---|
D|-3---3---3---3-------3---3-------|-3-------3---3---3---3---3---3---|-----3---3-------3-------3---3---|


D|--------|-------------|-------------|--------|-------------|-------------|--------|
A|--------|-------------|-------------|--------|-------------|-------------|--------|
F|-9------|-------4-----|------7------|-9------|-------4-----|------7------|-9------|
C|-9------|-------4-----|------7------|-9------|-------4-----|------7------|-9------|
G|-7------|-------2-----|------5------|-7------|-------2-----|------5------|-7------|
D|-7------|-------2-----|------5------|-7------|-------2-----|------5------|-7------|


D|-------------|-------------|--------|-------------|-------------|---------------------------------|
A|-------------|-------------|--------|-------------|-------------|---------------------------------|
F|-------4-----|------7------|-9------|-------4-----|------7------|---------------------------------|
C|-------4-----|------7------|-9------|-------4-----|------7------|---------------------------------|
G|-------2-----|------5------|-7------|-------2-----|------5------|-2---2---2---2-------2---2-------|
D|-------2-----|------5------|-7------|-------2-----|------5------|-0---0---0---0-------0---0-------|


D|---------------------------------|---------------------------------|---------------------------------|
A|---------------------------------|---------------------------------|---------------------------------|
F|---------------------------------|---------------------------------|---------------------------------|
C|---------------------------------|---------------------------------|---------------------------------|
G|-2-------2---2---2---2---2---2---|-----2---2-------2-------2---2---|-2---2---2---2-------2---2-------|
D|-0-------0---0---0---0---0---0---|-----0---0-------0-------0---0---|-0---0---0---0-------0---0-------|


D|---------------------------------|---------------------------------|---------------------------------|
A|---------------------------------|---------------------------------|---------------------------------|
F|---------------------------------|---------------------------------|---------------------------------|
C|---------------------------------|---------------------------------|---------------------------------|
G|-2-------2---2---2---2---2---2---|-----2---2-------2-------2---2---|-5---5---5---5-------5---5-------|
D|-0-------0---0---0---0---0---0---|-----0---0-------0-------0---0---|-3---3---3---3-------3---3-------|


D|---------------------------------|---------------------------------|---------------------------------|
A|---------------------------------|---------------------------------|---------------------------------|
F|---------------------------------|---------------------------------|---------------------------------|
C|---------------------------------|---------------------------------|---------------------------------|
G|-5-------5---5---5---5---5---5---|-----5---5-------5-------5---5---|-5---5---5---5-------5---5-------|
D|-3-------3---3---3---3---3---3---|-----3---3-------3-------3---3---|-3---3---3---3-------3---3-------|


D|---------------------------------|---------------------------------|---------------------------------|
A|---------------------------------|---------------------------------|---------------------------------|
F|---------------------------------|---------------------------------|---------------------------------|
C|---------------------------------|---------------------------------|---------------------------------|
G|-5-------5---5---5---5---5---5---|-----5---5-------5-------5---5---|-2---2---2---2-------2---2-------|
D|-3-------3---3---3---3---3---3---|-----3---3-------3-------3---3---|-0---0---0---0-------0---0-------|


D|---------------------------------|---------------------------------|---------------------------------|
A|---------------------------------|---------------------------------|---------------------------------|
F|---------------------------------|---------------------------------|---------------------------------|
C|---------------------------------|---------------------------------|---------------------------------|
G|-2-------2---2---2---2---2---2---|-----2---2-------2-------2---2---|-2---2---2---2-------2---2-------|
D|-0-------0---0---0---0---0---0---|-----0---0-------0-------0---0---|-0---0---0---0-------0---0-------|


D|---------------------------------|---------------------------------|---------------------------------|
A|---------------------------------|---------------------------------|---------------------------------|
F|---------------------------------|---------------------------------|---------------------------------|
C|---------------------------------|---------------------------------|---------------------------------|
G|-2-------2---2---2---2---2---2---|-----2---2-------2-------2---2---|-5---5---5---5-------5---5-------|
D|-0-------0---0---0---0---0---0---|-----0---0-------0-------0---0---|-3---3---3---3-------3---3-------|


D|---------------------------------|---------------------------------|---------------------------------|
A|---------------------------------|---------------------------------|---------------------------------|
F|---------------------------------|---------------------------------|---------------------------------|
C|---------------------------------|---------------------------------|---------------------------------|
G|-5-------5---5---5---5---5---5---|-----5---5-------5-------5---5---|-5---5---5---5-------5---5-------|
D|-3-------3---3---3---3---3---3---|-----3---3-------3-------3---3---|-3---3---3---3-------3---3-------|


D|---------------------------------|---------------------------------|---------------------------------|
A|---------------------------------|---------------------------------|---------------------------------|
F|---------------------------------|---------------------------------|---------------------------------|
C|---------------------------------|---------------------------------|---------------------------------|
G|-5-------5---5---5---5---5---5---|-----5---5-------5-------5---5---|-2---2---2---2-------2---2-------|
D|-3-------3---3---3---3---3---3---|-----3---3-------3-------3---3---|-0---0---0---0-------0---0-------|


D|---------------------------------|---------------------------------|---------------------------------|
A|---------------------------------|---------------------------------|---------------------------------|
F|---------------------------------|---------------------------------|---------------------------------|
C|---------------------------------|---------------------------------|---------------------------------|
G|-2-------2---2---9---9---9---9---|-----9---9-------9-------9---9---|-12--12--12--12------12--12------|
D|-0-------0---0---7---7---7---7---|-----7---7-------7-------7---7---|-10--10--10--10------10--10------|


D|---------------------------------|---------------------------------|---------------------------------|
A|---------------------------------|---------------------------------|---------------------------------|
F|---------------------------------|---------------------------------|---------------------------------|
C|---------------------------------|---------------------------------|---------------------------------|
G|-12------12--12--7---7---7---7---|-----7---7-------7-------7---7---|-2---2---2---2-------2---2-------|
D|-10------10--10--5---5---5---5---|-----5---5-------5-------5---5---|-0---0---0---0-------0---0-------|


D|---------------------------------|---------------------------------|---------------------------------|
A|---------------------------------|---------------------------------|---------------------------------|
F|---------------------------------|---------------------------------|---------------------------------|
C|---------------------------------|---------------------------------|---------------------------------|
G|-2-------2---2---9---9---9---9---|-----9---9-------9-------9---9---|-12--12--12--12------12--12------|
D|-0-------0---0---7---7---7---7---|-----7---7-------7-------7---7---|-10--10--10--10------10--10------|


D|---------------------------------|---------------------------------|---------------------------------|
A|---------------------------------|---------------------------------|---------------------------------|
F|---------------------------------|---------------------------------|---------------------------------|
C|---------------------------------|---------------------------------|---------------------------------|
G|-12------12--12--7---7---7---7---|-----7---7-------7-------7---7---|-2---2---2---2-------2---2-------|
D|-10------10--10--5---5---5---5---|-----5---5-------5-------5---5---|-0---0---0---0-------0---0-------|


D|---------------------------------|---------------------------------|---------------------------------|
A|---------------------------------|---------------------------------|---------------------------------|
F|---------------------------------|---------------------------------|---------------------------------|
C|---------------------------------|---------------------------------|---------------------------------|
G|-2-------2---2---9---9---9---9---|-----9---9-------9-------9---9---|-12--12--12--12------12--12------|
D|-0-------0---0---7---7---7---7---|-----7---7-------7-------7---7---|-10--10--10--10------10--10------|


D|---------------------------------|---------------------------------|---------------------------------|
A|---------------------------------|---------------------------------|---------------------------------|
F|---------------------------------|---------------------------------|---------------------------------|
C|---------------------------------|---------------------------------|---------------------------------|
G|-12------12--12--7---7---7---7---|-----7---7-------7-------7---7---|-2---2---2---2-------2---2-------|
D|-10------10--10--5---5---5---5---|-----5---5-------5-------5---5---|-0---0---0---0-------0---0-------|


D|---------------------------------|---------------------------------|---------------------------------|
A|---------------------------------|---------------------------------|---------------------------------|
F|---------------------------------|---------------------------------|---------------------------------|
C|---------------------------------|---------------------------------|---------------------------------|
G|-2-------2---2---9---9---9---9---|-----9---9-------9-------9---9---|-12--12--12--12------12--12------|
D|-0-------0---0---7---7---7---7---|-----7---7-------7-------7---7---|-10--10--10--10------10--10------|


D|---------------------------------|---------------------------------|---------------------------------|
A|---------------------------------|---------------------------------|---------------------------------|
F|---------------------------------|---------------------------------|-12--12--12--12--12--12--12--12--|
C|---------------------------------|---------------------------------|-9---9---9---9---9---9---9---9---|
G|-12------12--12--7---7---7---7---|-----7---7-------7-------7---7---|-7---7---7---7---7---7---7---7---|
D|-10------10--10--5---5---5---5---|-----5---5-------5-------5---5---|---------------------------------|


D|---------------------------------|---------------------------------|---------------------------------|
A|---------------------------------|---------------------------------|---------------------------------|
F|-12--12--12--12------------------|---------------------------------|-10--10--10--10--10--10--10--10--|
C|-9---9---9---9---12--12--12--12--|-12--12--12--12--12--12--12--12--|-7---7---7---7---7---7---7---7---|
G|-7---7---7---7---9---9---9---9---|-9---9---9---9---9---9---9---9---|-5---5---5---5---5---5---5---5---|
D|-----------------7---7---7---7---|-7---7---7---7---7---7---7---7---|---------------------------------|


D|---------------------------------|---------------------------------|---------------------------------|
A|---------------------------------|---------------------------------|---------------------------------|
F|-10--10--10--10------------------|---------------------------------|-8---8---8---8---8---8---8---8---|
C|-7---7---7---7---10--10--10--10--|-10--10--10--10--10--10--10--10--|-5---5---5---5---5---5---5---5---|
G|-5---5---5---5---7---7---7---7---|-7---7---7---7---7---7---7---7---|-3---3---3---3---3---3---3---3---|
D|-----------------5---5---5---5---|-5---5---5---5---5---5---5---5---|---------------------------------|


D|---------------------------------|---------------------------------|---------------------------------|
A|---------------------------------|---------------------------------|---------------------------------|
F|-8---8---8---8-------------------|---------------------------------|-6---6---6---6---6---6---6---6---|
C|-5---5---5---5---8---8---8---8---|-8---8---8---8---8---8---8---8---|-3---3---3---3---3---3---3---3---|
G|-3---3---3---3---5---5---5---5---|-5---5---5---5---5---5---5---5---|-1---1---1---1---1---1---1---1---|
D|-----------------3---3---3---3---|-3---3---3---3---3---3---3---3---|---------------------------------|


D|---------------------------------|---------------------------------|---------------------------------|
A|---------------------------------|---------------------------------|---------------------------------|
F|-6---6---6---6-------------------|---------------------------------|-12--12--12--12--12--12--12--12--|
C|-3---3---3---3---6---6---6---6---|-6---6---6---6---6---6---6---6---|-9---9---9---9---9---9---9---9---|
G|-1---1---1---1---3---3---3---3---|-3---3---3---3---3---3---3---3---|-7---7---7---7---7---7---7---7---|
D|-----------------1---1---1---1---|-1---1---1---1---1---1---1---1---|---------------------------------|


D|---------------------------------|---------------------------------|---------------------------------|
A|---------------------------------|---------------------------------|---------------------------------|
F|-12--12--12--12------------------|---------------------------------|-10--10--10--10--10--10--10--10--|
C|-9---9---9---9---12--12--12--12--|-12--12--12--12--12--12--12--12--|-7---7---7---7---7---7---7---7---|
G|-7---7---7---7---9---9---9---9---|-9---9---9---9---9---9---9---9---|-5---5---5---5---5---5---5---5---|
D|-----------------7---7---7---7---|-7---7---7---7---7---7---7---7---|---------------------------------|


D|---------------------------------|---------------------------------|---------------------------------|
A|---------------------------------|---------------------------------|---------------------------------|
F|-10--10--10--10------------------|---------------------------------|-8---8---8---8---8---8---8---8---|
C|-7---7---7---7---10--10--10--10--|-10--10--10--10--10--10--10--10--|-5---5---5---5---5---5---5---5---|
G|-5---5---5---5---7---7---7---7---|-7---7---7---7---7---7---7---7---|-3---3---3---3---3---3---3---3---|
D|-----------------5---5---5---5---|-5---5---5---5---5---5---5---5---|---------------------------------|


D|---------------------------------|---------------------------------|---------------------------------|
A|---------------------------------|---------------------------------|---------------------------------|
F|-8---8---8---8-------------------|---------------------------------|-6---6---6---6---6---6---6---6---|
C|-5---5---5---5---8---8---8---8---|-8---8---8---8---8---8---8---8---|-3---3---3---3---3---3---3---3---|
G|-3---3---3---3---5---5---5---5---|-5---5---5---5---5---5---5---5---|-1---1---1---1---1---1---1---1---|
D|-----------------3---3---3---3---|-3---3---3---3---3---3---3---3---|---------------------------------|


D|---------------------------------|---------------------------------|--------|-------------|
A|---------------------------------|---------------------------------|--------|-------------|
F|-6---6---6---6-------------------|---------------------------------|-9------|-------7-----|
C|-3---3---3---3---6---6---6---6---|-6---6---6---6---6---6---6---6---|-9------|-------7-----|
G|-1---1---1---1---3---3---3---3---|-3---3---3---3---3---3---3---3---|-7------|-------5-----|
D|-----------------1---1---1---1---|-1---1---1---1---1---1---1---1---|-7------|-------5-----|


D|--------|--------|-------------|--------|--------|-------------|--------|--------|
A|--------|--------|-------------|--------|--------|-------------|--------|--------|
F|--------|-12-----|-------14----|--------|-9------|-------7-----|--------|-12-----|
C|--------|-12-----|-------14----|--------|-9------|-------7-----|--------|-12-----|
G|--------|-10-----|-------12----|--------|-7------|-------5-----|--------|-10-----|
D|--------|-10-----|-------12----|--------|-7------|-------5-----|--------|-10-----|


D|-------------|--------|-------------|-------------|------------------------|-------------|
A|-------------|--------|-------------|-------------|------------------------|-------------|
F|-------14----|--------|-9------7----|-------------|------------------------|-9------7----|
C|-------14----|--------|-9------7----|-------10----|------7-----------------|-9------7----|
G|-------12----|--------|-7------5----|-------10----|------7-----7---7---7---|-7------5----|
D|-------12----|--------|-------------|-------8-----|------5-----5---5---5---|-------------|


D|-------------|------------------------|-------------|-------------|------------------------|
A|-------------|------------------------|-------------|-------------|------------------------|
F|-------------|------------------------|-9------7----|-------------|------------------------|
C|-------10----|------7-----------------|-9------7----|-------10----|------7-----------------|
G|-------10----|------7-----7---7---7---|-7------5----|-------10----|------7-----7---7---7---|
D|-------8-----|------5-----5---5---5---|-------------|-------8-----|------5-----5---5---5---|


D|------------------|---------------------------|---------------------|--------|-------------|
A|------------------|---------------------------|---------------------|--------|-------------|
F|-4-----4-----4----|-----4-----------------9---|-----7---9-----9-----|-9------|-------4-----|
C|-4-----4-----4----|-----4-----------------9---|-----7---9-----9-----|-9------|-------4-----|
G|-2-----2-----2----|-----2-----2---2---2---7---|-----5---7-----7-----|-7------|-------2-----|
D|------------------|-----------0---0---0-------|---------------------|-7------|-------2-----|


D|-------------|--------|-------------|-------------|--------|-------------|-------------|
A|-------------|--------|-------------|-------------|--------|-------------|-------------|
F|------7------|-9------|-------4-----|------7------|-9------|-------4-----|------7------|
C|------7------|-9------|-------4-----|------7------|-9------|-------4-----|------7------|
G|------5------|-7------|-------2-----|------5------|-7------|-------2-----|------5------|
D|------5------|-7------|-------2-----|------5------|-7------|-------2-----|------5------|


D|--------|-------------|-------------|--------|-------------|---------------------|
A|--------|-------------|-------------|--------|-------------|---------------------|
F|-9------|-------4-----|------7------|--------|-------------|---------------------|
C|-9------|-------4-----|------7------|-5------|-------------|-4---5---4-----7-----|
G|-7------|-------2-----|------5------|--------|-------5-----|---------------------|
D|-7------|-------2-----|------5------|--------|-------------|---------------------|


D|--------|-------------|---------------------|--------|-------------|---------------------|
A|--------|-------------|---------------------|--------|-------------|---------------------|
F|--------|-------------|---------------------|--------|-------------|---------------------|
C|-5------|-------------|-4---5---4-----7-----|-5------|-------------|-4---5---4-----7-----|
G|--------|-------5-----|---------------------|--------|-------5-----|---------------------|
D|--------|-------------|---------------------|--------|-------------|---------------------|


D|--------|-------------|---------------------|--------|-------------|---------------------|
A|--------|-------------|---------------------|--------|-------------|---------------------|
F|--------|-------------|---------------------|--------|-------------|---------------------|
C|-5------|-------------|-4---5---4-----7-----|-5------|-------------|-4---5---4-----7-----|
G|--------|-------5-----|---------------------|--------|-------5-----|---------------------|
D|--------|-------------|---------------------|--------|-------------|---------------------|


D|--------|-------------|---------------------|--------|-------------|---------------------|
A|--------|-------------|---------------------|--------|-------------|---------------------|
F|--------|-------------|---------------------|--------|-------------|---------------------|
C|-5------|-------------|-4---5---4-----7-----|-5------|-------------|-4---5---4-----7-----|
G|--------|-------5-----|---------------------|--------|-------5-----|---------------------|
D|--------|-------------|---------------------|--------|-------------|---------------------|


D|--------|-------------|---------------------|--------|-------------|
A|--------|-------------|---------------------|-8------|-------8-----|
F|--------|-------------|---------------------|--------|-------------|
C|-5------|-------------|-4---5---4-----7-----|-5------|-------5-----|
G|--------|-------5-----|---------------------|--------|-------------|
D|--------|-------------|---------------------|--------|-------------|





Track 2: Rythm 2

D|--------|-------------|-------------|--------|-------------|-------------|--------|
A|--------|-------------|-------------|--------|-------------|-------------|--------|
F|--------|-------------|-------------|--------|-------------|-------------|--------|
C|--------|-------------|-------------|--------|-------------|-------------|--------|
G|-7------|-------------|------5------|-7------|-------------|------5------|-7------|
D|--------|-------7-----|-------------|--------|-------7-----|-------------|--------|


D|-------------|-------------|--------|-------------|-------------|--------|-------------|
A|-------------|-------------|--------|-------------|-------------|--------|-------------|
F|-------------|-------------|--------|-------------|-------------|--------|-------------|
C|-------------|-------------|--------|-------------|-------------|--------|-------------|
G|-------------|------5------|-7------|-------------|------5------|-7------|-------------|
D|-------7-----|-------------|--------|-------7-----|-------------|--------|-------7-----|


D|-------------|--------|-------------|-------------|--------|-------------|-------------|
A|-------------|--------|-------------|-------------|--------|-------------|-------------|
F|-------------|--------|-------------|-------------|--------|-------------|-------------|
C|-------------|--------|-------------|-------------|--------|-------------|-------------|
G|------5------|-7------|-------------|------5------|-7------|-------------|------5------|
D|-------------|--------|-------7-----|-------------|--------|-------7-----|-------------|


D|--------|-------------|-------------|--------|--------|--------|--------|--------|
A|--------|-------------|-------------|--------|--------|--------|--------|--------|
F|--------|-------------|-------------|--------|--------|--------|--------|--------|
C|--------|-------------|-------------|--------|--------|--------|--------|--------|
G|-7------|-------------|------5------|--------|--------|--------|--------|--------|
D|--------|-------7-----|-------------|--------|--------|--------|--------|--------|


D|--------|--------|--------|--------|--------|--------|--------|--------|--------|
A|--------|--------|--------|--------|--------|--------|--------|--------|--------|
F|--------|--------|--------|--------|--------|--------|--------|--------|--------|
C|--------|--------|--------|--------|--------|--------|--------|--------|--------|
G|--------|--------|--------|--------|--------|--------|--------|--------|--------|
D|--------|--------|--------|--------|--------|--------|--------|--------|--------|


D|--------|--------|--------|--------|--------|--------|--------|--------|--------|
A|--------|--------|--------|--------|--------|--------|--------|--------|--------|
F|--------|--------|--------|--------|--------|--------|--------|--------|--------|
C|--------|--------|--------|--------|--------|--------|--------|--------|--------|
G|--------|--------|--------|--------|--------|--------|--------|--------|--------|
D|--------|--------|--------|--------|--------|--------|--------|--------|--------|


D|--------|--------|--------|--------|--------|--------|--------|--------|--------|
A|--------|--------|--------|--------|--------|--------|--------|--------|--------|
F|--------|--------|--------|--------|--------|--------|--------|--------|--------|
C|--------|--------|--------|--------|--------|--------|--------|--------|--------|
G|--------|--------|--------|--------|--------|--------|--------|--------|--------|
D|--------|--------|--------|--------|--------|--------|--------|--------|--------|


D|--------|--------|--------|--------|--------|--------|--------|--------|--------|
A|--------|--------|--------|--------|--------|--------|--------|--------|--------|
F|--------|--------|--------|--------|--------|--------|--------|--------|--------|
C|--------|--------|--------|--------|--------|--------|--------|--------|--------|
G|--------|--------|--------|--------|--------|--------|--------|--------|--------|
D|--------|--------|--------|--------|--------|--------|--------|--------|--------|


D|--------|--------|--------|--------|--------|--------|--------|--------|--------|
A|--------|--------|--------|--------|--------|--------|--------|--------|--------|
F|--------|--------|--------|--------|--------|--------|--------|--------|--------|
C|--------|--------|--------|--------|--------|--------|--------|--------|--------|
G|--------|--------|--------|--------|--------|--------|--------|--------|--------|
D|--------|--------|--------|--------|--------|--------|--------|--------|--------|


D|--------|--------|--------|--------|--------|--------|--------|--------|--------|
A|--------|--------|--------|--------|--------|--------|--------|--------|--------|
F|--------|--------|--------|--------|--------|--------|--------|--------|--------|
C|--------|--------|--------|--------|--------|--------|--------|--------|--------|
G|--------|--------|--------|--------|--------|--------|--------|--------|--------|
D|--------|--------|--------|--------|--------|--------|--------|--------|--------|


D|--------|--------|--------|--------|--------|--------|--------|--------|--------|
A|--------|--------|--------|--------|--------|--------|--------|--------|--------|
F|--------|--------|--------|--------|--------|--------|--------|--------|--------|
C|--------|--------|--------|--------|--------|--------|--------|--------|--------|
G|--------|--------|--------|--------|--------|--------|--------|--------|--------|
D|--------|--------|--------|--------|--------|--------|--------|--------|--------|


D|--------|--------|--------|--------|--------|--------|--------|--------|--------|
A|--------|--------|--------|--------|--------|--------|--------|--------|--------|
F|--------|--------|--------|--------|--------|--------|--------|--------|--------|
C|--------|--------|--------|--------|--------|--------|--------|--------|--------|
G|--------|--------|--------|--------|--------|--------|--------|--------|--------|
D|--------|--------|--------|--------|--------|--------|--------|--------|--------|


D|--------|--------|--------|--------|--------|--------|--------|--------|--------|
A|--------|--------|--------|--------|--------|--------|--------|--------|--------|
F|--------|--------|--------|--------|--------|--------|--------|--------|--------|
C|--------|--------|--------|--------|--------|--------|--------|--------|--------|
G|--------|--------|--------|--------|--------|--------|--------|--------|--------|
D|--------|--------|--------|--------|--------|--------|--------|--------|--------|


D|--------|--------|--------|--------|--------|--------|--------|--------|--------|
A|--------|--------|--------|--------|--------|--------|--------|--------|--------|
F|--------|--------|--------|--------|--------|--------|--------|--------|--------|
C|--------|--------|--------|--------|--------|--------|--------|--------|--------|
G|--------|--------|--------|--------|--------|--------|--------|--------|--------|
D|--------|--------|--------|--------|--------|--------|--------|--------|--------|


D|--------|--------|--------|--------|--------|--------|--------|--------|--------|
A|--------|--------|--------|--------|--------|--------|--------|--------|--------|
F|--------|--------|--------|--------|--------|--------|--------|--------|--------|
C|--------|--------|--------|--------|--------|--------|--------|--------|--------|
G|--------|--------|--------|--------|--------|--------|--------|--------|--------|
D|--------|--------|--------|--------|--------|--------|--------|--------|--------|


D|--------|--------|--------|--------|--------|--------|--------|--------|--------|
A|--------|--------|--------|--------|--------|--------|--------|--------|--------|
F|--------|--------|--------|--------|--------|--------|--------|--------|--------|
C|--------|--------|--------|--------|--------|--------|--------|--------|--------|
G|--------|--------|--------|--------|--------|--------|--------|--------|--------|
D|--------|--------|--------|--------|--------|--------|--------|--------|--------|


D|--------|--------|--------|--------|--------|--------|--------|--------|--------|
A|--------|--------|--------|--------|--------|--------|--------|--------|--------|
F|--------|--------|--------|--------|--------|--------|--------|--------|--------|
C|--------|--------|--------|--------|--------|--------|--------|--------|--------|
G|--------|--------|--------|--------|--------|--------|--------|--------|--------|
D|--------|--------|--------|--------|--------|--------|--------|--------|--------|


D|--------|--------|--------|--------|--------|--------|--------|--------|--------|
A|--------|--------|--------|--------|--------|--------|--------|--------|--------|
F|--------|--------|--------|--------|--------|--------|--------|--------|--------|
C|--------|--------|--------|--------|--------|--------|--------|--------|--------|
G|--------|--------|--------|--------|--------|--------|--------|--------|--------|
D|--------|--------|--------|--------|--------|--------|--------|--------|--------|


D|--------|--------|--------|--------|--------|--------|--------|--------|--------|
A|--------|--------|--------|--------|--------|--------|--------|--------|--------|
F|--------|--------|--------|--------|--------|--------|--------|--------|--------|
C|--------|--------|--------|--------|--------|--------|--------|--------|--------|
G|--------|--------|--------|--------|--------|--------|--------|--------|--------|
D|--------|--------|--------|--------|--------|--------|--------|--------|--------|


D|--------|--------|--------|--------|--------|--------|--------|--------|--------|
A|--------|--------|--------|--------|--------|--------|--------|--------|--------|
F|--------|--------|--------|--------|--------|--------|--------|--------|--------|
C|--------|--------|--------|--------|--------|--------|--------|--------|--------|
G|--------|--------|--------|--------|--------|--------|--------|--------|--------|
D|--------|--------|--------|--------|--------|--------|--------|--------|--------|


D|--------|--------|-------------|-------------|--------|-------------|-------------|
A|--------|--------|-------------|-------------|--------|-------------|-------------|
F|--------|--------|-------------|-------------|--------|-------------|-------------|
C|--------|--------|-------------|-------------|--------|-------------|-------------|
G|--------|-7------|-------------|------5------|-7------|-------------|------5------|
D|--------|--------|-------7-----|-------------|--------|-------7-----|-------------|


D|--------|-------------|-------------|--------|-------------|-------------|--------|
A|--------|-------------|-------------|--------|-------------|-------------|--------|
F|--------|-------------|-------------|--------|-------------|-------------|--------|
C|--------|-------------|-------------|--------|-------------|-------------|--------|
G|-7------|-------------|------5------|-7------|-------------|------5------|-7------|
D|--------|-------7-----|-------------|--------|-------7-----|-------------|--------|


D|-------------|----------------|--------|-------------|----------------|--------|
A|-------------|----------------|--------|-------------|----------------|--------|
F|-------------|----------------|--------|-------------|----------------|--------|
C|-------------|----------------|--------|-------------|----------------|--------|
G|-------------|-5---7---5------|-7------|-------------|-5---7---5------|-7------|
D|-------7-----|----------------|--------|-------7-----|----------------|--------|


D|-------------|----------------|--------|-------------|----------------|--------|
A|-------------|----------------|--------|-------------|----------------|--------|
F|-------------|----------------|--------|-------------|----------------|-9------|
C|-------------|----------------|--------|-------------|----------------|--------|
G|-------------|-5---7---5------|-7------|-------------|-5---7---5------|-7------|
D|-------7-----|----------------|--------|-------7-----|----------------|--------|


D|-------------|
A|-------------|
F|-------9-----|
C|-------------|
G|-------7-----|
D|-------------|





Track 3: lead

D|------------------------|---------------------|-------------------------|------------------------|
A|------------------------|---------------------|-------------------------|------------------------|
F|-----------9---8---9----|-----12----11---11---|-11--12--11--------------|-----------9---8---9----|
C|------------------------|---------------------|-------------12----9-----|------------------------|
G|-7----7-----------------|---------------------|-------------------------|-7----7-----------------|
D|------------------------|---------------------|-------------------------|------------------------|


D|---------------------|---------------------|------------------------|---------------------|
A|---------------------|---------------------|------------------------|---------------------|
F|-----12----11---11---|-----12--16----14----|-----------9---8---9----|-----12----11---11---|
C|---------------------|---------------------|------------------------|---------------------|
G|---------------------|---------------------|-7----7-----------------|---------------------|
D|---------------------|---------------------|------------------------|---------------------|


D|-------------------------|------------------------|---------------------|---------------------|
A|-------------------------|------------------------|---------------------|---------------------|
F|-11--12--11--------------|-----------9---8---9----|-----12----11---11---|-----12--16----14----|
C|-------------12----9-----|------------------------|---------------------|---------------------|
G|-------------------------|-7----7-----------------|---------------------|---------------------|
D|-------------------------|------------------------|---------------------|---------------------|


D|------------------------|---------------------|-------------------------|------------------------|
A|------------------------|---------------------|-------------------------|------------------------|
F|-----------9---8---9----|-----12----11---11---|-11--12--11--------------|-----------9---8---9----|
C|------------------------|---------------------|-------------12----9-----|------------------------|
G|-7----7-----------------|---------------------|-------------------------|-7----7-----------------|
D|------------------------|---------------------|-------------------------|------------------------|


D|---------------------|---------------------|------------------------|---------------------|
A|---------------------|---------------------|------------------------|---------------------|
F|-----12----11---11---|-----12--16----14----|-----------9---8---9----|-----12----11---11---|
C|---------------------|---------------------|------------------------|---------------------|
G|---------------------|---------------------|-7----7-----------------|---------------------|
D|---------------------|---------------------|------------------------|---------------------|


D|-------------------------|------------------------|---------------------|---------------------|
A|-------------------------|------------------------|---------------------|---------------------|
F|-11--12--11--------------|-----------9---8---9----|-----12----11---11---|-----12--16----14----|
C|-------------12----9-----|------------------------|---------------------|---------------------|
G|-------------------------|-7----7-----------------|---------------------|---------------------|
D|-------------------------|------------------------|---------------------|---------------------|


D|--------|-------------|--------|--------|-------------|-----------------|---------------------------------|
A|--------|-------------|--------|--------|-------------|-----------------|---------------------------------|
F|-9------|-------9-----|--------|--------|-------------|------9----------|---------------------------------|
C|--------|-------------|--------|--------|-------------|-----------------|-------------9---8---7---8---7---|
G|-7------|-------7-----|--------|--------|-------------|-----------------|-7---8---7-----------------------|
D|--------|-------------|--------|--------|-------------|-----------------|---------------------------------|


D|---------------------------------|---------------------------------|---------------------------------|
A|---------------------------------|---------------------------------|---------------------------------|
F|---------------------------------|---------------------------------|---------------------------------|
C|-----7-----------------------9---|-8---7---8---7-------7-----------|-------------9---8---7---8---7---|
G|-10------10--8---7---8---7-------|-----------------10------10--8---|-7---8---7-----------------------|
D|---------------------------------|---------------------------------|---------------------------------|


D|---------------------------------|---------------------------------|---------------------------------|
A|---------------------------------|---------------------------------|---------------------------------|
F|---------------------------------|---------------------------------|---------------------------------|
C|-----7-----------------------9---|-8---7---8---7-------7-----------|-------------13--12--11--12--11--|
G|-10------10--8---7---8---7-------|-----------------10------10--8---|-10--12--10----------------------|
D|---------------------------------|---------------------------------|---------------------------------|


D|---------------------------------|---------------------------------|---------------------------------|
A|---------------------------------|---------------------------------|---------------------------------|
F|---------------------------------|---------------------------------|---------------------------------|
C|-----11----------------------13--|-12--11--12--11------11----------|-------------13--12--11--12--11--|
G|-13------13--12--10--12--10------|-----------------13------13--12--|-10--12--10----------------------|
D|---------------------------------|---------------------------------|---------------------------------|


D|---------------------------------|---------------------------------|---------------------------------|
A|---------------------------------|---------------------------------|---------------------------------|
F|---------------------------------|---------------------------------|---------------------------------|
C|-----11----------------------13--|-12--11--12--11------11----------|-------------9---8---7---8---7---|
G|-13------13--12--10--12--10------|-----------------13------13--12--|-7---8---7-----------------------|
D|---------------------------------|---------------------------------|---------------------------------|


D|---------------------------------|---------------------------------|---------------------------------|
A|---------------------------------|---------------------------------|---------------------------------|
F|---------------------------------|---------------------------------|---------------------------------|
C|-----7-----------------------9---|-8---7---8---7-------7-----------|-------------9---8---7---8---7---|
G|-10------10--8---7---8---7-------|-----------------10------10--8---|-7---8---7-----------------------|
D|---------------------------------|---------------------------------|---------------------------------|


D|---------------------------------|---------------------------------|---------------------------------|
A|---------------------------------|---------------------------------|---------------------------------|
F|---------------------------------|---------------------------------|---------------------------------|
C|-----7-----------------------9---|-8---7---8---7-------7-----------|-------------13--12--11--12--11--|
G|-10------10--8---7---8---7-------|-----------------10------10--8---|-10--12--10----------------------|
D|---------------------------------|---------------------------------|---------------------------------|


D|---------------------------------|---------------------------------|---------------------------------|
A|---------------------------------|---------------------------------|---------------------------------|
F|---------------------------------|---------------------------------|---------------------------------|
C|-----11----------------------13--|-12--11--12--11------11----------|-------------13--12--11--12--11--|
G|-13------13--12--10--12--10------|-----------------13------13--12--|-10--12--10----------------------|
D|---------------------------------|---------------------------------|---------------------------------|


D|---------------------------------|---------------------------------|------------------------|
A|---------------------------------|---------------------------------|------------------------|
F|---------------------------------|---------------------------------|-----------9---8---9----|
C|-----11----------------------13--|-12--11--12--11------11----------|------------------------|
G|-13------13--12--10--12--10------|-----------------13------13--12--|-7----7-----------------|
D|---------------------------------|---------------------------------|------------------------|


D|---------------------|-------------------------|------------------------|---------------------|
A|---------------------|-------------------------|------------------------|---------------------|
F|-----12----11---11---|-11--12--11--------------|-----------9---8---9----|-----12----11---11---|
C|---------------------|-------------12----9-----|------------------------|---------------------|
G|---------------------|-------------------------|-7----7-----------------|---------------------|
D|---------------------|-------------------------|------------------------|---------------------|


D|---------------------|------------------------|---------------------|-------------------------|
A|---------------------|------------------------|---------------------|-------------------------|
F|-----12--16----14----|-----------9---8---9----|-----12----11---11---|-11--12--11--------------|
C|---------------------|------------------------|---------------------|-------------12----9-----|
G|---------------------|-7----7-----------------|---------------------|-------------------------|
D|---------------------|------------------------|---------------------|-------------------------|


D|------------------------|---------------------|---------------------|---------------------------------|
A|------------------------|---------------------|---------------------|---------------------------------|
F|-----------9---8---9----|-----12----11---11---|-----12--16----14----|---------------------------------|
C|------------------------|---------------------|---------------------|-------------9---8---7---8---7---|
G|-7----7-----------------|---------------------|---------------------|-7---8---7-----------------------|
D|------------------------|---------------------|---------------------|---------------------------------|


D|---------------------------------|---------------------------------|---------------------------------|
A|---------------------------------|---------------------------------|---------------------------------|
F|---------------------------------|---------------------------------|---------------------------------|
C|-----7-----------------------9---|-8---7---8---7-------7-----------|-------------9---8---7---8---7---|
G|-10------10--8---7---8---7-------|-----------------10------10--8---|-7---8---7-----------------------|
D|---------------------------------|---------------------------------|---------------------------------|


D|---------------------------------|---------------------------------|---------------------------------|
A|---------------------------------|---------------------------------|---------------------------------|
F|---------------------------------|---------------------------------|---------------------------------|
C|-----7-----------------------9---|-8---7---8---7-------7-----------|-------------13--12--11--12--11--|
G|-10------10--8---7---8---7-------|-----------------10------10--8---|-10--12--10----------------------|
D|---------------------------------|---------------------------------|---------------------------------|


D|---------------------------------|---------------------------------|---------------------------------|
A|---------------------------------|---------------------------------|---------------------------------|
F|---------------------------------|---------------------------------|---------------------------------|
C|-----11----------------------13--|-12--11--12--11------11----------|-------------13--12--11--12--11--|
G|-13------13--12--10--12--10------|-----------------13------13--12--|-10--12--10----------------------|
D|---------------------------------|---------------------------------|---------------------------------|


D|---------------------------------|---------------------------------|---------------------------------|
A|---------------------------------|---------------------------------|---------------------------------|
F|---------------------------------|---------------------------------|---------------------------------|
C|-----11----------------------13--|-12--11--12--11------11----------|-------------9---8---7---8---7---|
G|-13------13--12--10--12--10------|-----------------13------13--12--|-7---8---7-----------------------|
D|---------------------------------|---------------------------------|---------------------------------|


D|---------------------------------|---------------------------------|---------------------------------|
A|---------------------------------|---------------------------------|---------------------------------|
F|---------------------------------|---------------------------------|---------------------------------|
C|-----7-----------------------9---|-8---7---8---7-------7-----------|-------------9---8---7---8---7---|
G|-10------10--8---7---8---7-------|-----------------10------10--8---|-7---8---7-----------------------|
D|---------------------------------|---------------------------------|---------------------------------|


D|---------------------------------|---------------------------------|---------------------------------|
A|---------------------------------|---------------------------------|---------------------------------|
F|---------------------------------|---------------------------------|---------------------------------|
C|-----7-----------------------9---|-8---7---8---7-------7-----------|-------------13--12--11--12--11--|
G|-10------10--8---7---8---7-------|-----------------10------10--8---|-10--12--10----------------------|
D|---------------------------------|---------------------------------|---------------------------------|


D|---------------------------------|---------------------------------|---------------------------------|
A|---------------------------------|---------------------------------|---------------------------------|
F|---------------------------------|---------------------------------|---------------------------------|
C|-----11----------------------13--|-12--11--12--11------11----------|-------------13--12--11--12--11--|
G|-13------13--12--10--12--10------|-----------------13------13--12--|-10--12--10----------------------|
D|---------------------------------|---------------------------------|---------------------------------|


D|---------------------------------|---------------------------------|-------------19------------------|
A|---------------------------------|---------------------------------|-17--19--20------20--19--17--19--|
F|---------------------------------|---------------------------------|---------------------------------|
C|-----11----------------------13--|-12--11--12--11------11----------|---------------------------------|
G|-13------13--12--10--12--10------|-----------------13------13--12--|---------------------------------|
D|---------------------------------|---------------------------------|---------------------------------|


D|-----19----------------------14--|---------------------14----------|-------------17------------------|
A|-20------20--17--12--14--15------|-15--14--12--14--15------15--12--|-15--17--18------18--17--15--17--|
F|---------------------------------|---------------------------------|---------------------------------|
C|---------------------------------|---------------------------------|---------------------------------|
G|---------------------------------|---------------------------------|---------------------------------|
D|---------------------------------|---------------------------------|---------------------------------|


D|-----17----------------------12--|---------------------12----------|-------------19------------------|
A|-18------18--17--10--12--13------|-13--12--10--12--13------13--12--|-17--19--20------20--19--17--19--|
F|---------------------------------|---------------------------------|---------------------------------|
C|---------------------------------|---------------------------------|---------------------------------|
G|---------------------------------|---------------------------------|---------------------------------|
D|---------------------------------|---------------------------------|---------------------------------|


D|-----19----------------------14--|---------------------14----------|-------------17------------------|
A|-20------20--17--12--14--15------|-15--14--12--14--15------15--12--|-15--17--18------18--17--15--17--|
F|---------------------------------|---------------------------------|---------------------------------|
C|---------------------------------|---------------------------------|---------------------------------|
G|---------------------------------|---------------------------------|---------------------------------|
D|---------------------------------|---------------------------------|---------------------------------|


D|-----17----------------------12--|---------------------12----------|-------------19------------------|
A|-18------18--17--10--12--13------|-13--12--10--12--13------13--12--|-17--19--20------20--19--17--19--|
F|---------------------------------|---------------------------------|---------------------------------|
C|---------------------------------|---------------------------------|---------------------------------|
G|---------------------------------|---------------------------------|---------------------------------|
D|---------------------------------|---------------------------------|---------------------------------|


D|-----19----------------------14--|---------------------14----------|-------------17------------------|
A|-20------20--17--12--14--15------|-15--14--12--14--15------15--12--|-15--17--18------18--17--15--17--|
F|---------------------------------|---------------------------------|---------------------------------|
C|---------------------------------|---------------------------------|---------------------------------|
G|---------------------------------|---------------------------------|---------------------------------|
D|---------------------------------|---------------------------------|---------------------------------|


D|-----17----------------------12--|---------------------12----------|-------------19------------------|
A|-18------18--17--10--12--13------|-13--12--10--12--13------13--12--|-17--19--20------20--19--17--19--|
F|---------------------------------|---------------------------------|---------------------------------|
C|---------------------------------|---------------------------------|---------------------------------|
G|---------------------------------|---------------------------------|---------------------------------|
D|---------------------------------|---------------------------------|---------------------------------|


D|-----19----------------------14--|---------------------14----------|-------------17------------------|
A|-20------20--17--12--14--15------|-15--14--12--14--15------15--12--|-15--17--18------18--17--15--17--|
F|---------------------------------|---------------------------------|---------------------------------|
C|---------------------------------|---------------------------------|---------------------------------|
G|---------------------------------|---------------------------------|---------------------------------|
D|---------------------------------|---------------------------------|---------------------------------|


D|-----17----------------------12--|---------------------12----------|-------------19------------------|
A|-18------18--17--10--12--13------|-13--12--10--12--13------13--12--|-17--19--20------20--19--17--19--|
F|---------------------------------|---------------------------------|---------------------------------|
C|---------------------------------|---------------------------------|---------------------------------|
G|---------------------------------|---------------------------------|---------------------------------|
D|---------------------------------|---------------------------------|---------------------------------|


D|-----19----------------------14--|---------------------14----------|-------------17------------------|
A|-20------20--17--12--14--15------|-15--14--12--14--15------15--12--|-15--17--18------18--17--15--17--|
F|---------------------------------|---------------------------------|---------------------------------|
C|---------------------------------|---------------------------------|---------------------------------|
G|---------------------------------|---------------------------------|---------------------------------|
D|---------------------------------|---------------------------------|---------------------------------|


D|-----17----------------------12--|---------------------12----------|-------------15------------------|
A|-18------18--17--10--12--13------|-13--12--10--12--13------13--12--|-13--15--16------16--15--13--15--|
F|---------------------------------|---------------------------------|---------------------------------|
C|---------------------------------|---------------------------------|---------------------------------|
G|---------------------------------|---------------------------------|---------------------------------|
D|---------------------------------|---------------------------------|---------------------------------|


D|-----15----------------------10--|---------------------10----------|-------------13------------------|
A|-16------16--15--8---10--11------|-11--10--8---10--11------11--10--|-11--13--14------14--13--11--13--|
F|---------------------------------|---------------------------------|---------------------------------|
C|---------------------------------|---------------------------------|---------------------------------|
G|---------------------------------|---------------------------------|---------------------------------|
D|---------------------------------|---------------------------------|---------------------------------|


D|-----13----------------------8---|---------------------8-----------|-------------19------------------|
A|-14------14--13--6---8---9-------|-9---8---6---8---9-------9---8---|-17--19--20------20--19--17--19--|
F|---------------------------------|---------------------------------|---------------------------------|
C|---------------------------------|---------------------------------|---------------------------------|
G|---------------------------------|---------------------------------|---------------------------------|
D|---------------------------------|---------------------------------|---------------------------------|


D|-----19----------------------14--|---------------------14----------|-------------17------------------|
A|-20------20--17--12--14--15------|-15--14--12--14--15------15--12--|-15--17--18------18--17--15--17--|
F|---------------------------------|---------------------------------|---------------------------------|
C|---------------------------------|---------------------------------|---------------------------------|
G|---------------------------------|---------------------------------|---------------------------------|
D|---------------------------------|---------------------------------|---------------------------------|


D|-----17----------------------12--|---------------------12----------|-------------15------------------|
A|-18------18--17--10--12--13------|-13--12--10--12--13------13--12--|-13--15--16------16--15--13--15--|
F|---------------------------------|---------------------------------|---------------------------------|
C|---------------------------------|---------------------------------|---------------------------------|
G|---------------------------------|---------------------------------|---------------------------------|
D|---------------------------------|---------------------------------|---------------------------------|


D|-----15----------------------10--|---------------------10----------|-------------13------------------|
A|-16------16--15--8---10--11------|-11--10--8---10--11------11--10--|-11--13--14------14--13--11--13--|
F|---------------------------------|---------------------------------|---------------------------------|
C|---------------------------------|---------------------------------|---------------------------------|
G|---------------------------------|---------------------------------|---------------------------------|
D|---------------------------------|---------------------------------|---------------------------------|


D|-----13----------------------8---|---------------------8-----------|-------------19----------20--17--|
A|-14------14--13--6---8---9-------|-9---8---6---8---9-------9---8---|-17--19--20------20--19----------|
F|---------------------------------|---------------------------------|---------------------------------|
C|---------------------------------|---------------------------------|---------------------------------|
G|---------------------------------|---------------------------------|---------------------------------|
D|---------------------------------|---------------------------------|---------------------------------|


D|-----17----------------|---------------------|------------------------|-----------20-19-17------17--|
A|-19------19--16--17----|-16--17--19----------|-20---20---19--20--20---|---------------------20------|
F|-----------------------|---------------16----|------------------------|-----17----------------------|
C|-----------------------|---------------------|------------------------|-----------------------------|
G|-----------------------|---------------------|------------------------|-----------------------------|
D|-----------------------|---------------------|------------------------|-----------------------------|


D|----------------|------------------------------|------------------------------|-----------------------|
A|-20--19--17-----|-16--17--19------16--17--19---|------16--17--19--20--19--17--|-16--19--16----16--17--|
F|----------------|-------------17---------------|------------------------------|-----------------------|
C|----------------|------------------------------|------------------------------|-----------------------|
G|----------------|------------------------------|------------------------------|-----------------------|
D|----------------|------------------------------|------------------------------|-----------------------|


D|---------17--19--20--19--17--19---|------17--19--20--19--17------|----------------|
A|-19--20---------------------------|--------------------------20--|-19--16--17-----|
F|----------------------------------|------------------------------|----------------|
C|----------------------------------|------------------------------|----------------|
G|----------------------------------|------------------------------|----------------|
D|----------------------------------|------------------------------|----------------|


D|-----20--19--17------17--------------19--17-|---15------15--------------17--15--14------14|
A|-17--------------20------20--19--16---------|-------19------19--17--13--------------17----|
F|--------------------------------------------|---------------------------------------------|
C|--------------------------------------------|---------------------------------------------|
G|--------------------------------------------|---------------------------------------------|
D|--------------------------------------------|---------------------------------------------|


D|--------------------------------|-----20--19--17------17--------------19--17-|---15------15--------------17--15--14------14|
A|----17--16--13---13-16-13-12----|-17--------------20------20--19--16---------|-------19------19--17--13--------------17----|
F|--------------------------------|--------------------------------------------|---------------------------------------------|
C|--------------------------------|--------------------------------------------|---------------------------------------------|
G|--------------------------------|--------------------------------------------|---------------------------------------------|
D|--------------------------------|--------------------------------------------|---------------------------------------------|


D|--------------------------------|-----20--19--17------17--------------19--17-|---15------15--------------17--15--14------14|
A|----17--16--13---13-16-13-12----|-17--------------20------20--19--16---------|-------19------19--17--13--------------17----|
F|--------------------------------|--------------------------------------------|---------------------------------------------|
C|--------------------------------|--------------------------------------------|---------------------------------------------|
G|--------------------------------|--------------------------------------------|---------------------------------------------|
D|--------------------------------|--------------------------------------------|---------------------------------------------|


D|--------------------------------|----------------------------------------------|
A|----17--16--13---13-16-13-12----|-12-13-12------12-----------------------------|
F|--------------------------------|-----------14------14--12--11------11---------|
C|--------------------------------|-------------------------------14------14--13-|
G|--------------------------------|----------------------------------------------|
D|--------------------------------|----------------------------------------------|


D|-----------------------------|--------|------------------------|---------------------|
A|-----------------------------|--------|------------------------|---------------------|
F|-----------------------------|--------|-----------9---8---9----|-----12----11---11---|
C|-------------------13--14----|--------|------------------------|---------------------|
G|---15--14--12--15------------|--------|-7----7-----------------|---------------------|
D|-----------------------------|--------|------------------------|---------------------|


D|-------------------------|------------------------|---------------------|---------------------|
A|-------------------------|------------------------|---------------------|---------------------|
F|-11--12--11--------------|-----------9---8---9----|-----12----11---11---|-----12--16----14----|
C|-------------12----9-----|------------------------|---------------------|---------------------|
G|-------------------------|-7----7-----------------|---------------------|---------------------|
D|-------------------------|------------------------|---------------------|---------------------|


D|------------------------|---------------------|-------------------------|------------------------|
A|------------------------|---------------------|-------------------------|------------------------|
F|-----------9---8---9----|-----12----11---11---|-11--12--11--------------|-----------9---8---9----|
C|------------------------|---------------------|-------------12----9-----|------------------------|
G|-7----7-----------------|---------------------|-------------------------|-7----7-----------------|
D|------------------------|---------------------|-------------------------|------------------------|


D|---------------------|---------------------|------------------------|---------------------|
A|---------------------|---------------------|------------------------|---------------------|
F|-----12----11---11---|-----12--16----14----|-----------9---8---9----|-----12----11---11---|
C|---------------------|---------------------|------------------------|---------------------|
G|---------------------|---------------------|-7----7-----------------|---------------------|
D|---------------------|---------------------|------------------------|---------------------|


D|-------------------------|------------------------|---------------------|---------------------|
A|-------------------------|------------------------|---------------------|---------------------|
F|-11--12--11--------------|-----------9---8---9----|-----12----11---11---|-----12--16----14----|
C|-------------12----9-----|------------------------|---------------------|---------------------|
G|-------------------------|-7----7-----------------|---------------------|---------------------|
D|-------------------------|------------------------|---------------------|---------------------|


D|------------------------|---------------------|-------------------------|------------------------|
A|------------------------|---------------------|-------------------------|------------------------|
F|-----------9---8---9----|-----12----11---11---|-11--12--11--------------|-----------9---8---9----|
C|------------------------|---------------------|-------------12----9-----|------------------------|
G|-7----7-----------------|---------------------|-------------------------|-7----7-----------------|
D|------------------------|---------------------|-------------------------|------------------------|


D|---------------------|---------------------|--------|--------|--------|--------|
A|---------------------|---------------------|--------|--------|--------|--------|
F|-----12----11---11---|-----12--16----14----|--------|--------|--------|--------|
C|---------------------|---------------------|--------|--------|--------|--------|
G|---------------------|---------------------|--------|--------|--------|--------|
D|---------------------|---------------------|--------|--------|--------|--------|


D|--------|--------|--------|--------|--------|--------|--------|--------|--------|
A|--------|--------|--------|--------|--------|--------|--------|--------|--------|
F|--------|--------|--------|--------|--------|--------|--------|--------|--------|
C|--------|--------|--------|--------|--------|--------|--------|--------|--------|
G|--------|--------|--------|--------|--------|--------|--------|--------|--------|
D|--------|--------|--------|--------|--------|--------|--------|--------|--------|


D|--------|
A|--------|
F|--------|
C|--------|
G|--------|
D|--------|





Track 4: Bass

F|--------|-------------|-------------|--------|-------------|-------------|--------|
C|--------|-------------|-------------|--------|-------------|-------------|--------|
G|--------|-------------|-------------|--------|-------------|-------------|--------|
D|-0------|-------------|-------------|-0------|-------------|-------------|-0------|
A|--------|-------0-----|------3------|--------|-------0-----|------3------|--------|


F|-------------|-------------|--------|-------------|-------------|--------|-------------|
C|-------------|-------------|--------|-------------|-------------|--------|-------------|
G|-------------|-------------|--------|-------------|-------------|--------|-------------|
D|-------------|-------------|-0------|-------------|-------------|-0------|-------------|
A|-------0-----|------3------|--------|-------0-----|------3------|--------|-------0-----|


F|-------------|--------|-------------|-------------|--------|-------------|-------------|
C|-------------|--------|-------------|-------------|--------|-------------|-------------|
G|-------------|--------|-------------|-------------|--------|-------------|-------------|
D|-------------|-0------|-------------|-------------|-0------|-------------|-------------|
A|------3------|--------|-------0-----|------3------|--------|-------0-----|------3------|


F|--------|-------------|-------------|---------------------------------|---------------------------------|
C|--------|-------------|-------------|---------------------------------|---------------------------------|
G|--------|-------------|-------------|---------------------------------|---------------------------------|
D|-0------|-------------|-------------|-0---0---0---0-------0---0-------|-0-------0---0---0---0---0---0---|
A|--------|-------0-----|------3------|---------------------------------|---------------------------------|


F|---------------------------------|---------------------------------|---------------------------------|
C|---------------------------------|---------------------------------|---------------------------------|
G|---------------------------------|---------------------------------|---------------------------------|
D|-----0---0-------0-------0---0---|-0---0---0---0-------0---0-------|-0-------0---0---0---0---0---0---|
A|---------------------------------|---------------------------------|---------------------------------|


F|-----------------------|---------------------------------|---------------------------------|
C|-----------------------|---------------------------------|---------------------------------|
G|-----------------------|---------------------------------|---------------------------------|
D|-----0---0-------------|-0---0---0---0-------0---0-------|-0-------0---0---0---0---0---0---|
A|-----------------------|---------------------------------|---------------------------------|


F|---------------------------------|---------------------------------|---------------------------------|
C|---------------------------------|---------------------------------|---------------------------------|
G|---------------------------------|---------------------------------|---------------------------------|
D|-----0---0-------0-------0---0---|-0---0---0---0-------0---0-------|-0-------0---0---0---0---0---0---|
A|---------------------------------|---------------------------------|---------------------------------|


F|---------------------------------|---------------------------------|---------------------------------|
C|---------------------------------|---------------------------------|---------------------------------|
G|---------------------------------|---------------------------------|---------------------------------|
D|-----0---0-------0-------0---0---|-3---3---3---3-------3---3-------|-3-------3---3---3---3---3---3---|
A|---------------------------------|---------------------------------|---------------------------------|


F|---------------------------------|---------------------------------|---------------------------------|
C|---------------------------------|---------------------------------|---------------------------------|
G|---------------------------------|---------------------------------|---------------------------------|
D|-----3---3-------3-------3---3---|-3---3---3---3-------3---3-------|-3-------3---3---3---3---3---3---|
A|---------------------------------|---------------------------------|---------------------------------|


F|---------------------------------|---------------------------------|---------------------------------|
C|---------------------------------|---------------------------------|---------------------------------|
G|---------------------------------|---------------------------------|---------------------------------|
D|-----3---3-------3-------3---3---|-0---0---0---0-------0---0-------|-0-------0---0---0---0---0---0---|
A|---------------------------------|---------------------------------|---------------------------------|


F|---------------------------------|---------------------------------|---------------------------------|
C|---------------------------------|---------------------------------|---------------------------------|
G|---------------------------------|---------------------------------|---------------------------------|
D|-----0---0-------0-------0---0---|-0---0---0---0-------0---0-------|-0-------0---0---0---0---0---0---|
A|---------------------------------|---------------------------------|---------------------------------|


F|---------------------------------|---------------------------------|---------------------------------|
C|---------------------------------|---------------------------------|---------------------------------|
G|---------------------------------|---------------------------------|---------------------------------|
D|-----0---0-------0-------0---0---|-3---3---3---3-------3---3-------|-3-------3---3---3---3---3---3---|
A|---------------------------------|---------------------------------|---------------------------------|


F|---------------------------------|---------------------------------|---------------------------------|
C|---------------------------------|---------------------------------|---------------------------------|
G|---------------------------------|---------------------------------|---------------------------------|
D|-----3---3-------3-------3---3---|-3---3---3---3-------3---3-------|-3-------3---3---3---3---3---3---|
A|---------------------------------|---------------------------------|---------------------------------|


F|---------------------------------|---------------------|-----------------|---------------------|
C|---------------------------------|---------------------|-----------------|---------------------|
G|---------------------------------|------------6---7----|-----------------|---------------------|
D|-----3---3-------3-------3---3---|-0-----0-------------|-----------------|---------------5-----|
A|---------------------------------|---------------------|-------0-----0---|-----1---3-----------|


F|---------------------|-----------------|---------------------|---------------------|
C|---------------------|-----------------|---------------------|---------------------|
G|------------6---7----|-----------------|---------------------|------------6---7----|
D|-0-----0-------------|-----------------|---------------5-----|-0-----0-------------|
A|---------------------|-------0-----0---|-----1---3-----------|---------------------|


F|-----------------|---------------------|---------------------|-----------------|
C|-----------------|---------------------|---------------------|-----------------|
G|-----------------|---------------------|------------6---7----|-----------------|
D|-----------------|---------------5-----|-0-----0-------------|-----------------|
A|-------0-----0---|-----1---3-----------|---------------------|-------0-----0---|


F|---------------------|---------------------------------|---------------------------------|
C|---------------------|---------------------------------|---------------------------------|
G|---------------------|---------------------------------|---------------------------------|
D|---------------5-----|-0---0---0---0-------0---0-------|-0-------0---0---0---0---0---0---|
A|-----1---3-----------|---------------------------------|---------------------------------|


F|---------------------------------|---------------------------------|---------------------------------|
C|---------------------------------|---------------------------------|---------------------------------|
G|---------------------------------|---------------------------------|---------------------------------|
D|-----0---0-------0-------0---0---|-0---0---0---0-------0---0-------|-0-------0---0---0---0---0---0---|
A|---------------------------------|---------------------------------|---------------------------------|


F|---------------------------------|---------------------------------|---------------------------------|
C|---------------------------------|---------------------------------|---------------------------------|
G|---------------------------------|---------------------------------|---------------------------------|
D|-----0---0-------0-------0---0---|-3---3---3---3-------3---3-------|-3-------3---3---3---3---3---3---|
A|---------------------------------|---------------------------------|---------------------------------|


F|---------------------------------|---------------------------------|---------------------------------|
C|---------------------------------|---------------------------------|---------------------------------|
G|---------------------------------|---------------------------------|---------------------------------|
D|-----3---3-------3-------3---3---|-3---3---3---3-------3---3-------|-3-------3---3---3---3---3---3---|
A|---------------------------------|---------------------------------|---------------------------------|


F|---------------------------------|---------------------------------|---------------------------------|
C|---------------------------------|---------------------------------|---------------------------------|
G|---------------------------------|---------------------------------|---------------------------------|
D|-----3---3-------3-------3---3---|-0---0---0---0-------0---0-------|-0-------0---0---0---0---0---0---|
A|---------------------------------|---------------------------------|---------------------------------|


F|---------------------------------|---------------------------------|---------------------------------|
C|---------------------------------|---------------------------------|---------------------------------|
G|---------------------------------|---------------------------------|---------------------------------|
D|-----0---0-------0-------0---0---|-0---0---0---0-------0---0-------|-0-------0---0---0---0---0---0---|
A|---------------------------------|---------------------------------|---------------------------------|


F|---------------------------------|---------------------------------|---------------------------------|
C|---------------------------------|---------------------------------|---------------------------------|
G|---------------------------------|---------------------------------|---------------------------------|
D|-----0---0-------0-------0---0---|-3---3---3---3-------3---3-------|-3-------3---3---3---3---3---3---|
A|---------------------------------|---------------------------------|---------------------------------|


F|---------------------------------|---------------------------------|---------------------------------|
C|---------------------------------|---------------------------------|---------------------------------|
G|---------------------------------|---------------------------------|---------------------------------|
D|-----3---3-------3-------3---3---|-3---3---3---3-------3---3-------|-3-------3---3---3---3---3---3---|
A|---------------------------------|---------------------------------|---------------------------------|


F|---------------------------------|---------------------------------|---------------------------------|
C|---------------------------------|---------------------------------|---------------------------------|
G|---------------------------------|---------------------------------|---------------------------------|
D|-----3---3-------3-------3---3---|-0---0---0---0-------0---0-------|-0-------0---0-------------------|
A|---------------------------------|---------------------------------|-----------------0---0---0---0---|


F|---------------------------------|---------------------------------|---------------------------------|
C|---------------------------------|---------------------------------|---------------------------------|
G|---------------------------------|---------------------------------|---------------------------------|
D|---------------------------------|---------------------------------|-----------------5---5---5---5---|
A|-----0---0-------0-------0---0---|-3---3---3---3-------3---3-------|-3-------3---3-------------------|


F|---------------------------------|---------------------------------|---------------------------------|
C|---------------------------------|---------------------------------|---------------------------------|
G|---------------------------------|---------------------------------|---------------------------------|
D|-----5---5-------5-------5---5---|-0---0---0---0-------0---0-------|-0-------0---0-------------------|
A|---------------------------------|---------------------------------|-----------------0---0---0---0---|


F|---------------------------------|---------------------------------|---------------------------------|
C|---------------------------------|---------------------------------|---------------------------------|
G|---------------------------------|---------------------------------|---------------------------------|
D|---------------------------------|---------------------------------|-----------------5---5---5---5---|
A|-----0---0-------0-------0---0---|-3---3---3---3-------3---3-------|-3-------3---3-------------------|


F|---------------------------------|---------------------------------|---------------------------------|
C|---------------------------------|---------------------------------|---------------------------------|
G|---------------------------------|---------------------------------|---------------------------------|
D|-----5---5-------5-------5---5---|-0---0---0---0-------0---0-------|-0-------0---0-------------------|
A|---------------------------------|---------------------------------|-----------------0---0---0---0---|


F|---------------------------------|---------------------------------|---------------------------------|
C|---------------------------------|---------------------------------|---------------------------------|
G|---------------------------------|---------------------------------|---------------------------------|
D|---------------------------------|---------------------------------|-----------------5---5---5---5---|
A|-----0---0-------0-------0---0---|-3---3---3---3-------3---3-------|-3-------3---3-------------------|


F|---------------------------------|---------------------------------|---------------------------------|
C|---------------------------------|---------------------------------|---------------------------------|
G|---------------------------------|---------------------------------|---------------------------------|
D|-----5---5-------5-------5---5---|-0---0---0---0-------0---0-------|-0-------0---0-------------------|
A|---------------------------------|---------------------------------|-----------------0---0---0---0---|


F|---------------------------------|---------------------------------|---------------------------------|
C|---------------------------------|---------------------------------|---------------------------------|
G|---------------------------------|---------------------------------|---------------------------------|
D|---------------------------------|---------------------------------|-----------------5---5---5---5---|
A|-----0---0-------0-------0---0---|-3---3---3---3-------3---3-------|-3-------3---3-------------------|


F|---------------------------------|---------------------------------|---------------------------------|
C|---------------------------------|---------------------------------|---------------------------------|
G|---------------------------------|-------------2-------------------|-----2---------------------------|
D|-----5---5-------5-------5---5---|-0---0---0-------0---0---0---0---|-0-------0---0---------------2---|
A|---------------------------------|---------------------------------|-----------------0---0---0-------|


F|---------------------------------|---------------------------------|---------------------------------|
C|---------------------------------|---------------------------------|---------------------------------|
G|---------------------------------|---------------------------------|-----------------------------7---|
D|---------------------2-----------|-------------5-------------------|-----5-----------5---5---5-------|
A|-0---0---0---0---0-------0---0---|-3---3---3-------3---3---3---3---|-3-------3---3-------------------|


F|---------------------------------|---------------------------------|---------------------------------|
C|---------------------------------|---------------------------------|---------------------------------|
G|---------------------7-----------|---------------------------------|-----------------------------5---|
D|-5---5---5---5---5-------5---5---|-------------3-------------------|-----3-----------3---3---3-------|
A|---------------------------------|-1---1---1-------1---1---1---1---|-1-------1---1-------------------|


F|---------------------------------|---------------------------------|---------------------------------|
C|---------------------------------|---------------------------------|---------------------------------|
G|---------------------5-----------|-1---1---1-------1---1---1---1---|-1-------1---1---------------3---|
D|-3---3---3---3---3-------3---3---|-------------1-------------------|-----1-----------1---1---1-------|
A|---------------------------------|---------------------------------|---------------------------------|


F|---------------------------------|---------------------------------|---------------------------------|
C|---------------------------------|---------------------------------|---------------------------------|
G|---------------------3-----------|-------------2-------------------|-----2---------------------------|
D|-1---1---1---1---1-------1---1---|-0---0---0-------0---0---0---0---|-0-------0---0---------------2---|
A|---------------------------------|---------------------------------|-----------------0---0---0-------|


F|---------------------------------|---------------------------------|---------------------------------|
C|---------------------------------|---------------------------------|---------------------------------|
G|---------------------------------|---------------------------------|-----------------------------7---|
D|---------------------2-----------|-------------5-------------------|-----5-----------5---5---5-------|
A|-0---0---0---0---0-------0---0---|-3---3---3-------3---3---3---3---|-3-------3---3-------------------|


F|---------------------------------|---------------------------------|---------------------------------|
C|---------------------------------|---------------------------------|---------------------------------|
G|---------------------7-----------|---------------------------------|-----------------------------5---|
D|-5---5---5---5---5-------5---5---|-------------3-------------------|-----3-----------3---3---3-------|
A|---------------------------------|-1---1---1-------1---1---1---1---|-1-------1---1-------------------|


F|---------------------------------|---------------------------------|---------------------------------|
C|---------------------------------|---------------------------------|---------------------------------|
G|---------------------5-----------|-1---1---1-------1---1---1---1---|-1-------1---1---------------3---|
D|-3---3---3---3---3-------3---3---|-------------1-------------------|-----1-----------1---1---1-------|
A|---------------------------------|---------------------------------|---------------------------------|


F|---------------------------------|--------|-------------|--------|--------|-------------|
C|---------------------------------|--------|-------------|--------|--------|-------------|
G|---------------------3-----------|--------|-------------|--------|--------|-------------|
D|-1---1---1---1---1-------1---1---|-0------|-------------|--------|-3------|-------5-----|
A|---------------------------------|--------|-------3-----|--------|--------|-------------|


F|--------|--------|-------------|--------|--------|-------------|--------|-------------|
C|--------|--------|-------------|--------|--------|-------------|--------|-------------|
G|--------|--------|-------------|--------|--------|-------------|--------|-------------|
D|--------|-0------|-------------|--------|-3------|-------5-----|--------|-0-----------|
A|--------|--------|-------3-----|--------|--------|-------------|--------|--------3----|


F|-------------|------------------------|-------------|-------------|------------------------|
C|-------------|------------------------|-------------|-------------|------------------------|
G|-------------|------------------------|-------------|-------------|------------------------|
D|-------------|------5-----5---5---5---|-0-----------|-------------|------5-----5---5---5---|
A|-------1-----|------------------------|--------3----|-------1-----|------------------------|


F|-------------|-------------|------------------------|------------------|---------------------------|
C|-------------|-------------|------------------------|------------------|---------------------------|
G|-------------|-------------|------------------------|------------------|-----------------------7---|
D|-0-----------|-------------|------5-----5---5---5---|-------2----------|-----2-----0---0---0-------|
A|--------3----|-------1-----|------------------------|-0-----------0----|---------------------------|


F|---------------------|---------------------|-----------------|---------------------|
C|---------------------|---------------------|-----------------|---------------------|
G|-----5---7-----------|------------6---7----|-----------------|---------------------|
D|---------------------|-0-----0-------------|-----------------|---------------5-----|
A|---------------------|---------------------|-------0-----0---|-----1---3-----------|


F|---------------------|-----------------|---------------------|---------------------|
C|---------------------|-----------------|---------------------|---------------------|
G|------------6---7----|-----------------|---------------------|------------6---7----|
D|-0-----0-------------|-----------------|---------------5-----|-0-----0-------------|
A|---------------------|-------0-----0---|-----1---3-----------|---------------------|


F|-----------------|---------------------|---------------------|-----------------|
C|-----------------|---------------------|---------------------|-----------------|
G|-----------------|---------------------|------------6---7----|-----------------|
D|-----------------|---------------5-----|-0-----0-------------|-----------------|
A|-------0-----0---|-----1---3-----------|---------------------|-------0-----0---|


F|---------------------|--------|-------------|-------------|--------|-------------|
C|---------------------|--------|-------------|-------------|--------|-------------|
G|---------------------|--------|-------------|-------------|--------|-------------|
D|---------------5-----|-0------|-------------|-------------|-0------|-------------|
A|-----1---3-----------|--------|-------0-----|------3------|--------|-------0-----|


F|-------------|--------|-------------|-------------|--------|-------------|-------------|
C|-------------|--------|-------------|-------------|--------|-------------|-------------|
G|-------------|--------|-------------|-------------|--------|-------------|-------------|
D|-------------|-0------|-------------|-------------|-0------|-------------|-------------|
A|------3------|--------|-------0-----|------3------|--------|-------0-----|------3------|


F|--------|-------------|--------|--------|-------------|--------|--------|-------------|
C|--------|-------------|--------|--------|-------------|--------|--------|-------------|
G|--------|-------------|--------|--------|-------------|--------|--------|-------------|
D|--------|-------------|--------|--------|-------------|--------|--------|-------------|
A|--------|-------------|--------|--------|-------------|--------|--------|-------------|


F|--------|--------|-------------|--------|--------|-------------|
C|--------|--------|-------------|--------|--------|-------------|
G|--------|--------|-------------|--------|-7------|-------7-----|
D|--------|--------|-------------|--------|-0------|-------0-----|
A|--------|--------|-------------|--------|-5------|-------5-----|





Track 5: Synth

D|-7------|-------2-----|------2------|-7------|-------2-----|------2------|-7------|
A|-8------|-------3-----|------3------|-8------|-------3-----|------3------|-8------|
F|-9------|-------4-----|------2------|-9------|-------4-----|------2------|-9------|
C|-9------|-------4-----|------4------|-9------|-------4-----|------4------|-9------|
G|-7------|-------2-----|------0------|-7------|-------2-----|------0------|-7------|
D|--------|-------------|-------------|--------|-------------|-------------|--------|


D|-------2-----|------2------|-7------|-------2-----|------2------|-7------|-------2-----|
A|-------3-----|------3------|-8------|-------3-----|------3------|-8------|-------3-----|
F|-------4-----|------2------|-9------|-------4-----|------2------|-9------|-------4-----|
C|-------4-----|------4------|-9------|-------4-----|------4------|-9------|-------4-----|
G|-------2-----|------0------|-7------|-------2-----|------0------|-7------|-------2-----|
D|-------------|-------------|--------|-------------|-------------|--------|-------------|


D|------2------|-7------|-------2-----|------2------|-7------|-------2-----|------2------|
A|------3------|-8------|-------3-----|------3------|-8------|-------3-----|------3------|
F|------2------|-9------|-------4-----|------2------|-9------|-------4-----|------2------|
C|------4------|-9------|-------4-----|------4------|-9------|-------4-----|------4------|
G|------0------|-7------|-------2-----|------0------|-7------|-------2-----|------0------|
D|-------------|--------|-------------|-------------|--------|-------------|-------------|


D|-7------|-------2-----|------2------|--------|-------------|--------|--------|-------------|
A|-8------|-------3-----|------3------|--------|-------------|--------|--------|-------------|
F|-9------|-------4-----|------2------|--------|-------------|--------|--------|-------------|
C|-9------|-------4-----|------4------|--------|-------------|--------|--------|-------------|
G|-7------|-------2-----|------0------|--------|-------------|--------|--------|-------------|
D|--------|-------------|-------------|--------|-------------|--------|--------|-------------|


D|------24---------|-19----------19---|-----------19--------|------19----------|-19----------19---|
A|-----------------|-20----------20---|-----------20--------|------20----------|-20----------20---|
F|------21---------|-------21---------|-----21----------21--|------------21----|-------21---------|
C|-----------------|-------21---------|-----21----------21--|------------21----|-------21---------|
G|-----------------|-7----------------|-----------7---------|------------------|-7----------------|
D|-----------------|-0----------------|-----------0---------|------------------|-0----------------|


D|-----------19--------|------19----------|-22----------22---|-----------22--------|
A|-----------20--------|------20----------|-23----------23---|-----------23--------|
F|-----21----------21--|------------21----|-------24---------|-----24----------24--|
C|-----21----------21--|------------21----|-------24---------|-----24----------24--|
G|-----------7---------|------------------|-7----------------|-----------7---------|
D|-----------0---------|------------------|-3----------------|-----------3---------|


D|------22----------|-22----------22---|-----------22--------|------22----------|-19----------19---|
A|------23----------|-23----------23---|-----------23--------|------23----------|-20----------20---|
F|------------24----|-------24---------|-----24----------24--|------------24----|-------21---------|
C|------------24----|-------24---------|-----24----------24--|------------24----|-------21---------|
G|------------------|-7----------------|-----------7---------|------------------|-7----------------|
D|------------------|-3----------------|-----------3---------|------------------|-0----------------|


D|-----------19--------|------19----------|-19----------19---|-----------19--------|
A|-----------20--------|------20----------|-20----------20---|-----------20--------|
F|-----21----------21--|------------21----|-------21---------|-----21----------21--|
C|-----21----------21--|------------21----|-------21---------|-----21----------21--|
G|-----------7---------|------------------|-7----------------|-----------7---------|
D|-----------0---------|------------------|-0----------------|-----------0---------|


D|------19----------|-22----------22---|-----------22--------|------22----------|-22----------22---|
A|------20----------|-23----------23---|-----------23--------|------23----------|-23----------23---|
F|------------21----|-------24---------|-----24----------24--|------------24----|-------24---------|
C|------------21----|-------24---------|-----24----------24--|------------24----|-------24---------|
G|------------------|-7----------------|-----------7---------|------------------|-7----------------|
D|------------------|-3----------------|-----------3---------|------------------|-3----------------|


D|-----------22--------|------22----------|-7------|-------2-----|------2------|-7------|
A|-----------23--------|------23----------|-8------|-------3-----|------3------|-8------|
F|-----24----------24--|------------24----|-9------|-------4-----|------2------|-9------|
C|-----24----------24--|------------24----|-9------|-------4-----|------4------|-9------|
G|-----------7---------|------------------|-7------|-------2-----|------0------|-7------|
D|-----------3---------|------------------|--------|-------------|-------------|--------|


D|-------2-----|------2------|-7------|-------2-----|------2------|-7------|-------2-----|
A|-------3-----|------3------|-8------|-------3-----|------3------|-8------|-------3-----|
F|-------4-----|------2------|-9------|-------4-----|------2------|-9------|-------4-----|
C|-------4-----|------4------|-9------|-------4-----|------4------|-9------|-------4-----|
G|-------2-----|------0------|-7------|-------2-----|------0------|-7------|-------2-----|
D|-------------|-------------|--------|-------------|-------------|--------|-------------|


D|------2------|-19----------19---|-----------19--------|------19----------|-19----------19---|
A|------3------|-20----------20---|-----------20--------|------20----------|-20----------20---|
F|------2------|-------21---------|-----21----------21--|------------21----|-------21---------|
C|------4------|-------21---------|-----21----------21--|------------21----|-------21---------|
G|------0------|-7----------------|-----------7---------|------------------|-7----------------|
D|-------------|-0----------------|-----------0---------|------------------|-0----------------|


D|-----------19--------|------19----------|-22----------22---|-----------22--------|
A|-----------20--------|------20----------|-23----------23---|-----------23--------|
F|-----21----------21--|------------21----|-------24---------|-----24----------24--|
C|-----21----------21--|------------21----|-------24---------|-----24----------24--|
G|-----------7---------|------------------|-7----------------|-----------7---------|
D|-----------0---------|------------------|-3----------------|-----------3---------|


D|------22----------|-22----------22---|-----------22--------|------22----------|-19----------19---|
A|------23----------|-23----------23---|-----------23--------|------23----------|-20----------20---|
F|------------24----|-------24---------|-----24----------24--|------------24----|-------21---------|
C|------------24----|-------24---------|-----24----------24--|------------24----|-------21---------|
G|------------------|-7----------------|-----------7---------|------------------|-7----------------|
D|------------------|-3----------------|-----------3---------|------------------|-0----------------|


D|-----------19--------|------19----------|-19----------19---|-----------19--------|
A|-----------20--------|------20----------|-20----------20---|-----------20--------|
F|-----21----------21--|------------21----|-------21---------|-----21----------21--|
C|-----21----------21--|------------21----|-------21---------|-----21----------21--|
G|-----------7---------|------------------|-7----------------|-----------7---------|
D|-----------0---------|------------------|-0----------------|-----------0---------|


D|------19----------|-22----------22---|-----------22--------|------22----------|-22----------22---|
A|------20----------|-23----------23---|-----------23--------|------23----------|-23----------23---|
F|------------21----|-------24---------|-----24----------24--|------------24----|-------24---------|
C|------------21----|-------24---------|-----24----------24--|------------24----|-------24---------|
G|------------------|-7----------------|-----------7---------|------------------|-7----------------|
D|------------------|-3----------------|-----------3---------|------------------|-3----------------|


D|-----------22--------|------22----------|-7------|-------7-----|--------|-5------|
A|-----------23--------|------23----------|-8------|-------7-----|--------|-6------|
F|-----24----------24--|------------24----|-9------|-------7-----|--------|-7------|
C|-----24----------24--|------------24----|-9------|-------9-----|--------|-7------|
G|-----------7---------|------------------|-7------|-------9-----|--------|-5------|
D|-----------3---------|------------------|-0------|-------7-----|--------|-5------|


D|-------5-----|--------|-7------|-------7-----|--------|-5------|-------5-----|--------|
A|-------5-----|--------|-8------|-------7-----|--------|-6------|-------5-----|--------|
F|-------5-----|--------|-9------|-------7-----|--------|-7------|-------5-----|--------|
C|-------7-----|--------|-9------|-------9-----|--------|-7------|-------7-----|--------|
G|-------7-----|--------|-7------|-------9-----|--------|-5------|-------7-----|--------|
D|-------5-----|--------|-0------|-------7-----|--------|-5------|-------5-----|--------|


D|-7------|-------7-----|--------|-5------|-------5-----|--------|-7------|-------7-----|
A|-8------|-------7-----|--------|-6------|-------5-----|--------|-8------|-------7-----|
F|-9------|-------7-----|--------|-7------|-------5-----|--------|-9------|-------7-----|
C|-9------|-------9-----|--------|-7------|-------7-----|--------|-9------|-------9-----|
G|-7------|-------9-----|--------|-5------|-------7-----|--------|-7------|-------9-----|
D|-0------|-------7-----|--------|-5------|-------5-----|--------|-0------|-------7-----|


D|--------|-5------|-------5-----|--------|-19-----|-------19----|--------|-17-----|
A|--------|-6------|-------5-----|--------|-20-----|-------19----|--------|-18-----|
F|--------|-7------|-------5-----|--------|-21-----|-------19----|--------|-19-----|
C|--------|-7------|-------7-----|--------|-21-----|-------21----|--------|-19-----|
G|--------|-5------|-------7-----|--------|-19-----|-------21----|--------|-17-----|
D|--------|-5------|-------5-----|--------|-0------|-------19----|--------|-17-----|


D|-------17----|--------|-15-----|-------15----|--------|-13-----|-------13----|--------|
A|-------17----|--------|-16-----|-------15----|--------|-14-----|-------13----|--------|
F|-------17----|--------|-17-----|-------15----|--------|-15-----|-------13----|--------|
C|-------19----|--------|-17-----|-------17----|--------|-15-----|-------15----|--------|
G|-------19----|--------|-15-----|-------17----|--------|-3------|-------15----|--------|
D|-------17----|--------|-15-----|-------15----|--------|-3------|-------13----|--------|


D|-19-----|-------19----|--------|-17-----|-------17----|--------|-15-----|-------15----|
A|-20-----|-------19----|--------|-18-----|-------17----|--------|-16-----|-------15----|
F|-21-----|-------19----|--------|-19-----|-------17----|--------|-17-----|-------15----|
C|-21-----|-------21----|--------|-19-----|-------19----|--------|-17-----|-------17----|
G|-19-----|-------21----|--------|-17-----|-------19----|--------|-15-----|-------17----|
D|-0------|-------19----|--------|-17-----|-------17----|--------|-15-----|-------15----|


D|--------|-13-----|-------13----|--------|--------|--------|--------|--------|--------|
A|--------|-14-----|-------13----|--------|--------|--------|--------|--------|--------|
F|--------|-15-----|-------13----|--------|--------|--------|--------|--------|--------|
C|--------|-15-----|-------15----|--------|--------|--------|--------|--------|--------|
G|--------|-3------|-------15----|--------|--------|--------|--------|--------|--------|
D|--------|-3------|-------13----|--------|--------|--------|--------|--------|--------|


D|--------|--------|--------|--------|--------|--------|--------|--------|--------|
A|--------|--------|--------|--------|--------|--------|--------|--------|--------|
F|--------|--------|--------|--------|--------|--------|--------|--------|--------|
C|--------|--------|--------|--------|--------|--------|--------|--------|--------|
G|--------|--------|--------|--------|--------|--------|--------|--------|--------|
D|--------|--------|--------|--------|--------|--------|--------|--------|--------|


D|--------|--------|--------|--------|--------|--------|--------|--------|--------|
A|--------|--------|--------|--------|--------|--------|--------|--------|--------|
F|--------|--------|--------|--------|--------|--------|--------|--------|--------|
C|--------|--------|--------|--------|--------|--------|--------|--------|--------|
G|--------|--------|--------|--------|--------|--------|--------|--------|--------|
D|--------|--------|--------|--------|--------|--------|--------|--------|--------|


D|--------|-7------|-------2-----|------2------|-7------|-------2-----|------2------|
A|--------|-8------|-------3-----|------3------|-8------|-------3-----|------3------|
F|--------|-9------|-------4-----|------2------|-9------|-------4-----|------2------|
C|--------|-9------|-------4-----|------4------|-9------|-------4-----|------4------|
G|--------|-7------|-------2-----|------0------|-7------|-------2-----|------0------|
D|--------|--------|-------------|-------------|--------|-------------|-------------|


D|-7------|-------2-----|------2------|-7------|-------2-----|------2------|-7------|
A|-8------|-------3-----|------3------|-8------|-------3-----|------3------|-8------|
F|-9------|-------4-----|------2------|-9------|-------4-----|------2------|-9------|
C|-9------|-------4-----|------4------|-9------|-------4-----|------4------|-9------|
G|-7------|-------2-----|------0------|-7------|-------2-----|------0------|-7------|
D|--------|-------------|-------------|--------|-------------|-------------|--------|


D|-------2-----|------2------|-7------|-------2-----|------2------|-7------|-------2-----|
A|-------3-----|------3------|-8------|-------3-----|------3------|-8------|-------3-----|
F|-------4-----|------2------|-9------|-------4-----|------2------|-9------|-------4-----|
C|-------4-----|------4------|-9------|-------4-----|------4------|-9------|-------4-----|
G|-------2-----|------0------|-7------|-------2-----|------0------|-7------|-------2-----|
D|-------------|-------------|--------|-------------|-------------|--------|-------------|


D|------2------|-7------|-------2-----|------2------|-7------|-------2-----|--------|
A|------3------|-8------|-------3-----|------3------|-8------|-------3-----|--------|
F|------2------|-9------|-------4-----|------2------|-9------|-------4-----|--------|
C|------4------|-9------|-------4-----|------4------|-9------|-------4-----|--------|
G|------0------|-7------|-------2-----|------0------|-7------|-------2-----|--------|
D|-------------|--------|-------------|-------------|--------|-------------|--------|


D|-7------|-------2-----|--------|-7------|-------2-----|--------|-7------|-------2-----|
A|-8------|-------3-----|--------|-8------|-------3-----|--------|-8------|-------3-----|
F|-9------|-------4-----|--------|-9------|-------4-----|--------|-9------|-------4-----|
C|-9------|-------4-----|--------|-9------|-------4-----|--------|-9------|-------4-----|
G|-7------|-------2-----|--------|-7------|-------2-----|--------|-7------|-------2-----|
D|--------|-------------|--------|--------|-------------|--------|--------|-------------|


D|--------|-7------|-------7-----|
A|--------|-8------|-------8-----|
F|--------|-9------|-------9-----|
C|--------|-9------|-------9-----|
G|--------|-7------|-------7-----|
D|--------|--------|-------------|