Menu:

 

Search:

 

olav - watch out for me:

 



Title: Watch Out For Me
Artist: 
Album: 
Author: Sponge


Track 1: Acoustic Guitar

E|-------------0----------------|-------------1----1-----------|-------------1----1-----------|
B|-------------1----------------|-------------1--------1-------|---------3---3--------3-------|
G|---------2--------2-----------|-------------2------------2---|-----2-------2------------2---|
D|-----2----------------2-------|---------3--------------------|-0-----------0----------------|
A|-0------------------------0---|-----3------------------------|------------------------------|
E|------------------------------|-1----------------------------|------------------------------|


E|-------------0---0-----|-------------0----------------|-------------1----1-----------|
B|-------------0---0-----|-------------1----------------|-------------1--------1-------|
G|-------------1---1-----|---------2--------2-----------|-------------2------------2---|
D|---------2---2---2-----|-----2----------------2-------|---------3--------------------|
A|-----2-------2---2-----|-0------------------------0---|-----3------------------------|
E|-0-----------0---0-----|------------------------------|-1----------------------------|


E|-------------1----1-----------|-------------0---0-----|--------|--------|--------|
B|---------3---3--------3-------|-------------0---0-----|--------|--------|--------|
G|-----2-------2------------2---|-------------1---1-----|--------|--------|--------|
D|-0-----------0----------------|---------2---2---2-----|--------|--------|--------|
A|------------------------------|-----2-------2---2-----|--------|--------|--------|
E|------------------------------|-0-----------0---0-----|--------|--------|--------|


E|--------|--------|--------|--------|--------|--------|--------|--------|--------|
B|--------|--------|--------|--------|--------|--------|--------|--------|--------|
G|--------|--------|--------|--------|--------|--------|--------|--------|--------|
D|--------|--------|--------|--------|--------|--------|--------|--------|--------|
A|--------|--------|--------|--------|--------|--------|--------|--------|--------|
E|--------|--------|--------|--------|--------|--------|--------|--------|--------|


E|--------|--------|--------|--------|--------|--------|--------|--------|--------|
B|--------|--------|--------|--------|--------|--------|--------|--------|--------|
G|--------|--------|--------|--------|--------|--------|--------|--------|--------|
D|--------|--------|--------|--------|--------|--------|--------|--------|--------|
A|--------|--------|--------|--------|--------|--------|--------|--------|--------|
E|--------|--------|--------|--------|--------|--------|--------|--------|--------|


E|--------|--------|--------|--------|--------|--------|--------|--------|--------|
B|--------|--------|--------|--------|--------|--------|--------|--------|--------|
G|--------|--------|--------|--------|--------|--------|--------|--------|--------|
D|--------|--------|--------|--------|--------|--------|--------|--------|--------|
A|--------|--------|--------|--------|--------|--------|--------|--------|--------|
E|--------|--------|--------|--------|--------|--------|--------|--------|--------|


E|--------|--------|--------|--------|--------|--------|--------|--------|--------|
B|--------|--------|--------|--------|--------|--------|--------|--------|--------|
G|--------|--------|--------|--------|--------|--------|--------|--------|--------|
D|--------|--------|--------|--------|--------|--------|--------|--------|--------|
A|--------|--------|--------|--------|--------|--------|--------|--------|--------|
E|--------|--------|--------|--------|--------|--------|--------|--------|--------|


E|--------|--------|--------|--------|--------|--------|--------|--------|--------|
B|--------|--------|--------|--------|--------|--------|--------|--------|--------|
G|--------|--------|--------|--------|--------|--------|--------|--------|--------|
D|--------|--------|--------|--------|--------|--------|--------|--------|--------|
A|--------|--------|--------|--------|--------|--------|--------|--------|--------|
E|--------|--------|--------|--------|--------|--------|--------|--------|--------|


E|--------|--------|--------|--------|--------|--------|--------|--------|--------|
B|--------|--------|--------|--------|--------|--------|--------|--------|--------|
G|--------|--------|--------|--------|--------|--------|--------|--------|--------|
D|--------|--------|--------|--------|--------|--------|--------|--------|--------|
A|--------|--------|--------|--------|--------|--------|--------|--------|--------|
E|--------|--------|--------|--------|--------|--------|--------|--------|--------|


E|--------|--------|--------|--------|--------|--------|--------|--------|--------|
B|--------|--------|--------|--------|--------|--------|--------|--------|--------|
G|--------|--------|--------|--------|--------|--------|--------|--------|--------|
D|--------|--------|--------|--------|--------|--------|--------|--------|--------|
A|--------|--------|--------|--------|--------|--------|--------|--------|--------|
E|--------|--------|--------|--------|--------|--------|--------|--------|--------|


E|--------|--------|--------|--------|--------|--------|--------|--------|--------|
B|--------|--------|--------|--------|--------|--------|--------|--------|--------|
G|--------|--------|--------|--------|--------|--------|--------|--------|--------|
D|--------|--------|--------|--------|--------|--------|--------|--------|--------|
A|--------|--------|--------|--------|--------|--------|--------|--------|--------|
E|--------|--------|--------|--------|--------|--------|--------|--------|--------|


E|--------|--------|--------|--------|--------|--------|--------|--------|--------|
B|--------|--------|--------|--------|--------|--------|--------|--------|--------|
G|--------|--------|--------|--------|--------|--------|--------|--------|--------|
D|--------|--------|--------|--------|--------|--------|--------|--------|--------|
A|--------|--------|--------|--------|--------|--------|--------|--------|--------|
E|--------|--------|--------|--------|--------|--------|--------|--------|--------|


E|--------|--------|--------|--------|--------|--------|--------|--------|--------|
B|--------|--------|--------|--------|--------|--------|--------|--------|--------|
G|--------|--------|--------|--------|--------|--------|--------|--------|--------|
D|--------|--------|--------|--------|--------|--------|--------|--------|--------|
A|--------|--------|--------|--------|--------|--------|--------|--------|--------|
E|--------|--------|--------|--------|--------|--------|--------|--------|--------|


E|--------|--------|--------|--------|--------|--------|--------|--------|--------|
B|--------|--------|--------|--------|--------|--------|--------|--------|--------|
G|--------|--------|--------|--------|--------|--------|--------|--------|--------|
D|--------|--------|--------|--------|--------|--------|--------|--------|--------|
A|--------|--------|--------|--------|--------|--------|--------|--------|--------|
E|--------|--------|--------|--------|--------|--------|--------|--------|--------|


E|--------|--------|--------|--------|--------|--------|--------|--------|--------|
B|--------|--------|--------|--------|--------|--------|--------|--------|--------|
G|--------|--------|--------|--------|--------|--------|--------|--------|--------|
D|--------|--------|--------|--------|--------|--------|--------|--------|--------|
A|--------|--------|--------|--------|--------|--------|--------|--------|--------|
E|--------|--------|--------|--------|--------|--------|--------|--------|--------|


E|--------|--------|--------|--------|--------|--------|--------|--------|--------|
B|--------|--------|--------|--------|--------|--------|--------|--------|--------|
G|--------|--------|--------|--------|--------|--------|--------|--------|--------|
D|--------|--------|--------|--------|--------|--------|--------|--------|--------|
A|--------|--------|--------|--------|--------|--------|--------|--------|--------|
E|--------|--------|--------|--------|--------|--------|--------|--------|--------|


E|--------|--------|--------|--------|--------|--------|--------|--------|--------|
B|--------|--------|--------|--------|--------|--------|--------|--------|--------|
G|--------|--------|--------|--------|--------|--------|--------|--------|--------|
D|--------|--------|--------|--------|--------|--------|--------|--------|--------|
A|--------|--------|--------|--------|--------|--------|--------|--------|--------|
E|--------|--------|--------|--------|--------|--------|--------|--------|--------|


E|--------|--------|--------|--------|--------|--------|--------|--------|--------|
B|--------|--------|--------|--------|--------|--------|--------|--------|--------|
G|--------|--------|--------|--------|--------|--------|--------|--------|--------|
D|--------|--------|--------|--------|--------|--------|--------|--------|--------|
A|--------|--------|--------|--------|--------|--------|--------|--------|--------|
E|--------|--------|--------|--------|--------|--------|--------|--------|--------|


E|--------|--------|--------|--------|--------|--------|--------|--------|--------|
B|--------|--------|--------|--------|--------|--------|--------|--------|--------|
G|--------|--------|--------|--------|--------|--------|--------|--------|--------|
D|--------|--------|--------|--------|--------|--------|--------|--------|--------|
A|--------|--------|--------|--------|--------|--------|--------|--------|--------|
E|--------|--------|--------|--------|--------|--------|--------|--------|--------|


E|--------|--------|--------|--------|--------|--------|
B|--------|--------|--------|--------|--------|--------|
G|--------|--------|--------|--------|--------|--------|
D|--------|--------|--------|--------|--------|--------|
A|--------|--------|--------|--------|--------|--------|
E|--------|--------|--------|--------|--------|--------|





Track 2: Rhythm Guitar I

E|--------|--------|--------|--------|--------|--------|--------|--------|---------------------------------|
B|--------|--------|--------|--------|--------|--------|--------|--------|---------------------------------|
G|--------|--------|--------|--------|--------|--------|--------|--------|---------2-----------2-------2---|
D|--------|--------|--------|--------|--------|--------|--------|--------|---------2-----------2-------2---|
A|--------|--------|--------|--------|--------|--------|--------|--------|-0---0-------0---0-------0-------|
E|--------|--------|--------|--------|--------|--------|--------|--------|---------------------------------|


E|---------------------------------|---------------------------------|---------------------------------|
B|---------------------------------|---------------------------------|---------------------------------|
G|---------------------------------|---------2-----------2-------2---|---------1-----------1-------1---|
D|---------3-----------3-------3---|-0---0---0---0---0---0---0---0---|---------2-----------2-------2---|
A|---------3-----------3-------3---|-0---0-------0---0-------0-------|---------------------------------|
E|-1---1-------1---1-------1-------|---------------------------------|-0---0-------0---0-------0-------|


E|---------------------------------|---------------------------------|---------------------------------|
B|---------------------------------|---------------------------------|---------------------------------|
G|---------2-----------2-------2---|---------------------------------|---------2-----------2-------2---|
D|---------2-----------2-------2---|---------3-----------3-------3---|-0---0---0---0---0---0---0---0---|
A|-0---0-------0---0-------0-------|---------3-----------3-------3---|-0---0-------0---0-------0-------|
E|---------------------------------|-1---1-------1---1-------1-------|---------------------------------|


E|---------------------------------|---------------------------------|---------------------------------|
B|---------------------------------|---------------------------------|---------------------------------|
G|---------1-----------1-------1---|---------2-----------2-------2---|---------------------------------|
D|---------2-----------2-------2---|---------2-----------2-------2---|---------3-----------3-------3---|
A|---------------------------------|-0---0-------0---0-------0-------|---------3-----------3-------3---|
E|-0---0-------0---0-------0-------|---------------------------------|-1---1-------1---1-------1-------|


E|---------------------------------|---------------------------------|---------------------------------|
B|---------------------------------|---------------------------------|---------------------------------|
G|---------2-----------2-------2---|---------1-----------1-------1---|---------2-----------2-------2---|
D|-0---0---0---0---0---0---0---0---|---------2-----------2-------2---|---------2-----------2-------2---|
A|-0---0-------0---0-------0-------|---------------------------------|-0---0-------0---0-------0-------|
E|---------------------------------|-0---0-------0---0-------0-------|---------------------------------|


E|---------------------------------|---------------------------------|---------------------------------|
B|---------------------------------|---------------------------------|---------------------------------|
G|---------------------------------|---------2-----------2-------2---|---------1-----------1-------1---|
D|---------3-----------3-------3---|-0---0---0---0---0---0---0---0---|---------2-----------2-------2---|
A|---------3-----------3-------3---|-0---0-------0---0-------0-------|---------------------------------|
E|-1---1-------1---1-------1-------|---------------------------------|-0---0-------0---0-------0-------|


E|---------------------------------|---------------------------------|---------------------------------|
B|---------------------------------|---------------------------------|---------------------------------|
G|---------2-----------2-------2---|---------------------------------|---------2-----------2-------2---|
D|---------2-----------2-------2---|---------3-----------3-------3---|-0---0---0---0---0---0---0---0---|
A|-0---0-------0---0-------0-------|---------3-----------3-------3---|-0---0-------0---0-------0-------|
E|---------------------------------|-1---1-------1---1-------1-------|---------------------------------|


E|---------------------------------|---------------------------------|---------------------------------|
B|---------------------------------|---------------------------------|---------------------------------|
G|---------1-----------1-------1---|---------2-----------2-------2---|---------------------------------|
D|---------2-----------2-------2---|---------2-----------2-------2---|---------3-----------3-------3---|
A|---------------------------------|-0---0-------0---0-------0-------|---------3-----------3-------3---|
E|-0---0-------0---0-------0-------|---------------------------------|-1---1-------1---1-------1-------|


E|---------------------------------|---------------------------------|---------------------------------|
B|---------------------------------|---------------------------------|---------------------------------|
G|---------2-----------2-------2---|---------1-----------1-------1---|---------2-----------2-------2---|
D|-0---0---0---0---0---0---0---0---|---------2-----------2-------2---|---------2-----------2-------2---|
A|-0---0-------0---0-------0-------|---------------------------------|-0---0-------0---0-------0-------|
E|---------------------------------|-0---0-------0---0-------0-------|---------------------------------|


E|---------------------------------|---------------------------------|---------------------------------|
B|---------------------------------|---------------------------------|---------------------------------|
G|---------------------------------|---------2-----------2-------2---|---------1-----------1-------1---|
D|---------3-----------3-------3---|-0---0---0---0---0---0---0---0---|---------2-----------2-------2---|
A|---------3-----------3-------3---|-0---0-------0---0-------0-------|---------------------------------|
E|-1---1-------1---1-------1-------|---------------------------------|-0---0-------0---0-------0-------|


E|---------------------------------|---------------------------------|---------------------------------|
B|---------------------------------|---------------------------------|---------------------------------|
G|---------2-----------2-------2---|---------------------------------|---------2-----------2-------2---|
D|---------2-----------2-------2---|---------3-----------3-------3---|-0---0---0---0---0---0---0---0---|
A|-0---0-------0---0-------0-------|---------3-----------3-------3---|-0---0-------0---0-------0-------|
E|---------------------------------|-1---1-------1---1-------1-------|---------------------------------|


E|---------------------------------|--------|-----------------|--------|--------|--------|
B|---------------------------------|--------|-----------------|--------|--------|--------|
G|---------1-----------1-------1---|--------|-----------------|-2------|-2------|--------|
D|---------2-----------2-------2---|-3------|-5-----5----5----|-2------|-2------|-3------|
A|---------------------------------|-3------|-5-----5----5----|-0------|-0------|-3------|
E|-0---0-------0---0-------0-------|-1------|-3-----3----3----|--------|--------|-1------|


E|--------|--------------------|--------|--------|--------|--------|--------------------|
B|--------|--------------------|--------|--------|--------|--------|--------------------|
G|--------|-2-----2---2----2---|-2------|--------|--------|-2------|-2-----2---2----2---|
D|-5------|-2-----2---2----2---|-2------|-3------|-5------|-2------|-2-----2---2----2---|
A|-5------|-0-----0---0----0---|-0------|-3------|-5------|-0------|-0-----0---0----0---|
E|-3------|--------------------|--------|-1------|-3------|--------|--------------------|


E|--------|--------|--------|--------|---------------------------------|---------------------------------|
B|--------|--------|--------|--------|---------------------------------|---------------------------------|
G|--------|--------|--------|--------|---------2-----------2-------2---|---------------------------------|
D|-3------|-5------|-2------|-2------|---------2-----------2-------2---|---------3-----------3-------3---|
A|-3------|-5------|-2------|-2------|-0---0-------0---0-------0-------|---------3-----------3-------3---|
E|-1------|-3------|-0------|-0------|---------------------------------|-1---1-------1---1-------1-------|


E|---------------------------------|---------------------------------|---------------------------------|
B|---------------------------------|---------------------------------|---------------------------------|
G|---------2-----------2-------2---|---------1-----------1-------1---|---------2-----------2-------2---|
D|-0---0---0---0---0---0---0---0---|---------2-----------2-------2---|---------2-----------2-------2---|
A|-0---0-------0---0-------0-------|---------------------------------|-0---0-------0---0-------0-------|
E|---------------------------------|-0---0-------0---0-------0-------|---------------------------------|


E|---------------------------------|---------------------------------|---------------------------------|
B|---------------------------------|---------------------------------|---------------------------------|
G|---------------------------------|---------2-----------2-------2---|---------1-----------1-------1---|
D|---------3-----------3-------3---|-0---0---0---0---0---0---0---0---|---------2-----------2-------2---|
A|---------3-----------3-------3---|-0---0-------0---0-------0-------|---------------------------------|
E|-1---1-------1---1-------1-------|---------------------------------|-0---0-------0---0-------0-------|


E|---------------------------------|---------------------------------|---------------------------------|
B|---------------------------------|---------------------------------|---------------------------------|
G|---------2-----------2-------2---|---------------------------------|---------2-----------2-------2---|
D|---------2-----------2-------2---|---------3-----------3-------3---|-0---0---0---0---0---0---0---0---|
A|-0---0-------0---0-------0-------|---------3-----------3-------3---|-0---0-------0---0-------0-------|
E|---------------------------------|-1---1-------1---1-------1-------|---------------------------------|


E|---------------------------------|---------------------------------|---------------------------------|
B|---------------------------------|---------------------------------|---------------------------------|
G|---------1-----------1-------1---|---------2-----------2-------2---|---------------------------------|
D|---------2-----------2-------2---|---------2-----------2-------2---|---------3-----------3-------3---|
A|---------------------------------|-0---0-------0---0-------0-------|---------3-----------3-------3---|
E|-0---0-------0---0-------0-------|---------------------------------|-1---1-------1---1-------1-------|


E|---------------------------------|---------------------------------|---------------------------------|
B|---------------------------------|---------------------------------|---------------------------------|
G|---------2-----------2-------2---|---------1-----------1-------1---|---------2-----------2-------2---|
D|-0---0---0---0---0---0---0---0---|---------2-----------2-------2---|---------2-----------2-------2---|
A|-0---0-------0---0-------0-------|---------------------------------|-0---0-------0---0-------0-------|
E|---------------------------------|-0---0-------0---0-------0-------|---------------------------------|


E|---------------------------------|---------------------------------|---------------------------------|
B|---------------------------------|---------------------------------|---------------------------------|
G|---------------------------------|---------2-----------2-------2---|---------1-----------1-------1---|
D|---------3-----------3-------3---|-0---0---0---0---0---0---0---0---|---------2-----------2-------2---|
A|---------3-----------3-------3---|-0---0-------0---0-------0-------|---------------------------------|
E|-1---1-------1---1-------1-------|---------------------------------|-0---0-------0---0-------0-------|


E|---------------------------------|---------------------------------|---------------------------------|
B|---------------------------------|---------------------------------|---------------------------------|
G|---------2-----------2-------2---|---------------------------------|---------2-----------2-------2---|
D|---------2-----------2-------2---|---------3-----------3-------3---|-0---0---0---0---0---0---0---0---|
A|-0---0-------0---0-------0-------|---------3-----------3-------3---|-0---0-------0---0-------0-------|
E|---------------------------------|-1---1-------1---1-------1-------|---------------------------------|


E|---------------------------------|--------|-----------------|--------|--------|--------|
B|---------------------------------|--------|-----------------|--------|--------|--------|
G|---------1-----------1-------1---|--------|-----------------|-2------|-2------|--------|
D|---------2-----------2-------2---|-3------|-5-----5----5----|-2------|-2------|-3------|
A|---------------------------------|-3------|-5-----5----5----|-0------|-0------|-3------|
E|-0---0-------0---0-------0-------|-1------|-3-----3----3----|--------|--------|-1------|


E|--------|--------------------|--------|--------|--------|--------|--------------------|
B|--------|--------------------|--------|--------|--------|--------|--------------------|
G|--------|-2-----2---2----2---|-2------|--------|--------|-2------|-2-----2---2----2---|
D|-5------|-2-----2---2----2---|-2------|-3------|-5------|-2------|-2-----2---2----2---|
A|-5------|-0-----0---0----0---|-0------|-3------|-5------|-0------|-0-----0---0----0---|
E|-3------|--------------------|--------|-1------|-3------|--------|--------------------|


E|--------|--------|--------|--------|---------------------------------|---------------------------------|
B|--------|--------|--------|--------|---------------------------------|---------------------------------|
G|--------|--------|--------|--------|---------2-----------2-------2---|---------------------------------|
D|-3------|-5------|-2------|-2------|---------2-----------2-------2---|---------3-----------3-------3---|
A|-3------|-5------|-2------|-2------|-0---0-------0---0-------0-------|---------3-----------3-------3---|
E|-1------|-3------|-0------|-0------|---------------------------------|-1---1-------1---1-------1-------|


E|---------------------------------|---------------------------------|---------------------------------|
B|---------------------------------|---------------------------------|---------------------------------|
G|---------2-----------2-------2---|---------1-----------1-------1---|---------2-----------2-------2---|
D|-0---0---0---0---0---0---0---0---|---------2-----------2-------2---|---------2-----------2-------2---|
A|-0---0-------0---0-------0-------|---------------------------------|-0---0-------0---0-------0-------|
E|---------------------------------|-0---0-------0---0-------0-------|---------------------------------|


E|---------------------------------|---------------------------------|---------------------------------|
B|---------------------------------|---------------------------------|---------------------------------|
G|---------------------------------|---------2-----------2-------2---|---------1-----------1-------1---|
D|---------3-----------3-------3---|-0---0---0---0---0---0---0---0---|---------2-----------2-------2---|
A|---------3-----------3-------3---|-0---0-------0---0-------0-------|---------------------------------|
E|-1---1-------1---1-------1-------|---------------------------------|-0---0-------0---0-------0-------|


E|--------|-----------------|--------|--------|--------|--------|--------|--------|
B|--------|-----------------|--------|--------|--------|--------|--------|--------|
G|--------|-----------------|-2------|-2------|--------|--------|--------|--------|
D|-3------|-5-----5----5----|-2------|-2------|--------|--------|--------|--------|
A|-3------|-5-----5----5----|-0------|-0------|--------|--------|--------|--------|
E|-1------|-3-----3----3----|--------|--------|--------|--------|--------|--------|


E|--------|-------------|-----------------|-------------|-------------|-------------|
B|--------|-------------|-----------------|-------------|-------------|-------------|
G|--------|-------------|-----------------|------2------|------2------|-------------|
D|--------|------3------|------5-----5----|-5----2------|------2------|------3------|
A|--------|------3------|------5-----5----|-5----0------|------0------|------3------|
E|--------|------1------|------3-----3----|-3-----------|-------------|------1------|


E|-------------|--------------------|----------------|-------------|-------------|
B|-------------|--------------------|----------------|-------------|-------------|
G|-------------|------2-----2---2---|-----2---2------|-------------|-------------|
D|------5------|------2-----2---2---|-----2---2------|------3------|------5------|
A|------5------|------0-----0---0---|-----0---0------|------3------|------5------|
E|------3------|--------------------|----------------|------1------|------3------|


E|-------------|--------------------|----------------|-------------|-------------|
B|-------------|--------------------|----------------|-------------|-------------|
G|------2------|------2-----2---2---|-----2----------|-------------|-------------|
D|------2------|------2-----2---2---|-----2---3------|------5------|------2------|
A|------0------|------0-----0---0---|-----0---3------|------5------|------2------|
E|-------------|--------------------|---------1------|------3------|------0------|


E|-------------|-----------------|-------------|--------------------|---------------------------------|
B|-------------|-----------------|-------------|--------------------|---------------------------------|
G|-------------|-----------------|-------------|--------------------|-2-----------2-------2-----------|
D|------2------|-----------------|-------------|--------------------|-2-----------2-------2-----------|
A|------2------|-----------------|-------------|------------0---0---|-----0---0-------0---------------|
E|------0------|-----------------|-------------|--------------------|-------------------------1---1---|


E|---------------------------------|---------------------------------|---------------------------------|
B|---------------------------------|---------------------------------|---------------------------------|
G|---------------------------------|-2-----------2-------2-----------|-1-----------1-------1-----------|
D|-3-----------3-------3---0---0---|-0---0---0---0---0---0-----------|-2-----------2-------2-----------|
A|-3-----------3-------3---0---0---|-----0---0-------0---------------|-------------------------0---0---|
E|-----1---1-------1---------------|-------------------------0---0---|-----0---0-------0---------------|


E|---------------------------------|---------------------------------|---------------------------------|
B|---------------------------------|---------------------------------|---------------------------------|
G|-2-----------2-------2-----------|---------------------------------|-2-----------2-------2-----------|
D|-2-----------2-------2-----------|-3-----------3-------3---0---0---|-0---0---0---0---0---0-----------|
A|-----0---0-------0---------------|-3-----------3-------3---0---0---|-----0---0-------0---------------|
E|-------------------------1---1---|-----1---1-------1---------------|-------------------------0---0---|


E|------------------------------|--------|--------|--------|--------|--------|--------|
B|------------------------------|--------|--------|--------|--------|--------|--------|
G|-1-----------1-------1--------|--------|--------|--------|--------|--------|--------|
D|-2-----------2-------2--------|--------|--------|--------|--------|--------|--------|
A|------------------------------|--------|--------|--------|--------|--------|--------|
E|-----0---0-------0------------|--------|--------|--------|--------|--------|--------|


E|--------|----------------|---------------------------------|---------------------------------|
B|--------|----------------|---------------------------------|---------------------------------|
G|--------|----------------|-2-----------2-------2-----------|---------------------------------|
D|--------|----------------|-2-----------2-------2-----------|-3-----------3-------3---0---0---|
A|--------|--------0---0---|-----0---0-------0---------------|-3-----------3-------3---0---0---|
E|--------|----------------|-------------------------1---1---|-----1---1-------1---------------|


E|---------------------------------|---------------------------------|---------------------------------|
B|---------------------------------|---------------------------------|---------------------------------|
G|-2-----------2-------2-----------|-1-----------1-------1-----------|-2-----------2-------2-----------|
D|-0---0---0---0---0---0-----------|-2-----------2-------2-----------|-2-----------2-------2-----------|
A|-----0---0-------0---------------|-------------------------0---0---|-----0---0-------0---------------|
E|-------------------------0---0---|-----0---0-------0---------------|-------------------------1---1---|


E|---------------------------------|---------------------------------|------------------------------|
B|---------------------------------|---------------------------------|------------------------------|
G|---------------------------------|-2-----------2-------2-----------|-1-----------1-------1---2----|
D|-3-----------3-------3---0---0---|-0---0---0---0---0---0-----------|-2-----------2-------2---2----|
A|-3-----------3-------3---0---0---|-----0---0-------0---------------|-------------------------0----|
E|-----1---1-------1---------------|-------------------------0---0---|-----0---0-------0------------|


E|-------------|-------------|-------------|-------------|------------------------|
B|-------------|-------------|-------------|-------------|------------------------|
G|-------------|-------2-----|-------2-----|------2------|------2-----------------|
D|-------2-----|-------2-----|-------2-----|------2------|------2-----------------|
A|-------2-----|-------0-----|-------0-----|------0------|------0-----------------|
E|-------0-----|-------------|-------------|-------------|------------------------|





Track 3: Rhythm Guitar II

E|--------|--------|--------|--------|--------|--------|--------|--------|--------|
B|--------|--------|--------|--------|--------|--------|--------|--------|--------|
G|--------|--------|--------|--------|--------|--------|--------|--------|--------|
D|--------|--------|--------|--------|--------|--------|--------|--------|--------|
A|--------|--------|--------|--------|--------|--------|--------|--------|--------|
E|--------|--------|--------|--------|--------|--------|--------|--------|--------|


E|--------|--------|--------|--------------------|--------------------|--------------------|
B|--------|--------|--------|--------------------|--------------------|--------------------|
G|--------|--------|--------|-2------------------|--------------------|-2------------------|
D|--------|--------|--------|-2------------------|-3------------------|-0------------------|
A|--------|--------|--------|-0------------------|-3------------------|-0------------------|
E|--------|--------|--------|--------------------|-1------------------|--------------------|


E|---------------------------------|--------|--------|--------|--------|--------|--------|
B|---------------------------------|--------|--------|--------|--------|--------|--------|
G|---------------------------------|--------|--------|--------|--------|--------|--------|
D|---------------------------------|--------|--------|--------|--------|--------|--------|
A|---------------------------------|--------|--------|--------|--------|--------|--------|
E|-0---0---0---0---0---0---0---0---|--------|--------|--------|--------|--------|--------|


E|--------|--------|--------|--------|--------|--------|--------|--------|--------|
B|--------|--------|--------|--------|--------|--------|--------|--------|--------|
G|--------|--------|--------|--------|--------|--------|--------|--------|--------|
D|--------|--------|--------|--------|--------|--------|--------|--------|--------|
A|--------|--------|--------|--------|--------|--------|--------|--------|--------|
E|--------|--------|--------|--------|--------|--------|--------|--------|--------|


E|--------|--------|--------|--------|--------|--------|--------|--------|--------|
B|--------|--------|--------|--------|--------|--------|--------|--------|--------|
G|--------|--------|--------|--------|--------|--------|--------|--------|--------|
D|--------|--------|--------|--------|--------|--------|--------|--------|--------|
A|--------|--------|--------|--------|--------|--------|--------|--------|--------|
E|--------|--------|--------|--------|--------|--------|--------|--------|--------|


E|-----------------|-----------------|---------------------------------|---------------------------------|
B|-----------------|-----------------|---------------------------------|---------------------------------|
G|-----------------|-----------------|---------------------------------|---------------------------------|
D|-----------------|-----------------|---------------------------------|---------------------------------|
A|-------2----3----|-------3----2----|---------------------3---3---2---|---------------------3---3-------|
E|-1---------------|-3---------------|-5---5---3---5---5---------------|-5---5---3---5---5-----------3---|


E|-----------------|-----------------|---------------------------------|---------------------------------|
B|-----------------|-----------------|---------------------------------|---------------------------------|
G|-----------------|-----------------|---------------------------------|---------------------------------|
D|-----------------|-----------------|---------------------------------|---------------------------------|
A|-------2----3----|-------3----2----|---------------------3---3---2---|---------------------3---3-------|
E|-1---------------|-3---------------|-5---5---3---5---5---------------|-5---5---3---5---5-----------3---|


E|-----------------|-----------------|---------------------------------|---------------------------------|
B|-----------------|-----------------|---------------------------------|---------------------------------|
G|-----------------|-----------------|---------------------------------|---------------------------------|
D|-----------------|-----------------|---------------------------------|---------------------------------|
A|-------2----3----|-------3----2----|---------------------3---3---2---|---------------------3---3-------|
E|-1---------------|-3---------------|-5---5---3---5---5---------------|-5---5---3---5---5-----------3---|


E|-----------------|-----------------|--------|--------|--------|--------|--------|
B|-----------------|-----------------|--------|--------|--------|--------|--------|
G|-----------------|-----------------|--------|--------|--------|--------|--------|
D|-----------------|-----------------|-2------|-2------|--------|--------|--------|
A|-------2----3----|-------3----2----|-2------|-2------|--------|--------|--------|
E|-1---------------|-3---------------|-0------|-0------|--------|--------|--------|


E|--------|--------|--------|--------|--------|--------|--------|--------|--------|
B|--------|--------|--------|--------|--------|--------|--------|--------|--------|
G|--------|--------|--------|--------|--------|--------|--------|--------|--------|
D|--------|--------|--------|--------|--------|--------|--------|--------|--------|
A|--------|--------|--------|--------|--------|--------|--------|--------|--------|
E|--------|--------|--------|--------|--------|--------|--------|--------|--------|


E|--------|--------|--------|--------|--------|--------|--------|--------|--------|
B|--------|--------|--------|--------|--------|--------|--------|--------|--------|
G|--------|--------|--------|--------|--------|--------|--------|--------|--------|
D|--------|--------|--------|--------|--------|--------|--------|--------|--------|
A|--------|--------|--------|--------|--------|--------|--------|--------|--------|
E|--------|--------|--------|--------|--------|--------|--------|--------|--------|


E|--------|--------|--------|-----------------|-----------------|---------------------------------|
B|--------|--------|--------|-----------------|-----------------|---------------------------------|
G|--------|--------|--------|-----------------|-----------------|---------------------------------|
D|--------|--------|--------|-----------------|-----------------|---------------------------------|
A|--------|--------|--------|-------2----3----|-------3----2----|---------------------3---3---2---|
E|--------|--------|--------|-1---------------|-3---------------|-5---5---3---5---5---------------|


E|---------------------------------|-----------------|-----------------|---------------------------------|
B|---------------------------------|-----------------|-----------------|---------------------------------|
G|---------------------------------|-----------------|-----------------|---------------------------------|
D|---------------------------------|-----------------|-----------------|---------------------------------|
A|---------------------3---3-------|-------2----3----|-------3----2----|---------------------3---3---2---|
E|-5---5---3---5---5-----------3---|-1---------------|-3---------------|-5---5---3---5---5---------------|


E|---------------------------------|-----------------|-----------------|---------------------------------|
B|---------------------------------|-----------------|-----------------|---------------------------------|
G|---------------------------------|-----------------|-----------------|---------------------------------|
D|---------------------------------|-----------------|-----------------|---------------------------------|
A|---------------------3---3-------|-------2----3----|-------3----2----|---------------------3---3---2---|
E|-5---5---3---5---5-----------3---|-1---------------|-3---------------|-5---5---3---5---5---------------|


E|---------------------------------|-----------------|-----------------|--------|--------|
B|---------------------------------|-----------------|-----------------|--------|--------|
G|---------------------------------|-----------------|-----------------|--------|--------|
D|---------------------------------|-----------------|-----------------|-2------|-2------|
A|---------------------3---3-------|-------2----3----|-------3----2----|-2------|-2------|
E|-5---5---3---5---5-----------3---|-1---------------|-3---------------|-0------|-0------|


E|--------|--------|--------|--------|--------|--------|--------|--------|-----------------|
B|--------|--------|--------|--------|--------|--------|--------|--------|-----------------|
G|--------|--------|--------|--------|--------|--------|--------|--------|-----------------|
D|--------|--------|--------|--------|--------|--------|--------|--------|-----------------|
A|--------|--------|--------|--------|--------|--------|--------|--------|-------2----3----|
E|--------|--------|--------|--------|--------|--------|--------|--------|-1---------------|


E|-----------------|---------------------------------|---------------------------------|
B|-----------------|---------------------------------|---------------------------------|
G|-----------------|---------------------------------|---------------------------------|
D|-----------------|---------------------------------|---------------------------------|
A|-------3----2----|---------------------3---3---2---|---------------------3---3-------|
E|-3---------------|-5---5---3---5---5---------------|-5---5---3---5---5-----------3---|


E|-----------------|-----------------|--------|--------|--------------|-----------------|
B|-----------------|-----------------|--------|--------|--------------|-----------------|
G|-----------------|-----------------|--------|--------|--------------|-----------------|
D|-----------------|-----------------|-2------|-2------|--------------|-----------------|
A|-------2----3----|-------3----2----|-2------|-2------|--------------|------------2----|
E|-1---------------|-3---------------|-0------|-0------|--------------|------1----------|


E|-----------------|------------------------------|---------------------------------|
B|-----------------|------------------------------|---------------------------------|
G|-----------------|------------------------------|---------------------------------|
D|-----------------|------------------------------|---------------------------------|
A|-3----------3----|-2------------------------3---|-3---2-----------------------3---|
E|------3----------|------5---5---3---5---5-------|---------5---5---3---5---5-------|


E|--------------------|-----------------|------------------------------|---------------------------------|
B|--------------------|-----------------|------------------------------|---------------------------------|
G|--------------------|-----------------|------------------------------|---------------------------------|
D|--------------------|-----------------|------------------------------|---------------------------------|
A|-3-------------2----|-3----------3----|-2------------------------3---|-3---2-----------------------3---|
E|-----3---1----------|------3----------|------5---5---3---5---5-------|---------5---5---3---5---5-------|


E|--------------------|-----------------|------------------------------|---------------------------------|
B|--------------------|-----------------|------------------------------|---------------------------------|
G|--------------------|-----------------|------------------------------|---------------------------------|
D|--------------------|-----------------|------------------------------|---------------------------------|
A|-3-------------2----|-3----------3----|-2------------------------3---|-3---2-----------------------3---|
E|-----3---1----------|------3----------|------5---5---3---5---5-------|---------5---5---3---5---5-------|


E|--------------------|-----------------|-------------|-------------|--------|--------|
B|--------------------|-----------------|-------------|-------------|--------|--------|
G|--------------------|-----------------|-------------|-------------|--------|--------|
D|--------------------|-----------------|------2------|------2------|--------|--------|
A|-3-------------2----|-3----------3----|-2----2------|------2------|--------|--------|
E|-----3---1----------|------3----------|------0------|------0------|--------|--------|


E|--------|--------|--------|--------|--------|--------|--------|--------|--------|
B|--------|--------|--------|--------|--------|--------|--------|--------|--------|
G|--------|--------|--------|--------|--------|--------|--------|--------|--------|
D|--------|--------|--------|--------|--------|--------|--------|--------|--------|
A|--------|--------|--------|--------|--------|--------|--------|--------|--------|
E|--------|--------|--------|--------|--------|--------|--------|--------|--------|


E|--------|--------|--------|--------|--------|--------|--------|--------|--------|
B|--------|--------|--------|--------|--------|--------|--------|--------|--------|
G|--------|--------|--------|--------|--------|--------|--------|--------|--------|
D|--------|--------|--------|--------|--------|--------|--------|--------|--------|
A|--------|--------|--------|--------|--------|--------|--------|--------|--------|
E|--------|--------|--------|--------|--------|--------|--------|--------|--------|


E|--------|--------|--------|--------|--------|--------|--------|--------|--------|
B|--------|--------|--------|--------|--------|--------|--------|--------|--------|
G|--------|--------|--------|--------|--------|--------|--------|--------|--------|
D|--------|--------|--------|--------|--------|--------|--------|--------|--------|
A|--------|--------|--------|--------|--------|--------|--------|--------|--------|
E|--------|--------|--------|--------|--------|--------|--------|--------|--------|


E|--------|--------|--------|
B|--------|--------|--------|
G|--------|--------|--------|
D|--------|--------|--------|
A|--------|--------|--------|
E|--------|--------|--------|





Track 4: Lead Guitar

E|--------|--------|--------|--------|--------|--------|--------|--------|--------|
B|--------|--------|--------|--------|--------|--------|--------|--------|--------|
G|--------|--------|--------|--------|--------|--------|--------|--------|--------|
D|--------|--------|--------|--------|--------|--------|--------|--------|--------|
A|--------|--------|--------|--------|--------|--------|--------|--------|--------|
E|--------|--------|--------|--------|--------|--------|--------|--------|--------|


E|--------|--------|--------|--------|--------|--------|--------|--------|--------|
B|--------|--------|--------|--------|--------|--------|--------|--------|--------|
G|--------|--------|--------|--------|--------|--------|--------|--------|--------|
D|--------|--------|--------|--------|--------|--------|--------|--------|--------|
A|--------|--------|--------|--------|--------|--------|--------|--------|--------|
E|--------|--------|--------|--------|--------|--------|--------|--------|--------|


E|--------|--------|---------------------------|----------------|-10------------------------|
B|--------|--------|-10---10--10--10---10--12--|-13-----12--13--|------13--12--13--12--10---|
G|--------|--------|---------------------------|----------------|---------------------------|
D|--------|--------|---------------------------|----------------|---------------------------|
A|--------|--------|---------------------------|----------------|---------------------------|
E|--------|--------|---------------------------|----------------|---------------------------|


E|--------|--------|--------|--------|--------|--------|--------|--------|--------|
B|--------|--------|--------|--------|--------|--------|--------|--------|--------|
G|-13-----|-13-----|--------|--------|--------|--------|--------|--------|--------|
D|--------|--------|--------|--------|--------|--------|--------|--------|--------|
A|--------|--------|--------|--------|--------|--------|--------|--------|--------|
E|--------|--------|--------|--------|--------|--------|--------|--------|--------|


E|--------|--------|--------|--------|--------|--------|--------|--------|--------|
B|--------|--------|--------|--------|--------|--------|--------|--------|--------|
G|--------|--------|--------|--------|--------|--------|--------|--------|--------|
D|--------|--------|--------|--------|--------|--------|--------|--------|--------|
A|--------|--------|--------|--------|--------|--------|--------|--------|--------|
E|--------|--------|--------|--------|--------|--------|--------|--------|--------|


E|--------|--------|--------|--------|--------|--------|--------|--------|--------|
B|--------|--------|--------|--------|--------|--------|--------|--------|--------|
G|--------|--------|--------|--------|--------|--------|--------|--------|--------|
D|--------|--------|--------|--------|--------|--------|--------|--------|--------|
A|--------|--------|--------|--------|--------|--------|--------|--------|--------|
E|--------|--------|--------|--------|--------|--------|--------|--------|--------|


E|--------|--------|--------|--------|--------|--------|-------------------------------------|
B|--------|--------|--------|--------|--------|--------|-8---8---8---8---8---8---8---8-------|
G|--------|--------|--------|--------|--------|--------|---------------------------------9---|
D|--------|--------|--------|--------|--------|--------|-------------------------------------|
A|--------|--------|--------|--------|--------|--------|-------------------------------------|
E|--------|--------|--------|--------|--------|--------|-------------------------------------|


E|---------------------------|-----------------------|--------|-------------------------------------|
B|---------------------------|-----------------------|-9------|-8---8---8---8---8---8---8---8-------|
G|-9---9---9----9----9---9---|-7-----5---7---5---7---|-9------|---------------------------------9---|
D|---------------------------|-----------------------|--------|-------------------------------------|
A|---------------------------|-----------------------|--------|-------------------------------------|
E|---------------------------|-----------------------|--------|-------------------------------------|


E|---------------------------|-----------------------|--------|--------|--------|--------|
B|---------------------------|-----------------------|-9------|--------|--------|--------|
G|-9---9---9----9----9---9---|-7-----5---7---5---7---|-9------|--------|--------|--------|
D|---------------------------|-----------------------|--------|--------|--------|--------|
A|---------------------------|-----------------------|--------|--------|--------|--------|
E|---------------------------|-----------------------|--------|--------|--------|--------|


E|--------|--------|--------|--------|--------|--------|--------|--------|--------|
B|--------|--------|--------|--------|--------|--------|--------|--------|--------|
G|--------|--------|--------|--------|--------|--------|--------|--------|--------|
D|--------|--------|--------|--------|--------|--------|--------|--------|--------|
A|--------|--------|--------|--------|--------|--------|--------|--------|--------|
E|--------|--------|--------|--------|--------|--------|--------|--------|--------|


E|--------|--------|--------|--------|--------|--------|--------|--------|--------|
B|--------|--------|--------|--------|--------|--------|--------|--------|--------|
G|--------|--------|--------|--------|--------|--------|--------|--------|--------|
D|--------|--------|--------|--------|--------|--------|--------|--------|--------|
A|--------|--------|--------|--------|--------|--------|--------|--------|--------|
E|--------|--------|--------|--------|--------|--------|--------|--------|--------|


E|--------|--------|--------|--------|--------|--------|--------|--------|--------|
B|--------|--------|--------|--------|--------|--------|--------|--------|--------|
G|--------|--------|--------|--------|--------|--------|--------|--------|--------|
D|--------|--------|--------|--------|--------|--------|--------|--------|--------|
A|--------|--------|--------|--------|--------|--------|--------|--------|--------|
E|--------|--------|--------|--------|--------|--------|--------|--------|--------|


E|--------|--------|-8--7--7--7--8--7--7--7--8--7--7--7--8--7--7--7--|-10-8--8--8--10-8--8--8--10-8--8--8--10-8--8--8--|
B|--------|--------|-------------------------------------------------|-------------------------------------------------|
G|--------|--------|-------------------------------------------------|-------------------------------------------------|
D|--------|--------|-------------------------------------------------|-------------------------------------------------|
A|--------|--------|-------------------------------------------------|-------------------------------------------------|
E|--------|--------|-------------------------------------------------|-------------------------------------------------|


E|-12-10-10-10-12-10-10-10-13-12-12-12-15-13-13-13-|-15-12-12-12-15-12-12-12-16-12-12-12-16-12-12-12-|
B|-------------------------------------------------|-------------------------------------------------|
G|-------------------------------------------------|-------------------------------------------------|
D|-------------------------------------------------|-------------------------------------------------|
A|-------------------------------------------------|-------------------------------------------------|
E|-------------------------------------------------|-------------------------------------------------|


E|----12-15-12----12-15-12-17-12-15-12----12-15-12-|-17-12-15-12----12-15-12-17-12-15-12----12-15-12-|
B|-15----------15----------------------15----------|-------------15----------------------15----------|
G|-------------------------------------------------|-------------------------------------------------|
D|-------------------------------------------------|-------------------------------------------------|
A|-------------------------------------------------|-------------------------------------------------|
E|-------------------------------------------------|-------------------------------------------------|


E|-17-12-15-12----12-15-12-17-12-15-12----12-15-12-|-17-12-15-12----12-15-12-17-0--15-0--13-0--12-0--|
B|-------------15----------------------15----------|-------------15----------------------------------|
G|-------------------------------------------------|-------------------------------------------------|
D|-------------------------------------------------|-------------------------------------------------|
A|-------------------------------------------------|-------------------------------------------------|
E|-------------------------------------------------|-------------------------------------------------|


E|-13-8--5--13-8--5--13-8--5--13-8--5--13-8--5--13-8--5--13-8--5--|-15-10-7--15-10-7--15-10-7--15-10-7--15-10-7--15-10-7--15-10-7--|
B|----------------------------------------------------------------|----------------------------------------------------------------|
G|----------------------------------------------------------------|----------------------------------------------------------------|
D|----------------------------------------------------------------|----------------------------------------------------------------|
A|----------------------------------------------------------------|----------------------------------------------------------------|
E|----------------------------------------------------------------|----------------------------------------------------------------|


E|-17-12-8--17-12-8--17-12-8--17-12-8--17-12-8--17-12-8--17-12-8--17-12-8--|-17-12-8--17-12-8--17-12-8--17-12-8--17-12-8--17-12-8--17-12-8--17-12-8--|
B|-------------------------------------------------------------------------|-------------------------------------------------------------------------|
G|-------------------------------------------------------------------------|-------------------------------------------------------------------------|
D|-------------------------------------------------------------------------|-------------------------------------------------------------------------|
A|-------------------------------------------------------------------------|-------------------------------------------------------------------------|
E|-------------------------------------------------------------------------|-------------------------------------------------------------------------|


E|-13-8--5--13-8--5--13-8--5--13-8--5--13-8--5--13-8--5--13-8--5--|-15-10-7--15-10-7--15-10-7--15-10-7--15-10-7--15-10-7--15-10-7--|
B|----------------------------------------------------------------|----------------------------------------------------------------|
G|----------------------------------------------------------------|----------------------------------------------------------------|
D|----------------------------------------------------------------|----------------------------------------------------------------|
A|----------------------------------------------------------------|----------------------------------------------------------------|
E|----------------------------------------------------------------|----------------------------------------------------------------|


E|-16-----|-16-----|--------------|--------|--------|--------|--------|--------|--------|
B|--------|--------|--------------|--------|--------|--------|--------|--------|--------|
G|--------|--------|--------------|--------|--------|--------|--------|--------|--------|
D|--------|--------|--------------|--------|--------|--------|--------|--------|--------|
A|--------|--------|--------------|--------|--------|--------|--------|--------|--------|
E|--------|--------|--------------|--------|--------|--------|--------|--------|--------|


E|--------|--------|--------|--------|--------|--------|--------|--------|--------|
B|--------|--------|--------|--------|--------|--------|--------|--------|--------|
G|--------|--------|--------|--------|--------|--------|--------|--------|--------|
D|--------|--------|--------|--------|--------|--------|--------|--------|--------|
A|--------|--------|--------|--------|--------|--------|--------|--------|--------|
E|--------|--------|--------|--------|--------|--------|--------|--------|--------|


E|--------|--------|--------|----------------|-------------------------------------|
B|--------|--------|--------|--------8---8---|-8---8---8---8---8---8---------------|
G|--------|--------|--------|----------------|-------------------------9---9---9---|
D|--------|--------|--------|----------------|-------------------------------------|
A|--------|--------|--------|----------------|-------------------------------------|
E|--------|--------|--------|----------------|-------------------------------------|


E|------------------------|---------------------------|----------------|-------------------------------------|
B|------------------------|----------------------9----|--------8---8---|-8---8---8---8---8---8---------------|
G|-9----9----9---9---7----|------5---7---5---7---9----|----------------|-------------------------9---9---9---|
D|------------------------|---------------------------|----------------|-------------------------------------|
A|------------------------|---------------------------|----------------|-------------------------------------|
E|------------------------|---------------------------|----------------|-------------------------------------|


E|------------------------|---------------------------|----------------|-------------------------------------|
B|------------------------|----------------------9----|--------8---8---|-8---8---8---8---8---8---------------|
G|-9----9----9---9---7----|------5---7---5---7---9----|----------------|-------------------------9---9---9---|
D|------------------------|---------------------------|----------------|-------------------------------------|
A|------------------------|---------------------------|----------------|-------------------------------------|
E|------------------------|---------------------------|----------------|-------------------------------------|


E|------------------------|---------------------------|----------------|-------------------------------------|
B|------------------------|----------------------9----|--------8---8---|-8---8---8---8---8---8---------------|
G|-9----9----9---9---7----|------5---7---5---7---9----|----------------|-------------------------9---9---9---|
D|------------------------|---------------------------|----------------|-------------------------------------|
A|------------------------|---------------------------|----------------|-------------------------------------|
E|------------------------|---------------------------|----------------|-------------------------------------|


E|------------------------|---------------------------|--------|--------|--------|
B|------------------------|----------------------9----|--------|--------|--------|
G|-9----9----9---9---7----|------5---7---5---7---9----|--------|--------|--------|
D|------------------------|---------------------------|--------|--------|--------|
A|------------------------|---------------------------|--------|--------|--------|
E|------------------------|---------------------------|--------|--------|--------|


E|--------|--------|--------|--------|--------|----------------|-----------------------|
B|--------|--------|--------|--------|--------|----------------|-----------------------|
G|--------|--------|--------|--------|--------|----------------|-----------------1-----|
D|--------|--------|--------|--------|--------|----------------|---------3---2---------|
A|--------|--------|--------|--------|--------|--------0---2---|-3---5-----------------|
E|--------|--------|--------|--------|--------|----------------|-----------------------|


E|-------------|-------------|-------------|------------------------|
B|-------------|-------------|-------------|------------------------|
G|-------2-----|-------2-----|------2------|------2-----------------|
D|-------2-----|-------2-----|------2------|------2-----------------|
A|-------0-----|-------0-----|------0------|------0-----------------|
E|-------------|-------------|-------------|------------------------|





Track 5: Bass

G|--------|--------|--------|--------|--------|--------|--------|--------|--------|
D|--------|--------|--------|--------|--------|--------|--------|--------|--------|
A|--------|--------|--------|--------|--------|--------|--------|--------|--------|
E|--------|--------|--------|--------|--------|--------|--------|--------|--------|


G|--------|--------|--------|--------------------|--------------------|--------------------|
D|--------|--------|--------|--------------------|--------------------|--------------------|
A|--------|--------|--------|--------------------|--------------------|-5------------------|
E|--------|--------|--------|-5------------------|-1------------------|--------------------|


G|---------------------------------|---------2---------------2-------|---------------------------------|
D|---------------------------------|-----2-------2-------2-------2---|---------3---------------3-------|
A|---------------------------------|-0---------------0---------------|-----3-------3-------3-------3---|
E|-0---0---0---0---0---0---0---0---|---------------------------------|-1---------------1---------------|


G|---------2---------------2-------|---------1---------------1-------|---------2---------------2-------|
D|-----0-------0-------0-------0---|-----2-------2-------2-------2---|-----2-------2-------2-------2---|
A|-0---------------0---------------|-2---------------2---------------|-0---------------0---------------|
E|---------------------------------|---------------------------------|---------------------------------|


G|---------------------------------|---------2---------------2-------|---------1---------------1-------|
D|---------3---------------3-------|-----0-------0-------0-------0---|-----2-------2-------2-------2---|
A|-----3-------3-------3-------3---|-0---------------0---------------|-2---------------2---------------|
E|-1---------------1---------------|---------------------------------|---------------------------------|


G|---------2---------------2-------|---------------------------------|---------2---------------2-------|
D|-----2-------2-------2-------2---|---------3---------------3-------|-----0-------0-------0-------0---|
A|-0---------------0---------------|-----3-------3-------3-------3---|-0---------------0---------------|
E|---------------------------------|-1---------------1---------------|---------------------------------|


G|---------1---------------1-------|---------2---------------2-------|---------------------------------|
D|-----2-------2-------2-------2---|-----2-------2-------2-------2---|---------3---------------3-------|
A|-2---------------2---------------|-0---------------0---------------|-----3-------3-------3-------3---|
E|---------------------------------|---------------------------------|-1---------------1---------------|


G|---------2---------------2-------|---------1---------------1-------|---------2---------------2-------|
D|-----0-------0-------0-------0---|-----2-------2-------2-------2---|-----2-------2-------2-------2---|
A|-0---------------0---------------|-2---------------2---------------|-0---------------0---------------|
E|---------------------------------|---------------------------------|---------------------------------|


G|---------------------------------|---------2---------------2-------|---------1---------------1-------|
D|---------3---------------3-------|-----0-------0-------0-------0---|-----2-------2-------2-------2---|
A|-----3-------3-------3-------3---|-0---------------0---------------|-2---------------2---------------|
E|-1---------------1---------------|---------------------------------|---------------------------------|


G|---------2---------------2-------|---------------------------------|---------2---------------2-------|
D|-----2-------2-------2-------2---|---------3---------------3-------|-----0-------0-------0-------0---|
A|-0---------------0---------------|-----3-------3-------3-------3---|-0---------------0---------------|
E|---------------------------------|-1---------------1---------------|---------------------------------|


G|---------1---------------1-------|---------------------------------|---------------------------------|
D|-----2-------2-------2-------2---|---------3---------------3-------|---------5---------------5-------|
A|-2---------------2---------------|-----3-------3-------3-------3---|-----5-------5-------5-------5---|
E|---------------------------------|-1---------------1---------------|-3---------------3---------------|


G|---------2---------------2-------|---------2---------------2-------|---------------------------------|
D|-----2-------2-------2-------2---|-----2-------2-------2-------2---|---------3---------------3-------|
A|-0---------------0---------------|-0---------------0---------------|-----3-------3-------3-------3---|
E|---------------------------------|---------------------------------|-1---------------1---------------|


G|---------------------------------|---------2---------------2-------|---------2---------------2-------|
D|---------5---------------5-------|-----2-------2-------2-------2---|-----2-------2-------2-------2---|
A|-----5-------5-------5-------5---|-0---------------0---------------|-0---------------0---------------|
E|-3---------------3---------------|---------------------------------|---------------------------------|


G|---------------------------------|---------------------------------|---------2---------------2-------|
D|---------3---------------3-------|---------5---------------5-------|-----2-------2-------2-------2---|
A|-----3-------3-------3-------3---|-----5-------5-------5-------5---|-0---------------0---------------|
E|-1---------------1---------------|-3---------------3---------------|---------------------------------|


G|---------2---------------2-------|---------------------------------|---------------------------------|
D|-----2-------2-------2-------2---|---------3---------------3-------|---------5---------------5-------|
A|-0---------------0---------------|-----3-------3-------3-------3---|-----5-------5-------5-------5---|
E|---------------------------------|-1---------------1---------------|-3---------------3---------------|


G|--------|--------|---------2---------------2-------|---------------------------------|
D|--------|--------|-----2-------2-------2-------2---|---------3---------------3-------|
A|--------|--------|-0---------------0---------------|-----3-------3-------3-------3---|
E|-0------|-0------|---------------------------------|-1---------------1---------------|


G|---------2---------------2-------|---------1---------------1-------|---------2---------------2-------|
D|-----0-------0-------0-------0---|-----2-------2-------2-------2---|-----2-------2-------2-------2---|
A|-0---------------0---------------|-2---------------2---------------|-0---------------0---------------|
E|---------------------------------|---------------------------------|---------------------------------|


G|---------------------------------|---------2---------------2-------|---------1---------------1-------|
D|---------3---------------3-------|-----0-------0-------0-------0---|-----2-------2-------2-------2---|
A|-----3-------3-------3-------3---|-0---------------0---------------|-2---------------2---------------|
E|-1---------------1---------------|---------------------------------|---------------------------------|


G|---------2---------------2-------|---------------------------------|---------2---------------2-------|
D|-----2-------2-------2-------2---|---------3---------------3-------|-----0-------0-------0-------0---|
A|-0---------------0---------------|-----3-------3-------3-------3---|-0---------------0---------------|
E|---------------------------------|-1---------------1---------------|---------------------------------|


G|---------1---------------1-------|---------2---------------2-------|---------------------------------|
D|-----2-------2-------2-------2---|-----2-------2-------2-------2---|---------3---------------3-------|
A|-2---------------2---------------|-0---------------0---------------|-----3-------3-------3-------3---|
E|---------------------------------|---------------------------------|-1---------------1---------------|


G|---------2---------------2-------|---------1---------------1-------|---------2---------------2-------|
D|-----0-------0-------0-------0---|-----2-------2-------2-------2---|-----2-------2-------2-------2---|
A|-0---------------0---------------|-2---------------2---------------|-0---------------0---------------|
E|---------------------------------|---------------------------------|---------------------------------|


G|---------------------------------|---------2---------------2-------|---------1---------------1-------|
D|---------3---------------3-------|-----0-------0-------0-------0---|-----2-------2-------2-------2---|
A|-----3-------3-------3-------3---|-0---------------0---------------|-2---------------2---------------|
E|-1---------------1---------------|---------------------------------|---------------------------------|


G|---------2---------------2-------|---------------------------------|---------2---------------2-------|
D|-----2-------2-------2-------2---|---------3---------------3-------|-----0-------0-------0-------0---|
A|-0---------------0---------------|-----3-------3-------3-------3---|-0---------------0---------------|
E|---------------------------------|-1---------------1---------------|---------------------------------|


G|---------1---------------1-------|---------------------------------|---------------------------------|
D|-----2-------2-------2-------2---|---------3---------------3-------|---------5---------------5-------|
A|-2---------------2---------------|-----3-------3-------3-------3---|-----5-------5-------5-------5---|
E|---------------------------------|-1---------------1---------------|-3---------------3---------------|


G|---------2---------------2-------|---------2---------------2-------|---------------------------------|
D|-----2-------2-------2-------2---|-----2-------2-------2-------2---|---------3---------------3-------|
A|-0---------------0---------------|-0---------------0---------------|-----3-------3-------3-------3---|
E|---------------------------------|---------------------------------|-1---------------1---------------|


G|---------------------------------|---------2---------------2-------|---------2---------------2-------|
D|---------5---------------5-------|-----2-------2-------2-------2---|-----2-------2-------2-------2---|
A|-----5-------5-------5-------5---|-0---------------0---------------|-0---------------0---------------|
E|-3---------------3---------------|---------------------------------|---------------------------------|


G|---------------------------------|---------------------------------|---------2---------------2-------|
D|---------3---------------3-------|---------5---------------5-------|-----2-------2-------2-------2---|
A|-----3-------3-------3-------3---|-----5-------5-------5-------5---|-0---------------0---------------|
E|-1---------------1---------------|-3---------------3---------------|---------------------------------|


G|---------2---------------2-------|---------------------------------|---------------------------------|
D|-----2-------2-------2-------2---|---------3---------------3-------|---------5---------------5-------|
A|-0---------------0---------------|-----3-------3-------3-------3---|-----5-------5-------5-------5---|
E|---------------------------------|-1---------------1---------------|-3---------------3---------------|


G|--------|--------|---------2---------------2-------|---------------------------------|
D|--------|--------|-----2-------2-------2-------2---|---------3---------------3-------|
A|--------|--------|-0---------------0---------------|-----3-------3-------3-------3---|
E|-0------|-0------|---------------------------------|-1---------------1---------------|


G|---------2---------------2-------|---------1---------------1-------|---------2---------------2-------|
D|-----0-------0-------0-------0---|-----2-------2-------2-------2---|-----2-------2-------2-------2---|
A|-0---------------0---------------|-2---------------2---------------|-0---------------0---------------|
E|---------------------------------|---------------------------------|---------------------------------|


G|---------------------------------|---------2---------------2-------|---------1---------------1-------|
D|---------3---------------3-------|-----0-------0-------0-------0---|-----2-------2-------2-------2---|
A|-----3-------3-------3-------3---|-0---------------0---------------|-2---------------2---------------|
E|-1---------------1---------------|---------------------------------|---------------------------------|


G|---------------------------------|---------------------------------|---------2---------------2-------|
D|---------3---------------3-------|---------5---------------5-------|-----2-------2-------2-------2---|
A|-----3-------3-------3-------3---|-----5-------5-------5-------5---|-0---------------0---------------|
E|-1---------------1---------------|-3---------------3---------------|---------------------------------|


G|---------2---------------2-------|---------------------------------|---------------------------------|
D|-----2-------2-------2-------2---|---------3---------------3-------|---------5---------------5-------|
A|-0---------------0---------------|-----3-------3-------3-------3---|-----5-------5-------5-------5---|
E|---------------------------------|-1---------------1---------------|-3---------------3---------------|


G|--------|--------|--------------|------------------------------|---------------------------------|
D|--------|--------|--------------|--------------3---------------|-3---------------5---------------|
A|--------|--------|--------------|----------3-------3-------3---|-----3-------5-------5-------5---|
E|-0------|-0------|--------------|------1---------------1-------|---------3---------------3-------|


G|-----------------2---------------|-2---------------2---------------|-2-------------------------------|
D|-5-----------2-------2-------2---|-----2-------2-------2-------2---|-----2-----------3---------------|
A|-----5---0---------------0-------|---------0---------------0-------|-------------3-------3-------3---|
E|---------------------------------|---------------------------------|---------1---------------1-------|


G|---------------------------------|-----------------2---------------|-2---------------2---------------|
D|-3---------------5---------------|-5-----------2-------2-------2---|-----2-------2-------2-------2---|
A|-----3-------5-------5-------5---|-----5---0---------------0-------|---------0---------------0-------|
E|---------3---------------3-------|---------------------------------|---------------------------------|


G|-2-------------------------------|---------------------------------|-----------------2---------------|
D|-----2-----------3---------------|-3---------------5---------------|-5-----------2-------2-------2---|
A|-------------3-------3-------3---|-----3-------5-------5-------5---|-----5---0---------------0-------|
E|---------1---------------1-------|---------3---------------3-------|---------------------------------|


G|-2---------------2---------------|-2-------------------------------|---------------------------------|
D|-----2-------2-------2-------2---|-----2-----------3---------------|-3---------------5---------------|
A|---------0---------------0-------|-------------3-------3-------3---|-----3-------5-------5-------5---|
E|---------------------------------|---------1---------------1-------|---------3---------------3-------|


G|----------------|-------------|------14-17-14----14-16-17-16-14-12-14-12----14-|
D|-5--------------|-------------|---------------17-------------------------17----|
A|-----5----------|-------------|------------------------------------------------|
E|---------0------|------0------|------------------------------------------------|


G|----------------------------------------------------|-------------------------------------------|
D|-15-17-14-15-12-14----12-14-17-14----14-------------|---------------------------------------2---|
A|-------------------15-------------17----15-17-14-15-|-12-14-----------------------------0-------|
E|----------------------------------------------------|-------15-17-13-15-12-13-10-12-4-----------|


G|-2---------------2---------------|---------------------------------|-2---------------2---------------|
D|-----2-------2-------2-----------|-3---------------3-----------0---|-----0-------0-------0-------2---|
A|---------0-------------------3---|-----3-------3-------3---0-------|---------0---------------2-------|
E|-------------------------1-------|---------1-----------------------|---------------------------------|


G|-1---------------1---------------|-2---------------2---------------|---------------------------------|
D|-----2-------2-------2-------2---|-----2-------2-------2-----------|-3---------------3-----------0---|
A|---------2---------------0-------|---------0-------------------3---|-----3-------3-------3---0-------|
E|---------------------------------|-------------------------1-------|---------1-----------------------|


G|-2---------------2---------------|-1---------------1------------|--------|--------|
D|-----0-------0-------0-------2---|-----2-------2-------2--------|--------|--------|
A|---------0---------------2-------|---------2--------------------|--------|--------|
E|---------------------------------|------------------------------|--------|--------|


G|--------|--------|--------|--------|--------|----------------|-2---------------2---------------|
D|--------|--------|--------|--------|--------|------------2---|-----2-------2-------2-----------|
A|--------|--------|--------|--------|--------|--------0-------|---------0-------------------3---|
E|--------|--------|--------|--------|--------|----------------|-------------------------1-------|


G|---------------------------------|-2---------------2---------------|-1---------------1---------------|
D|-3---------------3-----------0---|-----0-------0-------0-------2---|-----2-------2-------2-------2---|
A|-----3-------3-------3---0-------|---------0---------------2-------|---------2---------------0-------|
E|---------1-----------------------|---------------------------------|---------------------------------|


G|-2---------------2---------------|---------------------------------|-2---------------2---------------|
D|-----2-------2-------2-----------|-3---------------3-----------0---|-----0-------0-------0-------2---|
A|---------0-------------------3---|-----3-------3-------3---0-------|---------0---------------2-------|
E|-------------------------1-------|---------1-----------------------|---------------------------------|


G|-1---------------1------------|-------------|-------------|-------------|-------------|
D|-----2-------2-------2--------|-------------|-------------|-------------|-------------|
A|---------2---------------0----|-------------|-------0-----|-------0-----|------0------|
E|------------------------------|-------0-----|-------------|-------------|-------------|


G|--------------------|
D|--------------------|
A|------0-------------|
E|--------------------|





Track 6: Piano

G|--------|--------|--------|--------|--------|--------|--------|--------|--------|
D|--------|--------|--------|--------|--------|--------|--------|--------|--------|
A|--------|--------|--------|--------|--------|--------|--------|--------|--------|
E|--------|--------|--------|--------|--------|--------|--------|--------|--------|


G|--------|--------|--------|--------|--------|--------|--------|-17----17----17---|
D|--------|--------|--------|--------|--------|--------|--------|-19----19----19---|
A|--------|--------|--------|--------|--------|--------|--------|-19----19----19---|
E|--------|--------|--------|--------|--------|--------|--------|-17----17----17---|


G|-14----14----14---|-10----10----10---|-13----13----13---|-17----17----17---|-14----14----14---|
D|-15----15----15---|-12----12----12---|-14----14----14---|-19----19----19---|-15----15----15---|
A|-15----15----15---|-12----12----12---|-14----14----14---|-19----19----19---|-15----15----15---|
E|-13----13----13---|-10----10----10---|-12----12----12---|-17----17----17---|-13----13----13---|


G|-10----10----10---|-13----13----13---|-17----17----17---|-14----14----14---|-10----10----10---|
D|-12----12----12---|-14----14----14---|-19----19----19---|-15----15----15---|-12----12----12---|
A|-12----12----12---|-14----14----14---|-19----19----19---|-15----15----15---|-12----12----12---|
E|-10----10----10---|-12----12----12---|-17----17----17---|-13----13----13---|-10----10----10---|


G|-13----13----13---|-17----17----17---|-14----14----14---|-10----10----10---|-13----13----13---|
D|-14----14----14---|-19----19----19---|-15----15----15---|-12----12----12---|-14----14----14---|
A|-14----14----14---|-19----19----19---|-15----15----15---|-12----12----12---|-14----14----14---|
E|-12----12----12---|-17----17----17---|-13----13----13---|-10----10----10---|-12----12----12---|


G|-17----17----17---|-14----14----14---|-10----10----10---|-13----13----13---|-17----17----17---|
D|-19----19----19---|-15----15----15---|-12----12----12---|-14----14----14---|-19----19----19---|
A|-19----19----19---|-15----15----15---|-12----12----12---|-14----14----14---|-19----19----19---|
E|-17----17----17---|-13----13----13---|-10----10----10---|-12----12----12---|-17----17----17---|


G|-14----14----14---|-10----10----10---|-13----13----13---|-14----14----14---|-16----16----16---|
D|-15----15----15---|-12----12----12---|-14----14----14---|-15----15----15---|-17----17----17---|
A|-15----15----15---|-12----12----12---|-14----14----14---|-15----15----15---|-17----17----17---|
E|-13----13----13---|-10----10----10---|-12----12----12---|-13----13----13---|-15----15----15---|


G|-17--17-------17------17------|-17--17-------17------17------|-14----14----14---|
D|-19--19-------19------19------|-19--19-------19------19------|-15----15----15---|
A|-19--19-------19------19------|-19--19-------19------19------|-15----15----15---|
E|-17--17-------17------17------|-17--17-------17------17------|-13----13----13---|


G|-16----16----16---|-17--17-------17------17------|-17--17-------17------17------|
D|-17----17----17---|-19--19-------19------19------|-19--19-------19------19------|
A|-17----17----17---|-19--19-------19------19------|-19--19-------19------19------|
E|-15----15----15---|-17--17-------17------17------|-17--17-------17------17------|


G|-14----14----14---|-16----16----16---|-17--17-------17------17------|-17--17-------17------17------|
D|-15----15----15---|-17----17----17---|-19--19-------19------19------|-19--19-------19------19------|
A|-15----15----15---|-17----17----17---|-19--19-------19------19------|-19--19-------19------19------|
E|-13----13----13---|-15----15----15---|-17--17-------17------17------|-17--17-------17------17------|


G|-14----14----14---|-16----16----16---|-13-----|-13-----|-17----17----17---|-14----14----14---|
D|-15----15----15---|-17----17----17---|-14-----|-14-----|-19----19----19---|-15----15----15---|
A|-15----15----15---|-17----17----17---|-14-----|-14-----|-19----19----19---|-15----15----15---|
E|-13----13----13---|-15----15----15---|-12-----|-12-----|-17----17----17---|-13----13----13---|


G|-10----10----10---|-13----13----13---|-17----17----17---|-14----14----14---|-10----10----10---|
D|-12----12----12---|-14----14----14---|-19----19----19---|-15----15----15---|-12----12----12---|
A|-12----12----12---|-14----14----14---|-19----19----19---|-15----15----15---|-12----12----12---|
E|-10----10----10---|-12----12----12---|-17----17----17---|-13----13----13---|-10----10----10---|


G|-13----13----13---|-17----17----17---|-14----14----14---|-10----10----10---|-13----13----13---|
D|-14----14----14---|-19----19----19---|-15----15----15---|-12----12----12---|-14----14----14---|
A|-14----14----14---|-19----19----19---|-15----15----15---|-12----12----12---|-14----14----14---|
E|-12----12----12---|-17----17----17---|-13----13----13---|-10----10----10---|-12----12----12---|


G|-17----17----17---|-14----14----14---|-10----10----10---|-13----13----13---|-17----17----17---|
D|-19----19----19---|-15----15----15---|-12----12----12---|-14----14----14---|-19----19----19---|
A|-19----19----19---|-15----15----15---|-12----12----12---|-14----14----14---|-19----19----19---|
E|-17----17----17---|-13----13----13---|-10----10----10---|-12----12----12---|-17----17----17---|


G|-14----14----14---|-10----10----10---|-13----13----13---|-17----17----17---|-14----14----14---|
D|-15----15----15---|-12----12----12---|-14----14----14---|-19----19----19---|-15----15----15---|
A|-15----15----15---|-12----12----12---|-14----14----14---|-19----19----19---|-15----15----15---|
E|-13----13----13---|-10----10----10---|-12----12----12---|-17----17----17---|-13----13----13---|


G|-10----10----10---|-13----13----13---|-14----14----14---|-16----16----16---|-17--17-------17------17------|
D|-12----12----12---|-14----14----14---|-15----15----15---|-17----17----17---|-19--19-------19------19------|
A|-12----12----12---|-14----14----14---|-15----15----15---|-17----17----17---|-19--19-------19------19------|
E|-10----10----10---|-12----12----12---|-13----13----13---|-15----15----15---|-17--17-------17------17------|


G|-17--17-------17------17------|-14----14----14---|-16----16----16---|-17--17-------17------17------|
D|-19--19-------19------19------|-15----15----15---|-17----17----17---|-19--19-------19------19------|
A|-19--19-------19------19------|-15----15----15---|-17----17----17---|-19--19-------19------19------|
E|-17--17-------17------17------|-13----13----13---|-15----15----15---|-17--17-------17------17------|


G|-17--17-------17------17------|-14----14----14---|-16----16----16---|-17--17-------17------17------|
D|-19--19-------19------19------|-15----15----15---|-17----17----17---|-19--19-------19------19------|
A|-19--19-------19------19------|-15----15----15---|-17----17----17---|-19--19-------19------19------|
E|-17--17-------17------17------|-13----13----13---|-15----15----15---|-17--17-------17------17------|


G|-17--17-------17------17------|-14----14----14---|-16----16----16---|-13-----|-13-----|
D|-19--19-------19------19------|-15----15----15---|-17----17----17---|-14-----|-14-----|
A|-19--19-------19------19------|-15----15----15---|-17----17----17---|-14-----|-14-----|
E|-17--17-------17------17------|-13----13----13---|-15----15----15---|-12-----|-12-----|


G|-17----17----17---|-14----14----14---|-10----10----10---|-13----13----13---|-17----17----17---|
D|-19----19----19---|-15----15----15---|-12----12----12---|-14----14----14---|-19----19----19---|
A|-19----19----19---|-15----15----15---|-12----12----12---|-14----14----14---|-19----19----19---|
E|-17----17----17---|-13----13----13---|-10----10----10---|-12----12----12---|-17----17----17---|


G|-14----14----14---|-10----10----10---|-13----13----13---|-14----14----14---|-16----16----16---|
D|-15----15----15---|-12----12----12---|-14----14----14---|-15----15----15---|-17----17----17---|
A|-15----15----15---|-12----12----12---|-14----14----14---|-15----15----15---|-17----17----17---|
E|-13----13----13---|-10----10----10---|-12----12----12---|-13----13----13---|-15----15----15---|


G|-17--17-------17------17------|-17--17-------17------17------|-14----14----14---|
D|-19--19-------19------19------|-19--19-------19------19------|-15----15----15---|
A|-19--19-------19------19------|-19--19-------19------19------|-15----15----15---|
E|-17--17-------17------17------|-17--17-------17------17------|-13----13----13---|


G|-16----16----16---|-13-----|-13-----|-14-17-14----14----------------------------------------|
D|-17----17----17---|-14-----|-14-----|----------17----17-15-14-15-14-15-14----14-------------|
A|-17----17----17---|-14-----|-14-----|-------------------------------------17----17-15-14-15-|
E|-15----15----15---|-12-----|-12-----|-------------------------------------------------------|


G|------14----14----|-14---16----16----|-16---17--17-------17------|-17------17--17-------17------|
D|------15----15----|-15---17----17----|-17---19--19-------19------|-19------19--19-------19------|
A|------15----15----|-15---17----17----|-17---19--19-------19------|-19------19--19-------19------|
E|-15---13----13----|-13---15----15----|-15---17--17-------17------|-17------17--17-------17------|


G|-17------14----14----|-14---16----16----|-16---17--17-------17------|-17------17--17-------17------|
D|-19------15----15----|-15---17----17----|-17---19--19-------19------|-19------19--19-------19------|
A|-19------15----15----|-15---17----17----|-17---19--19-------19------|-19------19--19-------19------|
E|-17------13----13----|-13---15----15----|-15---17--17-------17------|-17------17--17-------17------|


G|-17------14----14----|-14---16----16----|-16---17--17-------17------|-17------17--17-------17------|
D|-19------15----15----|-15---17----17----|-17---19--19-------19------|-19------19--19-------19------|
A|-19------15----15----|-15---17----17----|-17---19--19-------19------|-19------19--19-------19------|
E|-17------13----13----|-13---15----15----|-15---17--17-------17------|-17------17--17-------17------|


G|-17------14----14----|-14---16----16----|-16---13-----|------13-----|--------|--------|
D|-19------15----15----|-15---17----17----|-17---14-----|------14-----|--------|--------|
A|-19------15----15----|-15---17----17----|-17---14-----|------14-----|--------|--------|
E|-17------13----13----|-13---15----15----|-15---12-----|------12-----|--------|--------|


G|--------17---|-----17----17---14---|-----14----14---10---|-----10----10---13---|
D|--------19---|-----19----19---15---|-----15----15---12---|-----12----12---14---|
A|--------19---|-----19----19---15---|-----15----15---12---|-----12----12---14---|
E|--------17---|-----17----17---13---|-----13----13---10---|-----10----10---12---|


G|-----13----13---17---|-----17----17---14---|-----14----14---10---|-----10----10---13---|
D|-----14----14---19---|-----19----19---15---|-----15----15---12---|-----12----12---14---|
A|-----14----14---19---|-----19----19---15---|-----15----15---12---|-----12----12---14---|
E|-----12----12---17---|-----17----17---13---|-----13----13---10---|-----10----10---12---|


G|-----13----13---17---|-----17----17---14---|-----14----14---10---|-----10----10---13---|
D|-----14----14---19---|-----19----19---15---|-----15----15---12---|-----12----12---14---|
A|-----14----14---19---|-----19----19---15---|-----15----15---12---|-----12----12---14---|
E|-----12----12---17---|-----17----17---13---|-----13----13---10---|-----10----10---12---|


G|-----13----13---17---|-----17----17---14---|-----14----14---10---|-----10----10---13---|
D|-----14----14---19---|-----19----19---15---|-----15----15---12---|-----12----12---14---|
A|-----14----14---19---|-----19----19---15---|-----15----15---12---|-----12----12---14---|
E|-----12----12---17---|-----17----17---13---|-----13----13---10---|-----10----10---12---|


G|-----13----13---17---|-----17----17---14---|-----14----14---10---|-----10----10---13---|
D|-----14----14---19---|-----19----19---15---|-----15----15---12---|-----12----12---14---|
A|-----14----14---19---|-----19----19---15---|-----15----15---12---|-----12----12---14---|
E|-----12----12---17---|-----17----17---13---|-----13----13---10---|-----10----10---12---|


G|-----13----13---17---|-----17----17---14---|-----14----14---10---|-----10----10---13---|
D|-----14----14---19---|-----19----19---15---|-----15----15---12---|-----12----12---14---|
A|-----14----14---19---|-----19----19---15---|-----15----15---12---|-----12----12---14---|
E|-----12----12---17---|-----17----17---13---|-----13----13---10---|-----10----10---12---|


G|-----13----13---17---|-17---17---13---13---|-13---13---17---17---|-17---17---17---17---|
D|-----14----14---19---|-19---19---14---14---|-14---14---19---19---|-19---19---19---19---|
A|-----14----14---19---|-19---19---14---14---|-14---14---19---19---|-19---19---19---19---|
E|-----12----12---17---|-17---17---12---12---|-12---12---17---17---|-17---17---17---17---|


G|-17---17---17---17---|-17---17------------|
D|-19---19---19---19---|-19---19------------|
A|-19---19---19---19---|-19---19------------|
E|-17---17---17---17---|-17---17------------|