Menu:

 

Search:

 

olav - oklahoma:

 



Title: Oklahoma
Artist: 
Album: 
Author: Sponge


Track 1: Rhythm Guitar I

E|-----------------|-----------------|-----------------|-----------------|-----------------|
B|-----------------|-----------------|-----------------|-----------------|-----------------|
G|------------4----|-----------------|------------4----|-----------------|------------4----|
D|------2-----4----|------2-----0----|------2-----4----|------2-----0----|------2-----4----|
A|------2-----2----|------2-----0----|------2-----2----|------2-----0----|------2-----2----|
E|------0----------|------0----------|------0----------|------0----------|------0----------|


E|-----------------|-----------------|-----------------|----------------------------------------|
B|-----------------|-----------------|-----------------|----------------------------------------|
G|-----------------|------------4----|-----------------|----------------------------------------|
D|------2-----0----|------2-----4----|------2-----0----|------2---2--2--5--2--2--4--4--2--2--2--|
A|------2-----0----|------2-----2----|------2-----0----|------2---2--2--2--2--2--2--2--2--2--2--|
E|------0----------|------0----------|------0----------|----------------------------------------|


E|-------------------------------------------|-------------------------------------------|
B|-------------------------------------------|-------------------------------------------|
G|-------------------------------------------|-------------------------------------------|
D|-0---2---2---2--2--5--2--2--4--4--2--2--2--|-0---2---2---2--2--5--2--2--4--4--2--2--2--|
A|-0---2---2---2--2--2--2--2--2--2--2--2--2--|-0---2---2---2--2--2--2--2--2--2--2--2--2--|
E|-------------------------------------------|-------------------------------------------|


E|------------------------------------|----------------------------------------|-------------------------------------------|
B|------------------------------------|----------------------------------------|-------------------------------------------|
G|------------------------------------|----------------------------------------|-------------------------------------------|
D|-0---2---2---2--2--5--2--2--4--4----|------2---2--2--5--2--2--4--4--2--2--2--|-0---2---2---2--2--5--2--2--4--4--2--2--2--|
A|-0---2---2---2--2--2--2--2--2--2----|------2---2--2--2--2--2--2--2--2--2--2--|-0---2---2---2--2--2--2--2--2--2--2--2--2--|
E|------------------------------------|----------------------------------------|-------------------------------------------|


E|-------------------------------------------|------------------------------------|
B|-------------------------------------------|------------------------------------|
G|-------------------------------------------|------------------------------------|
D|-0---2---2---2--2--5--2--2--4--4--2--2--2--|-0---2---2---2--2--5--2--2--4--4----|
A|-0---2---2---2--2--2--2--2--2--2--2--2--2--|-0---2---2---2--2--2--2--2--2--2----|
E|-------------------------------------------|------------------------------------|


E|----------------------------------------|-------------------------------------------|
B|----------------------------------------|-------------------------------------------|
G|----------------------------------------|-------------------------------------------|
D|------2---2--2--5--2--2--4--4--2--2--2--|-0---2---2---2--2--5--2--2--4--4--2--2--2--|
A|------2---2--2--2--2--2--2--2--2--2--2--|-0---2---2---2--2--2--2--2--2--2--2--2--2--|
E|----------------------------------------|-------------------------------------------|


E|-------------------------------------------|-------------------------------------------|
B|-------------------------------------------|-------------------------------------------|
G|-------------------------------------------|-------------------------------------------|
D|-0---2---2--2--2--2--2---2--2--5--2--2--4--|-4--2--2--2--0---2---2---2--2--5--2--2--4--|
A|-0---2---2--2--2--2--2---2--2--2--2--2--2--|-2--2--2--2--0---2---2---2--2--2--2--2--2--|
E|-------------------------------------------|-------------------------------------------|


E|---------------------------------------------|-------------------------------------------------|
B|---------------------------------------------|-------------------------------------------------|
G|---------------------------------------------|-------------------------------------------------|
D|-4--2--2--2--0---2---2--2--2--2--------------|-------------------------------------------------|
A|-2--2--2--2--0---2---2--2--2--2--2--2--2--2--|-2--2--2--2--2--2--2--2--2--2--2--2--2--2--2--2--|
E|---------------------------------0--0--0--0--|-3--3--3--3--2--2--2--2--1--1--1--1--0--0--0--0--|


E|------------------------------------------|-------------------------------------------------|
B|------------------------------------------|-------------------------------------------------|
G|------------------------------------------|-------------------------------------------------|
D|-2----------------------------------------|-------------------------------------------------|
A|-2----2--2--2--2--2--2--2--2--2--2--2--2--|-2--2--2--2--2--2--2--2--2--2--2--2--2--2--2--2--|
E|-0----0--0--0--0--3--3--3--3--2--2--2--2--|-1--1--1--1--0--0--0--0--3--3--3--3--2--2--2--2--|


E|-------------------------------------------------|-------------------------------------------------|
B|-------------------------------------------------|-------------------------------------------------|
G|-------------------------------------------------|-------------------------------------------------|
D|-------------------------------------------------|-------------------------------------------------|
A|-2--2--2--2--2--2--2--2--2--2--2--2--2--2--2--2--|-2--2--2--2--2--2--2--2--2--2--2--2--2--2--2--2--|
E|-1--1--1--1--0--0--0--0--3--3--3--3--2--2--2--2--|-1--1--1--1--0--0--0--0--3--3--3--3--2--2--2--2--|


E|-------------------------------------------------|-------------------------------------------------|
B|-------------------------------------------------|-------------------------------------------------|
G|-------------------------------------------------|-------------------------------------------------|
D|-------------------------------------------------|-------------------------------------------------|
A|-2--2--2--2--2--2--2--2--2--2--2--2--2--2--2--2--|-2--2--2--2--2--2--2--2--2--2--2--2--2--2--2--2--|
E|-1--1--1--1--0--0--0--0--3--3--3--3--2--2--2--2--|-1--1--1--1--0--0--0--0--3--3--3--3--2--2--2--2--|


E|-------------------------------------------------|-------------------------------------------------|
B|-------------------------------------------------|-------------------------------------------------|
G|-------------------------------------------------|-------------------------------------------------|
D|-------------------------------------------------|-------------------------------------------------|
A|-2--2--2--2--2--2--2--2--2--2--2--2--2--2--2--2--|-2--2--2--2--2--2--2--2--2--2--2--2--2--2--2--2--|
E|-1--1--1--1--0--0--0--0--3--3--3--3--2--2--2--2--|-1--1--1--1--0--0--0--0--3--3--3--3--2--2--2--2--|


E|-------------------------------------------------|-------------------------------------------------|
B|-------------------------------------------------|-------------------------------------------------|
G|-------------------------------------------------|-------------------------------------------------|
D|-------------------------------------------------|-------------------------------------------------|
A|-2--2--2--2--2--2--2--2--2--2--2--2--2--2--2--2--|-2--2--2--2--2--2--2--2--2--2--2--2--2--2--2--2--|
E|-1--1--1--1--0--0--0--0--3--3--3--3--2--2--2--2--|-1--1--1--1--0--0--0--0--3--3--3--3--2--2--2--2--|


E|-------------------------------------------------|-------------------------------------------------|
B|-------------------------------------------------|-------------------------------------------------|
G|-------------------------------------------------|-------------------------------------------------|
D|-------------------------------------------------|-------------------------------------------------|
A|-2--2--2--2--2--2--2--2--2--2--2--2--2--2--2--2--|-2--2--2--2--2--2--2--2--2--2--2--2--2--2--2--2--|
E|-1--1--1--1--0--0--0--0--3--3--3--3--2--2--2--2--|-1--1--1--1--0--0--0--0--3--3--3--3--2--2--2--2--|


E|-------------------------------------------------|-------------------------------------------------|
B|-------------------------------------------------|-------------------------------------------------|
G|-------------------------------------------------|-------------------------------------------------|
D|-------------------------------------------------|-------------------------------------------------|
A|-2--2--2--2--2--2--2--2--2--2--2--2--2--2--2--2--|-2--2--2--2--2--2--2--2--2--2--2--2--2--2--2--2--|
E|-1--1--1--1--0--0--0--0--3--3--3--3--2--2--2--2--|-1--1--1--1--0--0--0--0--3--3--3--3--2--2--2--2--|


E|-------------------------------------------------|-------------------------------------------------|
B|-------------------------------------------------|-------------------------------------------------|
G|-------------------------------------------------|-------------------------------------------------|
D|-------------------------------------------------|-------------------------------------------------|
A|-2--2--2--2--2--2--2--2--2--2--2--2--2--2--2--2--|-2--2--2--2--2--2--2--2--2--2--2--2--2--2--2--2--|
E|-1--1--1--1--0--0--0--0--3--3--3--3--2--2--2--2--|-1--1--1--1--0--0--0--0--3--3--3--3--2--2--2--2--|


E|---------------------------------|-----------------------------------------|-------------------------------|
B|---------------------------------|-----------------------------------------|-------------------------------|
G|----------------------------4----|-----------------------------------------|--------------------------4----|
D|-------------5----5---------4----|-----------2---2---0--2--2--2--2---2--2--|-0--2--2---5----5---------4----|
A|-2--2--2--2--5----5---------2----|-2--0------2---2---0--2--2--2--2---2--2--|-0--2--2---5----5---------2----|
E|-1--1--1--1--3----3---3--3-------|-------3---------------------------------|-----------3----3---3--3-------|


E|----------------------------------|--------------------------|-----------------------------------------|
B|----------------------------------|--------------------------|-----------------------------------------|
G|----------------------------------|---------------------4----|-----------------------------------------|
D|-----------2---2---0--2--2---2----|-1----5----5---------4----|-----------2---2---0--2--2--2--2---2--2--|
A|-2--0------2---2---0--2--2---3----|-3----5----5---------2----|-2--0------2---2---0--2--2--2--2---2--2--|
E|-------3--------------------------|------3----3---3--3-------|-------3---------------------------------|


E|-------------------------------|----------------------------------|--------------------------|
B|-------------------------------|----------------------------------|--------------------------|
G|--------------------------4----|----------------------------------|---------------------4----|
D|-0--2--2---5----5---------4----|-----------2---2---0--2--2---2----|-1----5----5---------4----|
A|-0--2--2---5----5---------2----|-2--0------2---2---0--2--2---3----|-3----5----5---------2----|
E|-----------3----3---3--3-------|-------3--------------------------|------3----3---3--3-------|


E|-----------------------------------------|-------------------------------|----------------------------------|
B|-----------------------------------------|-------------------------------|----------------------------------|
G|-----------------------------------------|--------------------------4----|----------------------------------|
D|-----------2---2---0--2--2--2--2---2--2--|-0--2--2---5----5---------4----|-----------2---2---0--2--2---2----|
A|-2--0------2---2---0--2--2--2--2---2--2--|-0--2--2---5----5---------2----|-2--0------2---2---0--2--2---3----|
E|-------3---------------------------------|-----------3----3---3--3-------|-------3--------------------------|


E|--------------------------|-----------------------------------------|-------------------------------|
B|--------------------------|-----------------------------------------|-------------------------------|
G|---------------------4----|-----------------------------------------|--------------------------4----|
D|-1----5----5---------4----|-----------2---2---0--2--2--2--2---2--2--|-0--2--2---5----5---------4----|
A|-3----5----5---------2----|-2--0------2---2---0--2--2--2--2---2--2--|-0--2--2---5----5---------2----|
E|------3----3---3--3-------|-------3---------------------------------|-----------3----3---3--3-------|


E|----------------------------------|------------------------|-------------------------------------------|
B|----------------------------------|------------------------|-------------------------------------------|
G|----------------------------------|------------------------|-------------------------------------------|
D|-----------2---2---0--2--2---2----|-1----1----5--------2---|-2--2--5--2--2--4--4--2--2--2--0---2---2---|
A|-2--0------2---2---0--2--2---3----|-3----3----5--------2---|-2--2--2--2--2--2--2--2--2--2--0---2---2---|
E|-------3--------------------------|-----------3----2-------|-------------------------------------------|


E|-------------------------------------------|-------------------------------------------|
B|-------------------------------------------|-------------------------------------------|
G|-------------------------------------------|-------------------------------------------|
D|-2--2--5--2--2--4--4--2--2--2--0---2---2---|-2--2--5--2--2--4--4--2--2--2--0---2---2---|
A|-2--2--2--2--2--2--2--2--2--2--0---2---2---|-2--2--2--2--2--2--2--2--2--2--0---2---2---|
E|-------------------------------------------|-------------------------------------------|


E|-----------------------------|-------------------------------------------|-------------------------------------------|
B|-----------------------------|-------------------------------------------|-------------------------------------------|
G|-----------------------------|-------------------------------------------|-------------------------------------------|
D|-2--2--5--2--2--4--4-----2---|-2--2--5--2--2--4--4--2--2--2--0---2---2---|-2--2--5--2--2--4--4--2--2--2--0---2---2---|
A|-2--2--2--2--2--2--2-----2---|-2--2--2--2--2--2--2--2--2--2--0---2---2---|-2--2--2--2--2--2--2--2--2--2--0---2---2---|
E|-----------------------------|-------------------------------------------|-------------------------------------------|


E|-------------------------------------------|-------------------------------|-------------------------------------------------|
B|-------------------------------------------|-------------------------------|-------------------------------------------------|
G|-------------------------------------------|-------------------------------|-------------------------------------------------|
D|-2--2--5--2--2--4--4--2--2--2--0---2---2---|-2--2--5--2--2--4--4-----------|-------------------------------------------------|
A|-2--2--2--2--2--2--2--2--2--2--0---2---2---|-2--2--2--2--2--2--2-----2--2--|-2--2--2--2--2--2--2--2--2--2--2--2--2--2--2--2--|
E|-------------------------------------------|-------------------------0--0--|-0--0--3--3--3--3--2--2--2--2--1--1--1--1--0--0--|


E|-------------------------------------------------|-------------------------------------------------|
B|-------------------------------------------------|-------------------------------------------------|
G|-------------------------------------------------|-------------------------------------------------|
D|-------------------------------------------------|-------------------------------------------------|
A|-2--2--2--2--2--2--2--2--2--2--2--2--2--2--2--2--|-2--2--2--2--2--2--2--2--2--2--2--2--2--2--2--2--|
E|-0--0--3--3--3--3--2--2--2--2--1--1--1--1--0--0--|-0--0--3--3--3--3--2--2--2--2--1--1--1--1--0--0--|


E|-------------------------------------------------|-------------------------------------------------|
B|-------------------------------------------------|-------------------------------------------------|
G|-------------------------------------------------|-------------------------------------------------|
D|-------------------------------------------------|-------------------------------------------------|
A|-2--2--2--2--2--2--2--2--2--2--2--2--2--2--2--2--|-2--2--2--2--2--2--2--2--2--2--2--2--2--2--2--2--|
E|-0--0--3--3--3--3--2--2--2--2--1--1--1--1--0--0--|-0--0--3--3--3--3--2--2--2--2--1--1--1--1--0--0--|


E|-------------------------------------------------|-------------------------------------------------|
B|-------------------------------------------------|-------------------------------------------------|
G|-------------------------------------------------|-------------------------------------------------|
D|-------------------------------------------------|-------------------------------------------------|
A|-2--2--2--2--2--2--2--2--2--2--2--2--2--2--2--2--|-2--2--2--2--2--2--2--2--2--2--2--2--2--2--2--2--|
E|-0--0--3--3--3--3--2--2--2--2--1--1--1--1--0--0--|-0--0--3--3--3--3--2--2--2--2--1--1--1--1--0--0--|


E|-------------------------------------------------|-------------------------------------------------|
B|-------------------------------------------------|-------------------------------------------------|
G|-------------------------------------------------|-------------------------------------------------|
D|-------------------------------------------------|-------------------------------------------------|
A|-2--2--2--2--2--2--2--2--2--2--2--2--2--2--2--2--|-2--2--2--2--2--2--2--2--2--2--2--2--2--2--2--2--|
E|-0--0--3--3--3--3--2--2--2--2--1--1--1--1--0--0--|-0--0--3--3--3--3--2--2--2--2--1--1--1--1--0--0--|


E|-------------------------------------------------|-------------------------------------------------|
B|-------------------------------------------------|-------------------------------------------------|
G|-------------------------------------------------|-------------------------------------------------|
D|-------------------------------------------------|-------------------------------------------------|
A|-2--2--2--2--2--2--2--2--2--2--2--2--2--2--2--2--|-2--2--2--2--2--2--2--2--2--2--2--2--2--2--2--2--|
E|-0--0--3--3--3--3--2--2--2--2--1--1--1--1--0--0--|-0--0--3--3--3--3--2--2--2--2--1--1--1--1--0--0--|


E|-------------------------------------------------|-------------------------------------------------|
B|-------------------------------------------------|-------------------------------------------------|
G|-------------------------------------------------|-------------------------------------------------|
D|-------------------------------------------------|-------------------------------------------------|
A|-2--2--2--2--2--2--2--2--2--2--2--2--2--2--2--2--|-2--2--2--2--2--2--2--2--2--2--2--2--2--2--2--2--|
E|-0--0--3--3--3--3--2--2--2--2--1--1--1--1--0--0--|-0--0--3--3--3--3--2--2--2--2--1--1--1--1--0--0--|


E|-------------------------------------------------|-------------------------------------------------|
B|-------------------------------------------------|-------------------------------------------------|
G|-------------------------------------------------|-------------------------------------------------|
D|-------------------------------------------------|-------------------------------------------------|
A|-2--2--2--2--2--2--2--2--2--2--2--2--2--2--2--2--|-2--2--2--2--2--2--2--2--2--2--2--2--2--2--2--2--|
E|-0--0--3--3--3--3--2--2--2--2--1--1--1--1--0--0--|-0--0--3--3--3--3--2--2--2--2--1--1--1--1--0--0--|


E|-----------------------------------------------|----------------------------------|
B|-----------------------------------------------|----------------------------------|
G|-----------------------------------------------|---------------4------------------|
D|-------------------------------------------5---|-----5---------4--------------2---|
A|-2--2--2--2--2--2--2--2--2--2--2--2--2--2--5---|-----5---------2----2--0------2---|
E|-0--0--3--3--3--3--2--2--2--2--1--1--1--1--3---|-----3---3--3-------------3-------|


E|-----------------------------------------|----------------------------------|-----------------------------|
B|-----------------------------------------|----------------------------------|-----------------------------|
G|-----------------------------------------|---------------4------------------|-----------------------------|
D|-2---0--2--2--2--2---2--2--0--2--2---5---|-----5---------4--------------2---|-2---0--2--2---2----1----5---|
A|-2---0--2--2--2--2---2--2--0--2--2---5---|-----5---------2----2--0------2---|-2---0--2--2---3----3----5---|
E|-------------------------------------3---|-----3---3--3-------------3-------|-------------------------3---|


E|----------------------------------|-----------------------------------------|----------------------------------|
B|----------------------------------|-----------------------------------------|----------------------------------|
G|---------------4------------------|-----------------------------------------|---------------4------------------|
D|-----5---------4--------------2---|-2---0--2--2--2--2---2--2--0--2--2---5---|-----5---------4--------------2---|
A|-----5---------2----2--0------2---|-2---0--2--2--2--2---2--2--0--2--2---5---|-----5---------2----2--0------2---|
E|-----3---3--3-------------3-------|-------------------------------------3---|-----3---3--3-------------3-------|


E|-----------------------------|----------------------------------|-----------------------------------------|
B|-----------------------------|----------------------------------|-----------------------------------------|
G|-----------------------------|---------------4------------------|-----------------------------------------|
D|-2---0--2--2---2----1----5---|-----5---------4--------------2---|-2---0--2--2--2--2---2--2--0--2--2---5---|
A|-2---0--2--2---3----3----5---|-----5---------2----2--0------2---|-2---0--2--2--2--2---2--2--0--2--2---5---|
E|-------------------------3---|-----3---3--3-------------3-------|-------------------------------------3---|


E|----------------------------------|-----------------------------|----------------------------------|
B|----------------------------------|-----------------------------|----------------------------------|
G|---------------4------------------|-----------------------------|---------------4------------------|
D|-----5---------4--------------2---|-2---0--2--2---2----1----5---|-----5---------4--------------2---|
A|-----5---------2----2--0------2---|-2---0--2--2---3----3----5---|-----5---------2----2--0------2---|
E|-----3---3--3-------------3-------|-------------------------3---|-----3---3--3-------------3-------|


E|-----------------------------------------|----------------------------------|-----------------------------|
B|-----------------------------------------|----------------------------------|-----------------------------|
G|-----------------------------------------|---------------4------------------|-----------------------------|
D|-2---0--2--2--2--2---2--2--0--2--2---5---|-----5---------4--------------2---|-2---0--2--2---2----1----1---|
A|-2---0--2--2--2--2---2--2--0--2--2---5---|-----5---------2----2--0------2---|-2---0--2--2---3----3----3---|
E|-------------------------------------3---|-----3---3--3-------------3-------|-----------------------------|


E|------------------------------------|-------------------------------------------|
B|------------------------------------|-------------------------------------------|
G|------------------------------------|-------------------------------------------|
D|-----5--------2---2--2--5--2--2--4--|-4--2--2--2--0---2---2---2--2--5--2--2--4--|
A|-----5--------2---2--2--2--2--2--2--|-2--2--2--2--0---2---2---2--2--2--2--2--2--|
E|-----3----2-------------------------|-------------------------------------------|


E|-------------------------------------------|-------------------------------------------|
B|-------------------------------------------|-------------------------------------------|
G|-------------------------------------------|-------------------------------------------|
D|-4--2--2--2--0---2---2---2--2--5--2--2--4--|-4--2--2--2--0---2---2---2--2--5--2--2--4--|
A|-2--2--2--2--0---2---2---2--2--2--2--2--2--|-2--2--2--2--0---2---2---2--2--2--2--2--2--|
E|-------------------------------------------|-------------------------------------------|


E|-----------------------------|-------------------------------------------|-------------------------------------------|
B|-----------------------------|-------------------------------------------|-------------------------------------------|
G|-----------------------------|-------------------------------------------|-------------------------------------------|
D|-4-----2---2--2--5--2--2--4--|-4--2--2--2--0---2---2---2--2--5--2--2--4--|-4--2--2--2--0---2---2---2--2--5--2--2--4--|
A|-2-----2---2--2--2--2--2--2--|-2--2--2--2--0---2---2---2--2--2--2--2--2--|-2--2--2--2--0---2---2---2--2--2--2--2--2--|
E|-----------------------------|-------------------------------------------|-------------------------------------------|


E|-------------------------------------------|--------------------|---------------------------------|
B|-------------------------------------------|--------------------|---------------------------------|
G|-------------------------------------------|--------------------|---------------------------------|
D|-4--2--2--2--0---2---2---2--2--5--2--2--4--|-4-----2----2---2---|-5---2---2---4---4---2---2---2---|
A|-2--2--2--2--0---2---2---2--2--2--2--2--2--|-2-----2----2---2---|-2---2---2---2---2---2---2---2---|
E|-------------------------------------------|--------------------|---------------------------------|


E|------------------------|---------------------------------|------------------------|
B|------------------------|---------------------------------|------------------------|
G|------------------------|---------------------------------|------------------------|
D|-0----2----2----2---2---|-5---2---2---4---4---2---2---2---|-0----2----2----2---2---|
A|-0----2----2----2---2---|-2---2---2---2---2---2---2---2---|-0----2----2----2---2---|
E|------------------------|---------------------------------|------------------------|


E|---------------------------------|------------------------|-----------------------|
B|---------------------------------|------------------------|-----------------------|
G|---------------------------------|------------------------|-----------------------|
D|-5---2---2---4---4---2---2---2---|-0----2----2----2---2---|-5---2---2---4---4-----|
A|-2---2---2---2---2---2---2---2---|-0----2----2----2---2---|-2---2---2---2---2-----|
E|---------------------------------|------------------------|-----------------------|


E|--------------------|---------------------------------|------------------------|
B|--------------------|---------------------------------|------------------------|
G|--------------------|---------------------------------|------------------------|
D|-------2----2---2---|-5---2---2---4---4---2---2---2---|-0----2----2----2---2---|
A|-------2----2---2---|-2---2---2---2---2---2---2---2---|-0----2----2----2---2---|
E|--------------------|---------------------------------|------------------------|


E|---------------------------------|------------------------|---------------------------------|
B|---------------------------------|------------------------|---------------------------------|
G|---------------------------------|------------------------|---------------------------------|
D|-5---2---2---4---4---2---2---2---|-0----2----2----2---2---|-5---2---2---4---4---2---2---2---|
A|-2---2---2---2---2---2---2---2---|-0----2----2----2---2---|-2---2---2---2---2---2---2---2---|
E|---------------------------------|------------------------|---------------------------------|


E|------------------------|---------------------------------|------------------------|
B|------------------------|---------------------------------|------------------------|
G|------------------------|---------------------------------|------------------------|
D|-0----2----2----2---2---|-5---2---2---4---4---2---2---2---|-0----2----2----2---2---|
A|-0----2----2----2---2---|-2---2---2---2---2---2---2---2---|-0----2----2----2---2---|
E|------------------------|---------------------------------|------------------------|


E|---------------------------------|------------------------|---------------------------------|
B|---------------------------------|------------------------|---------------------------------|
G|---------------------------------|------------------------|---------------------------------|
D|-5---2---2---4---4---2---2---2---|-0----2----2----2---2---|-5---2---2---4---4---2---2---2---|
A|-2---2---2---2---2---2---2---2---|-0----2----2----2---2---|-2---2---2---2---2---2---2---2---|
E|---------------------------------|------------------------|---------------------------------|


E|------------------------|---------------------------------|------------------------|
B|------------------------|---------------------------------|------------------------|
G|------------------------|---------------------------------|------------------------|
D|-0----2----2----2---2---|-5---2---2---4---4---2---2---2---|-0----2----2----2---2---|
A|-0----2----2----2---2---|-2---2---2---2---2---2---2---2---|-0----2----2----2---2---|
E|------------------------|---------------------------------|------------------------|


E|---------------------------------|---------------------------|------------------------------|
B|---------------------------------|---------------------------|------------------------------|
G|---------------------------------|---------------------------|-0----------------------------|
D|-5---2---2---4---4---2---2---2---|-0----2------------2-------|------0---2-----------2-------|
A|-2---2---2---2---2---2---2---2---|-0----2------------2-------|----------------------2-------|
E|---------------------------------|-----------0---0-------0---|--------------0---0-------0---|


E|------------------------------|---------------------------|------------------------------|
B|------------------------------|---------------------------|------------------------------|
G|-0----------------------------|-0-------------------------|------------------------------|
D|------0---2-----------2-------|------0---2-----------5----|---------7------------2-------|
A|----------------------2-------|----------------------5----|---------7------------2-------|
E|--------------0---0-------0---|--------------0---0---3----|-0---0---5----0---0-------0---|


E|------------------------------|------------------------------|---------------------------|
B|------------------------------|------------------------------|---------------------------|
G|-0----------------------------|-0----------------------------|-0-------------------------|
D|------0---2-----------2-------|------0---2-----------2-------|------0---2-----------7----|
A|----------------------2-------|----------------------2-------|----------------------7----|
E|--------------0---0-------0---|--------------0---0-------0---|--------------0---0---5----|


E|------------------------------|------------------------------|------------------------------|
B|------------------------------|------------------------------|------------------------------|
G|------------------------------|-0----------------------------|-0----------------------------|
D|---------8------------2-------|------0---2-----------2-------|------0---2-----------2-------|
A|---------8------------2-------|----------------------2-------|----------------------2-------|
E|-0---0---6----0---0-------0---|--------------0---0-------0---|--------------0---0-------0---|


E|---------------------------|------------------------------|------------------------------|
B|---------------------------|------------------------------|------------------------------|
G|-0-------------------------|------------------------------|-0----------------------------|
D|------0---2-----------5----|---------7------------2-------|------0---2-----------2-------|
A|----------------------5----|---------7------------2-------|----------------------2-------|
E|--------------0---0---3----|-0---0---5----0---0-------0---|--------------0---0-------0---|


E|------------------------------|---------------------------|--------------------|
B|------------------------------|---------------------------|--------------------|
G|-0----------------------------|-0-------------------------|--------------------|
D|------0---2-----------2-------|------0---2-----------7----|---------8----8-----|
A|----------------------2-------|----------------------7----|---------8----8-----|
E|--------------0---0-------0---|--------------0---0---5----|-0---0---6----6-----|


E|----------------------|------------------------------------|------------------------------------|
B|----------------------|------------------------------------|------------------------------------|
G|----------------------|-4----------------------------------|------------------------------------|
D|-7-----5----5---------|-4--------------2---2---0--2--2--2--|-2---2--2--0--2--2---5----5---------|
A|-7-----5----5---------|-2----2--0------2---2---0--2--2--2--|-2---2--2--0--2--2---5----5---------|
E|-5-----3----3---3--3--|------------3-----------------------|---------------------3----3---3--3--|


E|----------------------------------|--------------------------|------------------------------------|
B|----------------------------------|--------------------------|------------------------------------|
G|-4--------------------------------|--------------------------|-4----------------------------------|
D|-4--------------2---2---0--2--2---|-2----1----5----5---------|-4--------------2---2---0--2--2--2--|
A|-2----2--0------2---2---0--2--2---|-3----3----5----5---------|-2----2--0------2---2---0--2--2--2--|
E|------------3---------------------|-----------3----3---3--3--|------------3-----------------------|


E|------------------------------------|----------------------------------|--------------------------|
B|------------------------------------|----------------------------------|--------------------------|
G|------------------------------------|-4--------------------------------|--------------------------|
D|-2---2--2--0--2--2---5----5---------|-4--------------2---2---0--2--2---|-2----1----5----5---------|
A|-2---2--2--0--2--2---5----5---------|-2----2--0------2---2---0--2--2---|-3----3----5----5---------|
E|---------------------3----3---3--3--|------------3---------------------|-----------3----3---3--3--|


E|------------------------------------|------------------------------------|----------------------------------|
B|------------------------------------|------------------------------------|----------------------------------|
G|-4----------------------------------|------------------------------------|-4--------------------------------|
D|-4--------------2---2---0--2--2--2--|-2---2--2--0--2--2---5----5---------|-4--------------2---2---0--2--2---|
A|-2----2--0------2---2---0--2--2--2--|-2---2--2--0--2--2---5----5---------|-2----2--0------2---2---0--2--2---|
E|------------3-----------------------|---------------------3----3---3--3--|------------3---------------------|


E|--------------------------|------------------------------------|------------------------------------|
B|--------------------------|------------------------------------|------------------------------------|
G|--------------------------|-4----------------------------------|------------------------------------|
D|-2----1----5----5---------|-4--------------2---2---0--2--2--2--|-2---2--2--0--2--2---5----5---------|
A|-3----3----5----5---------|-2----2--0------2---2---0--2--2--2--|-2---2--2--0--2--2---5----5---------|
E|-----------3----3---3--3--|------------3-----------------------|---------------------3----3---3--3--|


E|----------------------------------|---------------------|------------------------------|
B|----------------------------------|---------------------|------------------------------|
G|-4--------------------------------|---------------------|------------------------------|
D|-4--------------2---2---0--2--2---|-2----1----1----5----|-----2----2---2---5---2---2---|
A|-2----2--0------2---2---0--2--2---|-3----3----3----5----|-----2----2---2---2---2---2---|
E|------------3---------------------|----------------3----|-2----------------------------|


E|------------------------------|------------------------------|------------------------------|
B|------------------------------|------------------------------|------------------------------|
G|------------------------------|------------------------------|------------------------------|
D|-4---4---2---2---2---0----2---|-----2----2---2---5---2---2---|-4---4---2---2---2---0----2---|
A|-2---2---2---2---2---0----2---|-----2----2---2---2---2---2---|-2---2---2---2---2---0----2---|
E|------------------------------|------------------------------|------------------------------|


E|------------------------------|------------------------------|------------------------------|
B|------------------------------|------------------------------|------------------------------|
G|------------------------------|------------------------------|------------------------------|
D|-----2----2---2---5---2---2---|-4---4---2---2---2---0----2---|-----2----2---2---5---2---2---|
A|-----2----2---2---2---2---2---|-2---2---2---2---2---0----2---|-----2----2---2---2---2---2---|
E|------------------------------|------------------------------|------------------------------|


E|------------|------------------------------|------------------------------|------------------------------|
B|------------|------------------------------|------------------------------|------------------------------|
G|------------|------------------------------|------------------------------|------------------------------|
D|-4---4------|-----2----2---2---5---2---2---|-4---4---2---2---2---0----2---|-----2----2---2---5---2---2---|
A|-2---2------|-----2----2---2---2---2---2---|-2---2---2---2---2---0----2---|-----2----2---2---2---2---2---|
E|------------|------------------------------|------------------------------|------------------------------|


E|------------------------------|------------------------------|------------------------------|
B|------------------------------|------------------------------|------------------------------|
G|------------------------------|------------------------------|------------------------------|
D|-4---4---2---2---2---0----2---|-----2----2---2---5---2---2---|-4---4---2---2---2---0----2---|
A|-2---2---2---2---2---0----2---|-----2----2---2---2---2---2---|-2---2---2---2---2---0----2---|
E|------------------------------|------------------------------|------------------------------|


E|------------------------------|------------|------------------------------|------------------------------|
B|------------------------------|------------|------------------------------|------------------------------|
G|------------------------------|------------|---------------------0--------|---------------------0--------|
D|-----2----2---2---5---2---2---|-4---4------|-------------2------------0---|-2-----------2------------0---|
A|-----2----2---2---2---2---2---|-2---2------|-------------2----------------|-------------2----------------|
E|------------------------------|------------|-----0---0-------0------------|-----0---0-------0------------|


E|------------------------------|------------------------------|------------------------------|
B|------------------------------|------------------------------|------------------------------|
G|---------------------0--------|------------------------------|---------------------0--------|
D|-2-----------2------------0---|-2-----------5------------7---|-------------2------------0---|
A|-------------2----------------|-------------5------------7---|-------------2----------------|
E|-----0---0-------0------------|-----0---0---3----0---0---5---|-----0---0-------0------------|


E|------------------------------|------------------------------|------------------------------|
B|------------------------------|------------------------------|------------------------------|
G|---------------------0--------|---------------------0--------|------------------------------|
D|-2-----------2------------0---|-2-----------2------------0---|-2-----------7------------8---|
A|-------------2----------------|-------------2----------------|-------------7------------8---|
E|-----0---0-------0------------|-----0---0-------0------------|-----0---0---5----0---0---6---|


E|------------------------------|------------------------------|------------------------------|
B|------------------------------|------------------------------|------------------------------|
G|---------------------0--------|---------------------0--------|---------------------0--------|
D|-------------2------------0---|-2-----------2------------0---|-2-----------2------------0---|
A|-------------2----------------|-------------2----------------|-------------2----------------|
E|-----0---0-------0------------|-----0---0-------0------------|-----0---0-------0------------|


E|------------------------------|------------------------------|------------------------------|
B|------------------------------|------------------------------|------------------------------|
G|------------------------------|---------------------0--------|---------------------0--------|
D|-2-----------5------------7---|-------------2------------0---|-2-----------2------------0---|
A|-------------5------------7---|-------------2----------------|-------------2----------------|
E|-----0---0---3----0---0---5---|-----0---0-------0------------|-----0---0-------0------------|


E|------------------------------|------------------------------|------------------------------|
B|------------------------------|------------------------------|------------------------------|
G|---------------------0--------|------------------------------|---------------------0--------|
D|-2-----------2------------0---|-2-----------7------------8---|-------------2------------0---|
A|-------------2----------------|-------------7------------8---|-------------2----------------|
E|-----0---0-------0------------|-----0---0---5----0---0---6---|-----0---0-------0------------|


E|------------------------------|------------------------------|------------------------------|
B|------------------------------|------------------------------|------------------------------|
G|---------------------0--------|---------------------0--------|------------------------------|
D|-2-----------2------------0---|-2-----------2------------0---|-2-----------5------------7---|
A|-------------2----------------|-------------2----------------|-------------5------------7---|
E|-----0---0-------0------------|-----0---0-------0------------|-----0---0---3----0---0---5---|


E|------------------------------|------------------------------|------------------------------|
B|------------------------------|------------------------------|------------------------------|
G|---------------------0--------|---------------------0--------|---------------------0--------|
D|-------------2------------0---|-2-----------2------------0---|-2-----------2------------0---|
A|-------------2----------------|-------------2----------------|-------------2----------------|
E|-----0---0-------0------------|-----0---0-------0------------|-----0---0-------0------------|


E|------------------------------|------------------------------|------------------------------|
B|------------------------------|------------------------------|------------------------------|
G|------------------------------|---------------------0--------|---------------------0--------|
D|-2-----------7------------8---|-------------2------------0---|-2-----------2------------0---|
A|-------------7------------8---|-------------2----------------|-------------2----------------|
E|-----0---0---5----0---0---6---|-----0---0-------0------------|-----0---0-------0------------|


E|------------------------------|------------------------------|------------------------------|
B|------------------------------|------------------------------|------------------------------|
G|---------------------0--------|------------------------------|---------------------0--------|
D|-2-----------2------------0---|-2-----------5------------7---|-------------2------------0---|
A|-------------2----------------|-------------5------------7---|-------------2----------------|
E|-----0---0-------0------------|-----0---0---3----0---0---5---|-----0---0-------0------------|


E|------------------------------|------------------------------|------------------------------|
B|------------------------------|------------------------------|------------------------------|
G|---------------------0--------|---------------------0--------|------------------------------|
D|-2-----------2------------0---|-2-----------2------------0---|-2-----------7------------8---|
A|-------------2----------------|-------------2----------------|-------------7------------8---|
E|-----0---0-------0------------|-----0---0-------0------------|-----0---0---5----0---0---6---|


E|---------------------|
B|---------------------|
G|---------------------|
D|-----2---------------|
A|-----2---------------|
E|-----0---------------|





Track 2: Lead Guitar

E|--------|--------|--------|--------|--------|--------|--------|--------|--------|
B|--------|--------|--------|--------|--------|--------|--------|--------|--------|
G|--------|--------|--------|--------|--------|--------|--------|--------|--------|
D|--------|--------|--------|--------|--------|--------|--------|--------|--------|
A|--------|--------|--------|--------|--------|--------|--------|--------|--------|
E|--------|--------|--------|--------|--------|--------|--------|--------|--------|


E|--------|--------|--------|--------|--------|--------|--------|--------|--------|
B|--------|--------|--------|--------|--------|--------|--------|--------|--------|
G|--------|--------|--------|--------|--------|--------|--------|--------|--------|
D|--------|--------|--------|--------|--------|--------|--------|--------|--------|
A|--------|--------|--------|--------|--------|--------|--------|--------|--------|
E|--------|--------|--------|--------|--------|--------|--------|--------|--------|


E|--------|--------|--------|--------|--------|--------|--------|--------|--------|
B|--------|--------|--------|--------|--------|--------|--------|--------|--------|
G|--------|--------|--------|--------|--------|--------|--------|--------|--------|
D|--------|--------|--------|--------|--------|--------|--------|--------|--------|
A|--------|--------|--------|--------|--------|--------|--------|--------|--------|
E|--------|--------|--------|--------|--------|--------|--------|--------|--------|


E|--------|--------|--------|--------|--------|--------|--------|--------|--------|
B|--------|--------|--------|--------|--------|--------|--------|--------|--------|
G|--------|--------|--------|--------|--------|--------|--------|--------|--------|
D|--------|--------|--------|--------|--------|--------|--------|--------|--------|
A|--------|--------|--------|--------|--------|--------|--------|--------|--------|
E|--------|--------|--------|--------|--------|--------|--------|--------|--------|


E|--------|--------|--------|--------|--------|--------|--------|--------|--------|
B|--------|--------|--------|--------|--------|--------|--------|--------|--------|
G|--------|--------|--------|--------|--------|--------|--------|--------|--------|
D|--------|--------|--------|--------|--------|--------|--------|--------|--------|
A|--------|--------|--------|--------|--------|--------|--------|--------|--------|
E|--------|--------|--------|--------|--------|--------|--------|--------|--------|


E|--------|--------|--------|--------|--------|--------|--------|--------|--------|
B|--------|--------|--------|--------|--------|--------|--------|--------|--------|
G|--------|--------|--------|--------|--------|--------|--------|--------|--------|
D|--------|--------|--------|--------|--------|--------|--------|--------|--------|
A|--------|--------|--------|--------|--------|--------|--------|--------|--------|
E|--------|--------|--------|--------|--------|--------|--------|--------|--------|


E|--------|--------|--------|--------|--------|--------|--------|--------|--------|
B|--------|--------|--------|--------|--------|--------|--------|--------|--------|
G|--------|--------|--------|--------|--------|--------|--------|--------|--------|
D|--------|--------|--------|--------|--------|--------|--------|--------|--------|
A|--------|--------|--------|--------|--------|--------|--------|--------|--------|
E|--------|--------|--------|--------|--------|--------|--------|--------|--------|


E|--------|--------|--------|--------|--------|--------|--------|--------|--------|
B|--------|--------|--------|--------|--------|--------|--------|--------|--------|
G|--------|--------|--------|--------|--------|--------|--------|--------|--------|
D|--------|--------|--------|--------|--------|--------|--------|--------|--------|
A|--------|--------|--------|--------|--------|--------|--------|--------|--------|
E|--------|--------|--------|--------|--------|--------|--------|--------|--------|


E|--------|--------|--------|--------|--------|--------|--------|--------|--------|
B|--------|--------|--------|--------|--------|--------|--------|--------|--------|
G|--------|--------|--------|--------|--------|--------|--------|--------|--------|
D|--------|--------|--------|--------|--------|--------|--------|--------|--------|
A|--------|--------|--------|--------|--------|--------|--------|--------|--------|
E|--------|--------|--------|--------|--------|--------|--------|--------|--------|


E|--------|--------|--------|--------|--------|--------|--------|--------|--------|
B|--------|--------|--------|--------|--------|--------|--------|--------|--------|
G|--------|--------|--------|--------|--------|--------|--------|--------|--------|
D|--------|--------|--------|--------|--------|--------|--------|--------|--------|
A|--------|--------|--------|--------|--------|--------|--------|--------|--------|
E|--------|--------|--------|--------|--------|--------|--------|--------|--------|


E|--------|--------|--------|--------|--------|--------|--------|--------|--------|
B|--------|--------|--------|--------|--------|--------|--------|--------|--------|
G|--------|--------|--------|--------|--------|--------|--------|--------|--------|
D|--------|--------|--------|--------|--------|--------|--------|--------|--------|
A|--------|--------|--------|--------|--------|--------|--------|--------|--------|
E|--------|--------|--------|--------|--------|--------|--------|--------|--------|


E|--------|--------|--------|--------|--------|--------|--------|--------|--------|
B|--------|--------|--------|--------|--------|--------|--------|--------|--------|
G|--------|--------|--------|--------|--------|--------|--------|--------|--------|
D|--------|--------|--------|--------|--------|--------|--------|--------|--------|
A|--------|--------|--------|--------|--------|--------|--------|--------|--------|
E|--------|--------|--------|--------|--------|--------|--------|--------|--------|


E|--------|--------|--------|-----------------|---------------------|---------------------|
B|--------|--------|--------|------------12---|-15---12--------12---|-15---12--------12---|
G|--------|--------|--------|-------14--------|-----------14--------|-----------14--------|
D|--------|--------|--------|-----------------|---------------------|---------------------|
A|--------|--------|--------|-----------------|---------------------|---------------------|
E|--------|--------|--------|-----------------|---------------------|---------------------|


E|---------------------|---------------------------|---------------------------------|
B|-15---12--------12---|-15---12-------12--15--12--|-----12--15--12------12--15--12--|
G|-----------14--------|-----------14--------------|-14--------------14--------------|
D|---------------------|---------------------------|---------------------------------|
A|---------------------|---------------------------|---------------------------------|
E|---------------------|---------------------------|---------------------------------|


E|---------------------------|---------------------------------|---------------------------------|
B|-----12--15--12--15---15---|-15--15--12--13------------------|---------------------------------|
G|-14------------------------|-----------------14--14--14--14--|-14--14--14--14----------12------|
D|---------------------------|---------------------------------|-----------------12--14------14--|
A|---------------------------|---------------------------------|---------------------------------|
E|---------------------------|---------------------------------|---------------------------------|


E|---------------------------------|---------------------------------|-------------------------------------------------|
B|---------------------------------|---------------------------------|-------------------------------------------------|
G|-14--14--12--------------12------|-14--14--12--------------12------|-14--14--14--14--14--14--14--14--14--14--14--14--|
D|-------------14--12--14------14--|-------------14--12--14------14--|-------------------------------------------------|
A|---------------------------------|---------------------------------|-------------------------------------------------|
E|---------------------------------|---------------------------------|-------------------------------------------------|


E|---------------12------12--|-14------14------15------15------|-17------17------19--19--17--19--|
B|-----------15------15------|-----17------17------18------18--|-----20------20------------------|
G|-12------------------------|---------------------------------|---------------------------------|
D|-----14--------------------|---------------------------------|---------------------------------|
A|---------------------------|---------------------------------|---------------------------------|
E|---------------------------|---------------------------------|---------------------------------|


E|-20--20--19--20--22--22--20--22--|-22---22---22----|-------22----|-------------|
B|---------------------------------|-----------------|-------------|-------------|
G|---------------------------------|-----------------|-------------|-------------|
D|---------------------------------|-----------------|-------------|-------------|
A|---------------------------------|-----------------|-------------|-------------|
E|---------------------------------|-----------------|-------------|-------------|


E|-------------|--------|--------|--------|--------|--------|--------|--------|--------|
B|-------------|--------|--------|--------|--------|--------|--------|--------|--------|
G|-------------|--------|--------|--------|--------|--------|--------|--------|--------|
D|-------------|--------|--------|--------|--------|--------|--------|--------|--------|
A|-------------|--------|--------|--------|--------|--------|--------|--------|--------|
E|-------------|--------|--------|--------|--------|--------|--------|--------|--------|


E|--------|--------|--------|--------|--------|--------|--------|--------|--------|
B|--------|--------|--------|--------|--------|--------|--------|--------|--------|
G|--------|--------|--------|--------|--------|--------|--------|--------|--------|
D|--------|--------|--------|--------|--------|--------|--------|--------|--------|
A|--------|--------|--------|--------|--------|--------|--------|--------|--------|
E|--------|--------|--------|--------|--------|--------|--------|--------|--------|


E|--------|--------|--------|--------|--------|--------|--------|--------|--------|
B|--------|--------|--------|--------|--------|--------|--------|--------|--------|
G|--------|--------|--------|--------|--------|--------|--------|--------|--------|
D|--------|--------|--------|--------|--------|--------|--------|--------|--------|
A|--------|--------|--------|--------|--------|--------|--------|--------|--------|
E|--------|--------|--------|--------|--------|--------|--------|--------|--------|


E|--------|--------|--------|--------|--------|--------|--------|--------|--------|
B|--------|--------|--------|--------|--------|--------|--------|--------|--------|
G|--------|--------|--------|--------|--------|--------|--------|--------|--------|
D|--------|--------|--------|--------|--------|--------|--------|--------|--------|
A|--------|--------|--------|--------|--------|--------|--------|--------|--------|
E|--------|--------|--------|--------|--------|--------|--------|--------|--------|


E|--------|--------|--------|--------|--------|--------|--------|--------|--------|
B|--------|--------|--------|--------|--------|--------|--------|--------|--------|
G|--------|--------|--------|--------|--------|--------|--------|--------|--------|
D|--------|--------|--------|--------|--------|--------|--------|--------|--------|
A|--------|--------|--------|--------|--------|--------|--------|--------|--------|
E|--------|--------|--------|--------|--------|--------|--------|--------|--------|


E|--------|--------|---------------------------------------|-----------------------------------------|
B|--------|--------|-----15--12-12-15--12-12-15--12-12-15--|-12-12-15--12-12-15--12-12-15--12-12-15--|
G|--------|--------|---------------------------------------|-----------------------------------------|
D|--------|--------|---------------------------------------|-----------------------------------------|
A|--------|--------|---------------------------------------|-----------------------------------------|
E|--------|--------|---------------------------------------|-----------------------------------------|


E|-------------------------------------------------|-------------------------------------------------|
B|-12-12-15-15-12-12-15-15-12-12-15-15-12-12-15-15-|-12-12-15-15-12-12-15-15-12-12-15-15-12-12-15-15-|
G|-------------------------------------------------|-------------------------------------------------|
D|-------------------------------------------------|-------------------------------------------------|
A|-------------------------------------------------|-------------------------------------------------|
E|-------------------------------------------------|-------------------------------------------------|


E|---------------12--15--12----------12--15-|----12----------12--15--12----------12--15-|
B|-12-12-15--15--------------15--15---------|--------15--15--------------15--15---------|
G|------------------------------------------|-------------------------------------------|
D|------------------------------------------|-------------------------------------------|
A|------------------------------------------|-------------------------------------------|
E|------------------------------------------|-------------------------------------------|


E|----12----------12--15--12----------12--15-|----12----------12--15--12----------12--15-|
B|--------15--15--------------15--15---------|--------15--15--------------15--15---------|
G|-------------------------------------------|-------------------------------------------|
D|-------------------------------------------|-------------------------------------------|
A|-------------------------------------------|-------------------------------------------|
E|-------------------------------------------|-------------------------------------------|


E|----12--12--12-15-12-12--12-15-12-12--12-15-12-12--|-12-15-12-12--12-15-12-12--12-15-12-12--12-15-12-12--|
B|---------------------------------------------------|-----------------------------------------------------|
G|---------------------------------------------------|-----------------------------------------------------|
D|---------------------------------------------------|-----------------------------------------------------|
A|---------------------------------------------------|-----------------------------------------------------|
E|---------------------------------------------------|-----------------------------------------------------|


E|-12-15-12-12--12-15-12-12--12-15-12-12--12-15-12-12--12|---15-12-12--12-15-12-12--12-15-12-12--12-15-12-12--12|
B|-------------------------------------------------------|------------------------------------------------------|
G|-------------------------------------------------------|------------------------------------------------------|
D|-------------------------------------------------------|------------------------------------------------------|
A|-------------------------------------------------------|------------------------------------------------------|
E|-------------------------------------------------------|------------------------------------------------------|


E|---15-12-12-15-12----12-15-12----12-15-12----12-15-|-12----14-17-14----14-17-14----14-17-14----14-17-|
B|------------------15----------15----------15-------|----15----------17----------17----------17-------|
G|---------------------------------------------------|-------------------------------------------------|
D|---------------------------------------------------|-------------------------------------------------|
A|---------------------------------------------------|-------------------------------------------------|
E|---------------------------------------------------|-------------------------------------------------|


E|-14----15-18-15----15-18-15----15-18-15----15-18-|-15----17-20-17----17-20-17----19-22-19----19-22-|
B|----17----------18----------18----------18-------|----18----------20----------20----------22-------|
G|-------------------------------------------------|-------------------------------------------------|
D|-------------------------------------------------|-------------------------------------------------|
A|-------------------------------------------------|-------------------------------------------------|
E|-------------------------------------------------|-------------------------------------------------|


E|-19----22-----|-----22-----|------------|------------|--------|--------|--------|
B|----22--------|------------|------------|------------|--------|--------|--------|
G|--------------|------------|------------|------------|--------|--------|--------|
D|--------------|------------|------------|------------|--------|--------|--------|
A|--------------|------------|------------|------------|--------|--------|--------|
E|--------------|------------|------------|------------|--------|--------|--------|


E|--------|--------|--------|--------|--------|--------|--------|--------|--------|
B|--------|--------|--------|--------|--------|--------|--------|--------|--------|
G|--------|--------|--------|--------|--------|--------|--------|--------|--------|
D|--------|--------|--------|--------|--------|--------|--------|--------|--------|
A|--------|--------|--------|--------|--------|--------|--------|--------|--------|
E|--------|--------|--------|--------|--------|--------|--------|--------|--------|


E|--------|
B|--------|
G|--------|
D|--------|
A|--------|
E|--------|





Track 3: Untitled

G|------------------------------------------|-----------------------------------------------|
D|------------5--7--7--5--7--9--9--7--5--7--|-7--5------------5--7--7--5--4--5--5--4--2--4--|
A|---------7--------------------------------|-------7------7--------------------------------|
E|------0-----------------------------------|-----------0-----------------------------------|


G|---------------------------------------------|-----------------------------------------------|
D|-4---0---------5--7--7--5--7--9--9--7--5--7--|-7--5------------5--7--7--5--4--5--5--4--2--4--|
A|------------7--------------------------------|-------7------7--------------------------------|
E|---------0-----------------------------------|-----------0-----------------------------------|


G|---------------------------------------------|-----------------------------------------------|
D|-4---0---------5--7--7--5--7--9--9--7--5--7--|-7--5------------5--7--7--5--4--5--5--4--2--4--|
A|------------7--------------------------------|-------7------7--------------------------------|
E|---------0-----------------------------------|-----------0-----------------------------------|


G|---------------------------------------------|-----------------------------------------------|
D|-4---0---------5--7--7--5--7--9--9--7--5--7--|-7--5------------5--7--7--5--4--5--5--4--2--4--|
A|------------7--------------------------------|-------7------7--------------------------------|
E|---------0-----------------------------------|-----------0-----------------------------------|


G|----------------|----------------|----------------|-----------------------|----------------------------------------|
D|-4---0---2------|-0---2---2------|-0---2---2------|-0---2---2-----4--4----|------2---2--2--5--2--2--4--4--2--2--2--|
A|----------------|----------------|----------------|-----------------------|----------------------------------------|
E|----------------|----------------|----------------|-----------------------|----------------------------------------|


G|-------------------------------------------|-------------------------------------------|
D|-0---2---2---2--2--5--2--2--4--4--2--2--2--|-0---2---2---2--2--5--2--2--4--4--2--2--2--|
A|-------------------------------------------|-------------------------------------------|
E|-------------------------------------------|-------------------------------------------|


G|------------------------------------|----------------------------------------|-------------------------------------------|
D|-0---2---2---2--2--5--2--2--4--4----|------2---2--2--5--2--2--4--4--2--2--2--|-0---2---2---2--2--5--2--2--4--4--2--2--2--|
A|------------------------------------|----------------------------------------|-------------------------------------------|
E|------------------------------------|----------------------------------------|-------------------------------------------|


G|-------------------------------------------|-------------------------------------------|
D|-0---2---------------2---2--2--5--2--2--4--|-4--2--2--2--0---2---2---2--2--5--2--2--4--|
A|-------------------------------------------|-------------------------------------------|
E|---------24-24-24-24-----------------------|-------------------------------------------|


G|---------------------------------------------|-------------------------------------------------|
D|-4--2--2--2--0---2---------------------------|-------------------------------------------------|
A|---------------------------------------------|-------------------------------------------------|
E|---------------------24-24-24-24-0--0--0--0--|-3--3--3--3--2--2--2--2--1--1--1--1--0--0--0--0--|


G|-------------------------------------------------|-------------------------------------------------|
D|-------------------------------------------------|-------------------------------------------------|
A|-------------------------------------------------|-------------------------------------------------|
E|-0--2--3--2--0--0--0--0--3--3--3--3--2--2--2--2--|-1--1--1--1--0--0--0--0--3--3--3--3--2--2--2--2--|


G|-------------------------------------------------|-------------------------------------------------|
D|-------------------------------------------------|-------------------------------------------------|
A|-------------------------------------------------|-------------------------------------------------|
E|-1--1--1--1--0--0--0--0--3--3--3--3--2--2--2--2--|-1--1--1--1--0--0--0--0--3--3--3--3--2--2--2--2--|


G|-------------------------------------------------|-------------------------------------------------|
D|-------------------------------------------------|-------------------------------------------------|
A|-------------------------------------------------|-------------------------------------------------|
E|-1--1--1--1--0--0--0--0--3--3--3--3--2--2--2--2--|-1--1--1--1--0--0--0--0--3--3--3--3--2--2--2--2--|


G|-------------------------------------------------|-------------------------------------------------|
D|-------------------------------------------------|-------------------------------------------------|
A|-------------------------------------------------|-------------------------------------------------|
E|-1--1--1--1--0--0--0--0--3--3--3--3--2--2--2--2--|-1--1--1--1--0--0--0--0--3--3--3--3--2--2--2--2--|


G|-------------------------------------------------|-------------------------------------------------|
D|-------------------------------------------------|-------------------------------------------------|
A|-------------------------------------------------|-------------------------------------------------|
E|-1--1--1--1--0--0--0--0--3--3--3--3--2--2--2--2--|-1--1--1--1--0--0--0--0--3--3--3--3--2--2--2--2--|


G|-------------------------------------------------|-------------------------------------------------|
D|-------------------------------------------------|-------------------------------------------------|
A|-------------------------------------------------|-------------------------------------------------|
E|-1--1--1--1--0--0--0--0--3--3--3--3--2--2--2--2--|-1--1--1--1--0--0--0--0--3--3--3--3--2--2--2--2--|


G|-------------------------------------------------|-------------------------------------------------|
D|-------------------------------------------------|-------------------------------------------------|
A|-------------------------------------------------|-------------------------------------------------|
E|-1--1--1--1--0--0--0--0--3--3--3--3--2--2--2--2--|-1--1--1--1--0--0--0--0--3--3--3--3--2--2--2--2--|


G|-------------------------------------------------|-------------------------------------------------|
D|-------------------------------------------------|-------------------------------------------------|
A|-------------------------------------------------|-------------------------------------------------|
E|-1--1--1--1--0--0--0--0--3--3--3--3--2--2--2--2--|-1--1--1--1--0--0--0--0--3--3--3--3--2--2--2--2--|


G|----------------------------|---------------------------------------|--------------------------|
D|----------------------------|---------------------------------------|--------------------------|
A|-----------------------2----|-----5---7-------5--7--10-7--7---10-7--|-9--7--7-------------2----|
E|-1--1--1--1--3-----3--------|--------------0------------------------|-----------3-----3--------|


G|-----------------------------------|------------------------|---------------------------------------|
D|-----------------------------------|------------------------|---------------------------------------|
A|-----5---7-------5--7--7---7----7--|-6----6------------2----|-----5---7-------5--7--10-7--7---10-7--|
E|--------------0--------------------|---------3-----3--------|--------------0------------------------|


G|--------------------------|-----------------------------------|------------------------|
D|--------------------------|-----------------------------------|------------------------|
A|-9--7--7-------------2----|-----5---7-------5--7--7---7----7--|-6----6------------2----|
E|-----------3-----3--------|--------------0--------------------|---------3-----3--------|


G|---------------------------------------|--------------------------|-----------------------------------|
D|---------------------------------------|--------------------------|-----------------------------------|
A|-----5---7-------5--7--10-7--7---10-7--|-9--7--7-------------2----|-----5---7-------5--7--7---7----7--|
E|--------------0------------------------|-----------3-----3--------|--------------0--------------------|


G|------------------------|---------------------------------------|--------------------------|
D|------------------------|---------------------------------------|--------------------------|
A|-6----6------------2----|-----5---7-------5--7--10-7--7---10-7--|-9--7--7-------------2----|
E|---------3-----3--------|--------------0------------------------|-----------3-----3--------|


G|-----------------------------------|---------------------------|-------------------------------------------|
D|-----------------------------------|-----------------------2---|-2--2--5--2--2--4--4--2--2--2--0---2---2---|
A|-----5---7-------5--7--7---7----7--|-6----6--6----5----4-------|-------------------------------------------|
E|--------------0--------------------|---------------------------|-------------------------------------------|


G|-------------------------------------------|-------------------------------------------|
D|-2--2--5--2--2--4--4--2--2--2--0---2---2---|-2--2--5--2--2--4--4--2--2--2--0---2---2---|
A|-------------------------------------------|-------------------------------------------|
E|-------------------------------------------|-------------------------------------------|


G|-----------------------------|-------------------------------------------|-------------------------------------------|
D|-2--2--5--2--2--4--4-----2---|-2--2--5--2--2--4--4--2--2--2--0---2---2---|-2--2--5--2--2--4--4--2--2--2--0---2---2---|
A|-----------------------------|-------------------------------------------|-------------------------------------------|
E|-----------------------------|-------------------------------------------|-------------------------------------------|


G|-------------------------------------------|-------------------------------|-------------------------------------------------|
D|-2--2--5--2--2--4--4--2--2--2--0---2---2---|-2--2--5--2--2--4--4-----------|-------------------------------------------------|
A|-------------------------------------------|-------------------------------|-------------------------------------------------|
E|-------------------------------------------|-------------------------0--0--|-0--0--3--3--3--3--2--2--2--2--1--1--1--1--0--0--|


G|-------------------------------------------------|-------------------------------------------------|
D|-------------------------------------------------|-------------------------------------------------|
A|-------------------------------------------------|-------------------------------------------------|
E|-0--0--3--3--3--3--2--2--2--2--1--1--1--1--0--0--|-0--0--3--3--3--3--2--2--2--2--1--1--1--1--0--0--|


G|-------------------------------------------------|-------------------------------------------------|
D|-------------------------------------------------|-------------------------------------------------|
A|-------------------------------------------------|-------------------------------------------------|
E|-0--0--3--3--3--3--2--2--2--2--1--1--1--1--0--0--|-0--0--3--3--3--3--2--2--2--2--1--1--1--1--0--0--|


G|-------------------------------------------------|-------------------------------------------------|
D|-------------------------------------------------|-------------------------------------------------|
A|-------------------------------------------------|-------------------------------------------------|
E|-0--0--3--3--3--3--2--2--2--2--1--1--1--1--0--0--|-0--0--3--3--3--3--2--2--2--2--1--1--1--1--0--0--|


G|-------------------------------------------------|-------------------------------------------------|
D|-------------------------------------------------|-------------------------------------------------|
A|-------------------------------------------------|-------------------------------------------------|
E|-0--0--3--3--3--3--2--2--2--2--1--1--1--1--0--0--|-0--0--3--3--3--3--2--2--2--2--1--1--1--1--0--0--|


G|-------------------------------------------------|-------------------------------------------------|
D|-------------------------------------------------|-------------------------------------------------|
A|-------------------------------------------------|-------------------------------------------------|
E|-0--0--3--3--3--3--2--2--2--2--1--1--1--1--0--0--|-0--0--3--3--3--3--2--2--2--2--1--1--1--1--0--0--|


G|-------------------------------------------------|-------------------------------------------------|
D|-------------------------------------------------|-------------------------------------------------|
A|-------------------------------------------------|-------------------------------------------------|
E|-0--0--3--3--3--3--2--2--2--2--1--1--1--1--0--0--|-0--0--3--3--3--3--2--2--2--2--1--1--1--1--0--0--|


G|-------------------------------------------------|-------------------------------------------------|
D|-------------------------------------------------|-------------------------------------------------|
A|-------------------------------------------------|-------------------------------------------------|
E|-0--0--3--3--3--3--2--2--2--2--1--1--1--1--0--0--|-0--0--3--3--3--3--2--2--2--2--1--1--1--1--0--0--|


G|-----------------------------------------------|------------------------|-------------------------------------------|
D|-----------------------------------------------|------------------------|-------------------------------------------|
A|-----------------------------------------------|----------2-----5---7---|-------5--7--10-7--7---10-7--9--7--7-------|
E|-0--0--3--3--3--3--2--2--2--2--1--1--1--1--3---|------3-----------------|----0----------------------------------3---|


G|------------------------|-------------------------------------|------------------------|
D|------------------------|-------------------------------------|------------------------|
A|----------2-----5---7---|-------5--7--7---7----7--6----6------|----------2-----5---7---|
E|------3-----------------|----0----------------------------3---|------3-----------------|


G|-------------------------------------------|------------------------|-------------------------------------|
D|-------------------------------------------|------------------------|-------------------------------------|
A|-------5--7--10-7--7---10-7--9--7--7-------|----------2-----5---7---|-------5--7--7---7----7--6----6------|
E|----0----------------------------------3---|------3-----------------|----0----------------------------3---|


G|------------------------|-------------------------------------------|------------------------|
D|------------------------|-------------------------------------------|------------------------|
A|----------2-----5---7---|-------5--7--10-7--7---10-7--9--7--7-------|----------2-----5---7---|
E|------3-----------------|----0----------------------------------3---|------3-----------------|


G|-------------------------------------|------------------------|-------------------------------------------|
D|-------------------------------------|------------------------|-------------------------------------------|
A|-------5--7--7---7----7--6----6------|----------2-----5---7---|-------5--7--10-7--7---10-7--9--7--7-------|
E|----0----------------------------3---|------3-----------------|----0----------------------------------3---|


G|------------------------|-------------------------------------|------------------------------------|
D|------------------------|-------------------------------------|--------------2---2--2--5--2--2--4--|
A|----------2-----5---7---|-------5--7--7---7----7--6----6--6---|-----5----4-------------------------|
E|------3-----------------|----0--------------------------------|------------------------------------|


G|-------------------------------------------|-------------------------------------------|
D|-4--2--2--2--0---2---2---2--2--5--2--2--4--|-4--2--2--2--0---2---2---2--2--5--2--2--4--|
A|-------------------------------------------|-------------------------------------------|
E|-------------------------------------------|-------------------------------------------|


G|-------------------------------------------|-----------------------------|-------------------------------------------|
D|-4--2--2--2--0---2---2---2--2--5--2--2--4--|-4-----2---2--2--5--2--2--4--|-4--2--2--2--0---2---2---2--2--5--2--2--4--|
A|-------------------------------------------|-----------------------------|-------------------------------------------|
E|-------------------------------------------|-----------------------------|-------------------------------------------|


G|-------------------------------------------|-------------------------------------------|
D|-4--2--2--2--0---2---2---2--2--5--2--2--4--|-4--2--2--2--0---2---2---2--2--5--2--2--4--|
A|-------------------------------------------|-------------------------------------------|
E|-------------------------------------------|-------------------------------------------|


G|--------------------|---------------------------------|------------------------|
D|-4-----2----2---2---|-5---2---2---4---4---2---2---2---|-0----2----2----2---2---|
A|--------------------|---------------------------------|------------------------|
E|--------------------|---------------------------------|------------------------|


G|---------------------------------|------------------------|---------------------------------|
D|-5---2---2---4---4---2---2---2---|-0----2----2----2---2---|-5---2---2---4---4---2---2---2---|
A|---------------------------------|------------------------|---------------------------------|
E|---------------------------------|------------------------|---------------------------------|


G|------------------------|-----------------------|--------------------|---------------------------------|
D|-0----2----2----2---2---|-5---2---2---4---4-----|-------2----2---2---|-5---2---2---4---4---2---2---2---|
A|------------------------|-----------------------|--------------------|---------------------------------|
E|------------------------|-----------------------|--------------------|---------------------------------|


G|------------------------|---------------------------------|------------------------|
D|-0----2----2----2---2---|-5---2---2---4---4---2---2---2---|-0----2----2----2---2---|
A|------------------------|---------------------------------|------------------------|
E|------------------------|---------------------------------|------------------------|


G|---------------------------------|------------------------|---------------------------------|
D|-5---2---2---4---4---2---2---2---|-0----2----2----2---2---|-5---2---2---4---4---2---2---2---|
A|---------------------------------|------------------------|---------------------------------|
E|---------------------------------|------------------------|---------------------------------|


G|------------------------|---------------------------------|------------------------|
D|-0----2----2----2---2---|-5---2---2---4---4---2---2---2---|-0----2----2----2---2---|
A|------------------------|---------------------------------|------------------------|
E|------------------------|---------------------------------|------------------------|


G|---------------------------------|------------------------|---------------------------------|
D|-5---2---2---4---4---2---2---2---|-0----2----2----2---2---|-5---2---2---4---4---2---2---2---|
A|---------------------------------|------------------------|---------------------------------|
E|---------------------------------|------------------------|---------------------------------|


G|------------------------|---------------------------------|------------------------|
D|-0----2----2----2---2---|-5---2---2---4---4---2---2---2---|-0----2-----------------|
A|------------------------|---------------------------------|-------------------7----|
E|------------------------|---------------------------------|-----------0---0--------|


G|---------------------------|---------------------------|---------------------------|
D|---------------------------|---------------------------|---------------------------|
A|-10---9---7-----------7----|-10---9---7-----------7----|-10---9---7----------------|
E|--------------0---0--------|--------------0---0--------|--------------0---0---3----|


G|---------------------------|---------------------------|---------------------------|
D|---------------------------|---------------------------|---------------------------|
A|----------------------7----|-10---9---7-----------7----|-10---9---7-----------7----|
E|-0---0---5----0---0--------|--------------0---0--------|--------------0---0--------|


G|---------------------------|---------------------------|---------------------------|
D|---------------------------|---------------------------|---------------------------|
A|-10---9---7----------------|----------------------7----|-10---9---7-----------7----|
E|--------------0---0---5----|-0---0---6----0---0--------|--------------0---0--------|


G|---------------------------|---------------------------|---------------------------|
D|---------------------------|---------------------------|---------------------------|
A|-10---9---7-----------7----|-10---9---7----------------|----------------------7----|
E|--------------0---0--------|--------------0---0---3----|-0---0---5----0---0--------|


G|---------------------------|---------------------------|---------------------------|
D|---------------------------|---------------------------|---------------------------|
A|-10---9---7-----------7----|-10---9---7-----------7----|-10---9---7----------------|
E|--------------0---0--------|--------------0---0--------|--------------0---0---5----|


G|--------------------|-----------------|-------------------------------|-------------------------------|
D|--------------------|-----------------|-------------------------------|-------------------------------|
A|--------------------|-----------------|-2-----5---7-------5--7--10-7--|-7---10-7--9--7--7-------------|
E|-0---0---6----6-----|-5-----3-----3---|----------------0--------------|---------------------3-----3---|


G|-----------------------------|---------------------------|-------------------------------|
D|-----------------------------|---------------------------|-------------------------------|
A|-2-----5---7-------5--7--7---|-7----7--6----6------------|-2-----5---7-------5--7--10-7--|
E|----------------0------------|-----------------3-----3---|----------------0--------------|


G|-------------------------------|-----------------------------|---------------------------|
D|-------------------------------|-----------------------------|---------------------------|
A|-7---10-7--9--7--7-------------|-2-----5---7-------5--7--7---|-7----7--6----6------------|
E|---------------------3-----3---|----------------0------------|-----------------3-----3---|


G|-------------------------------|-------------------------------|-----------------------------|
D|-------------------------------|-------------------------------|-----------------------------|
A|-2-----5---7-------5--7--10-7--|-7---10-7--9--7--7-------------|-2-----5---7-------5--7--7---|
E|----------------0--------------|---------------------3-----3---|----------------0------------|


G|---------------------------|-------------------------------|-------------------------------|
D|---------------------------|-------------------------------|-------------------------------|
A|-7----7--6----6------------|-2-----5---7-------5--7--10-7--|-7---10-7--9--7--7-------------|
E|-----------------3-----3---|----------------0--------------|---------------------3-----3---|


G|-----------------------------|---------------------------|------------------------------|
D|-----------------------------|---------------------------|-----2----2---2---5---2---2---|
A|-2-----5---7-------5--7--7---|-7----7--6----6--6----5----|-4----------------------------|
E|----------------0------------|---------------------------|------------------------------|


G|------------------------------|------------------------------|------------------------------|
D|-4---4---2---2---2---0----2---|-----2----2---2---5---2---2---|-4---4---2---2---2---0----2---|
A|------------------------------|------------------------------|------------------------------|
E|------------------------------|------------------------------|------------------------------|


G|------------------------------|------------------------------|------------------------------|
D|-----2----2---2---5---2---2---|-4---4---2---2---2---0----2---|-----2----2---2---5---2---2---|
A|------------------------------|------------------------------|------------------------------|
E|------------------------------|------------------------------|------------------------------|


G|------------|------------------------------|------------------------------|------------------------------|
D|-4---4------|-----2----2---2---5---2---2---|-4---4---2---2---2---0----2---|-----2----2---2---5---2---2---|
A|------------|------------------------------|------------------------------|------------------------------|
E|------------|------------------------------|------------------------------|------------------------------|


G|------------------------------|------------------------------|------------------------------|
D|-4---4---2---2---2---0----2---|-----2----2---2---5---2---2---|-4---4---2---2---2---0----2---|
A|------------------------------|------------------------------|------------------------------|
E|------------------------------|------------------------------|------------------------------|


G|------------------------------|------------|---------------------------|---------------------------|
D|-----2----2---2---5---2---2---|-4---4------|---------------------------|---------------------------|
A|------------------------------|------------|-------------7----10---9---|-7-----------7----10---9---|
E|------------------------------|------------|-----0---0-----------------|-----0---0-----------------|


G|---------------------------|------------------------------|---------------------------|
D|---------------------------|------------------------------|---------------------------|
A|-7-----------7----10---9---|-7----------------------------|-------------7----10---9---|
E|-----0---0-----------------|-----0---0---3----0---0---5---|-----0---0-----------------|


G|---------------------------|---------------------------|------------------------------|
D|---------------------------|---------------------------|------------------------------|
A|-7-----------7----10---9---|-7-----------7----10---9---|-7----------------------------|
E|-----0---0-----------------|-----0---0-----------------|-----0---0---5----0---0---6---|


G|---------------------------|---------------------------|---------------------------|
D|---------------------------|---------------------------|---------------------------|
A|-------------7----10---9---|-7-----------7----10---9---|-7-----------7----10---9---|
E|-----0---0-----------------|-----0---0-----------------|-----0---0-----------------|


G|------------------------------|---------------------------|---------------------------|
D|------------------------------|---------------------------|---------------------------|
A|-7----------------------------|-------------7----10---9---|-7-----------7----10---9---|
E|-----0---0---3----0---0---5---|-----0---0-----------------|-----0---0-----------------|


G|---------------------------|------------------------------|---------------------------|
D|---------------------------|------------------------------|---------------------------|
A|-7-----------7----10---9---|-7----------------------------|-------------7----10---9---|
E|-----0---0-----------------|-----0---0---5----0---0---6---|-----0---0-----------------|


G|---------------------------|---------------------------|------------------------------|
D|---------------------------|---------------------------|------------------------------|
A|-7-----------7----10---9---|-7-----------7----10---9---|-7----------------------------|
E|-----0---0-----------------|-----0---0-----------------|-----0---0---3----0---0---5---|


G|---------------------------|---------------------------|---------------------------|
D|---------------------------|---------------------------|---------------------------|
A|-------------7----10---9---|-7-----------7----10---9---|-7-----------7----10---9---|
E|-----0---0-----------------|-----0---0-----------------|-----0---0-----------------|


G|------------------------------|---------------------------|---------------------------|
D|------------------------------|---------------------------|---------------------------|
A|-7----------------------------|-------------7----10---9---|-7-----------7----10---9---|
E|-----0---0---5----0---0---6---|-----0---0-----------------|-----0---0-----------------|


G|---------------------------|------------------------------|---------------------------|
D|---------------------------|------------------------------|---------------------------|
A|-7-----------7----10---9---|-7----------------------------|-------------7----10---9---|
E|-----0---0-----------------|-----0---0---3----0---0---5---|-----0---0-----------------|


G|---------------------------|---------------------------|------------------------------|
D|---------------------------|---------------------------|------------------------------|
A|-7-----------7----10---9---|-7-----------7----10---9---|-7----------------------------|
E|-----0---0-----------------|-----0---0-----------------|-----0---0---5----0---0---6---|


G|---------------------|
D|---------------------|
A|---------------------|
E|-----0---------------|