Menu:

 

Search:

 

olav - friday the 13th:

 



Title: Friday The 13th
Artist: 
Album: 
Author: Sponge


Track 1: Rhythm Guitar I (Drop D)

E|--------|--------|--------|--------|--------|--------|--------|--------|--------|
B|--------|--------|--------|--------|--------|--------|--------|--------|--------|
G|--------|--------|--------|--------|--------|--------|--------|--------|--------|
D|-0------|-2------|-3------|-0------|-0------|-2------|-3------|-0------|-0------|
A|-0------|-0------|-0------|-0------|-0------|-0------|-0------|-0------|-0------|
D|-0------|-0------|-0------|-0------|-0------|-0------|-0------|-0------|-0------|


E|--------|--------|--------|--------|--------|--------|---------------------------------|
B|--------|--------|--------|--------|--------|--------|---------------------------------|
G|--------|--------|--------|--------|--------|--------|---------------------------------|
D|-2------|-3------|-0------|-0------|-2------|-3------|-0---0---0---0---0---0---0---0---|
A|-0------|-0------|-0------|-0------|-0------|-0------|-0---0---0---0---0---0---0---0---|
D|-0------|-0------|-0------|-0------|-0------|-0------|-0---0---0---0---0---0---0---0---|


E|------------------------------|---------------------------|---------------------------|
B|------------------------------|---------------------------|---------------------------|
G|------------------------------|---------------------------|---------------------------|
D|-0---0---0---0--------0---2---|-3----2---3--------0---2---|-3----2---3--------0---2---|
A|-0---0---0---0---0----0---0---|-0----0---0---0----0---0---|-0----0---0---0----0---0---|
D|-0---0---0---0---0----0---0---|-0----0---0---0----0---0---|-0----0---0---0----0---0---|


E|---------------------------|------------------------|---------------------------|
B|---------------------------|------------------------|---------------------------|
G|---------------------------|------------------------|---------------------------|
D|-3----5---3--------0---2---|-3----0---------0---2---|-3----2---3--------0---2---|
A|-0----0---0---0----0---0---|-0----0----0----0---0---|-0----0---0---0----0---0---|
D|-0----0---0---0----0---0---|-0----0----0----0---0---|-0----0---0---0----0---0---|


E|---------------------------|---------------------------|------------------------|
B|---------------------------|---------------------------|------------------------|
G|---------------------------|---------------------------|------------------------|
D|-3----2---3--------0---2---|-3----5---3--------0---2---|-3----0---------0---2---|
A|-0----0---0---0----0---0---|-0----0---0---0----0---0---|-0----0----0----0---0---|
D|-0----0---0---0----0---0---|-0----0---0---0----0---0---|-0----0----0----0---0---|


E|---------------------------|---------------------------|---------------------------|
B|---------------------------|---------------------------|---------------------------|
G|---------------------------|---------------------------|---------------------------|
D|-3----2---3--------0---2---|-3----2---3--------0---2---|-3----5---3--------0---2---|
A|-0----0---0---0----0---0---|-0----0---0---0----0---0---|-0----0---0---0----0---0---|
D|-0----0---0---0----0---0---|-0----0---0---0----0---0---|-0----0---0---0----0---0---|


E|------------------------|---------------------------|---------------------------|
B|------------------------|---------------------------|---------------------------|
G|------------------------|---------------------------|---------------------------|
D|-3----0---------0---2---|-3----2---3--------0---2---|-3----2---3--------0---2---|
A|-0----0----0----0---0---|-0----0---0---0----0---0---|-0----0---0---0----0---0---|
D|-0----0----0----0---0---|-0----0---0---0----0---0---|-0----0---0---0----0---0---|


E|---------------------------|------------------------|---------------------------|
B|---------------------------|------------------------|---------------------------|
G|---------------------------|------------------------|---------------------------|
D|-3----5---3--------0---2---|-3----0----5----5---7---|-8----7---8---5----5---7---|
A|-0----0---0---0----0---0---|-0----0----5----5---5---|-5----5---5---5----5---5---|
D|-0----0---0---0----0---0---|-0----0----5----5---5---|-5----5---5---5----5---5---|


E|---------------------------|---------------------------|--------------------|---------------------------|
B|---------------------------|---------------------------|--------------------|---------------------------|
G|---------------------------|---------------------------|--------------------|---------------------------|
D|-8----7---8---5----5---7---|-8----7---8---5----5---7---|-8-----5----5---7---|-8----7---8---5----5---7---|
A|-5----5---5---5----5---5---|-5----5---5---5----5---5---|-8-----5----5---5---|-5----5---5---5----5---5---|
D|-5----5---5---5----5---5---|-5----5---5---5----5---5---|-8-----5----5---5---|-5----5---5---5----5---5---|


E|---------------------------|---------------------------|--------------------|---------------------------|
B|---------------------------|---------------------------|--------------------|---------------------------|
G|---------------------------|---------------------------|--------------------|---------------------------|
D|-8----7---8---5----5---7---|-8----7---8---5----5---7---|-8----------0---2---|-3----2---3--------0---2---|
A|-5----5---5---5----5---5---|-5----5---5---5----5---5---|-8-----0----0---0---|-0----0---0---0----0---0---|
D|-5----5---5---5----5---5---|-5----5---5---5----5---5---|-8-----0----0---0---|-0----0---0---0----0---0---|


E|---------------------------|---------------------------|------------------------|
B|---------------------------|---------------------------|------------------------|
G|---------------------------|---------------------------|------------------------|
D|-3----2---3--------0---2---|-3----5---3--------0---2---|-3----0---------0---2---|
A|-0----0---0---0----0---0---|-0----0---0---0----0---0---|-0----0----0----0---0---|
D|-0----0---0---0----0---0---|-0----0---0---0----0---0---|-0----0----0----0---0---|


E|---------------------------|---------------------------|---------------------------|
B|---------------------------|---------------------------|---------------------------|
G|---------------------------|---------------------------|---------------------------|
D|-3----2---3--------0---2---|-3----2---3--------0---2---|-3----5---3--------0---2---|
A|-0----0---0---0----0---0---|-0----0---0---0----0---0---|-0----0---0---0----0---0---|
D|-0----0---0---0----0---0---|-0----0---0---0----0---0---|-0----0---0---0----0---0---|


E|-----------------|-------------|-------------|-------------|-------------|-------------|
B|-----------------|-------------|-------------|-------------|-------------|-------------|
G|-----------------|-------------|-------------|-------------|-------------|-------------|
D|-3----0----------|-------------|-------------|-------------|-------------|-------------|
A|-0----0----0-----|-------0-----|-------0-----|-------0-----|-------0-----|-------0-----|
D|-0----0----0-----|-------0-----|-------0-----|-------0-----|-------0-----|-------0-----|


E|-------------|-------------|-------------------------|-------------------------------------|
B|-------------|-------------|-------------------------|-------------------------------------|
G|-------------|-------------|-------------------------|-------------------------------------|
D|-------------|-------------|-------------------------|-------------------------------------|
A|-------0-----|-------0-----|-------5--5--5---5---5---|-5---5---5---5--5--7---7--7--7---7---|
D|-------0-----|-------0-----|-------0--0--0---0---0---|-0---0---0---0--0--0---0--0--0---0---|


E|-------------------------------------|---------------------------------------|---------------------------------------|
B|-------------------------------------|---------------------------------------|---------------------------------------|
G|-------------------------------------|---------------------------------------|---------------------------------------|
D|-------------------------------------|---------------------------------------|---------------------------------------|
A|-7---7---7--7--7---8--8--8---8---8---|-8---8---8---8--8--10-10-10--8---8--8--|-7--7--7---4---4--4--5--5--5---5---5---|
D|-0---0---0--0--0---0--0--0---0---0---|-0---0---0---0--0--0--0--0---0---0--0--|-0--0--0---0---0--0--0--0--0---0---0---|


E|-------------------------------------|-------------------------------------|---------------------------------------|
B|-------------------------------------|-------------------------------------|---------------------------------------|
G|-------------------------------------|-------------------------------------|---------------------------------------|
D|-------------------------------------|-------------------------------------|---------------------------------------|
A|-5---5---5---5--5--7---7--7--7---7---|-7---7---7--7--7---8--8--8---8---8---|-8---8---8---8--8--10-10-10--8---8--8--|
D|-0---0---0---0--0--0---0--0--0---0---|-0---0---0--0--0---0--0--0---0---0---|-0---0---0---0--0--0--0--0---0---0--0--|


E|-----------------------------------------|--------------------------------------------|
B|-----------------------------------------|--------------------------------------------|
G|-----------------------------------------|--------------------------------------------|
D|-----------------------------------------|--------------------------------------------|
A|-7--7--7---4---4--4----------------------|--------------------------------------------|
D|-0--0--0---0---0--0--5--5--5--5--5---5---|-5--5--5---5--5--5--5---5--5--5--5--5---5---|


E|--------------------------------------------|--------------------------------------------------|
B|--------------------------------------------|--------------------------------------------------|
G|--------------------------------------------|--------------------------------------------------|
D|--------------------------------------------|--------------------------------------------------|
A|--------------------------------------------|--------------------------------------------------|
D|-5--5--5---5--5--5--5---5--5--5--5--5---5---|-5--5--5---5--5--5--5---5--5--5--5---5--5--5--5---|


E|-----------------------------------------------|--------------------------------------------|
B|-----------------------------------------------|--------------------------------------------|
G|-----------------------------------------------|--------------------------------------------|
D|-----------------------------------------------|--------------------------------------------|
A|-----------------------------------------------|--------------------------------------------|
D|-5--5--5--5---5--5--5--5---5--5--5--5--5---5---|-5--5--5---5--5--5--5---5--5--5--5--5---5---|


E|--------------------------------------------|--------------------------------------------------|
B|--------------------------------------------|--------------------------------------------------|
G|--------------------------------------------|--------------------------------------------------|
D|--------------------------------------------|--------------------------------------------------|
A|--------------------------------------------|--------------------------------------------------|
D|-5--5--5---5--5--5--5---5--5--5--5--5---5---|-5--5--5---5--5--5--5---5--5--5--5---5--5--5--5---|


E|---------------------------------------------|-------------------------------------|
B|---------------------------------------------|-------------------------------------|
G|---------------------------------------------|-------------------------------------|
D|---------------------------------------------|-------------------------------------|
A|---------------------------------------------|-------------------------------------|
D|-5--5--5--5---5--5--5--5---0--0--0---0---0---|-0---0---0---0--0--0---0--0--0---0---|


E|-------------------------------------|---------------------------------------|---------------------------------------|
B|-------------------------------------|---------------------------------------|---------------------------------------|
G|-------------------------------------|---------------------------------------|---------------------------------------|
D|-------------------------------------|---------------------------------------|---------------------------------------|
A|-------------------------------------|---------------------------------------|---------------------------------------|
D|-0---0---0--0--0---0--0--0---0---0---|-0---0---0---0--0--0--0--0---0---0--0--|-0--0--0---0---0--0--0--0--0---0---0---|


E|-------------------------------------|-------------------------------------|---------------------------------------|
B|-------------------------------------|-------------------------------------|---------------------------------------|
G|-------------------------------------|-------------------------------------|---------------------------------------|
D|-------------------------------------|-------------------------------------|---------------------------------------|
A|-------------------------------------|-------------------------------------|---------------------------------------|
D|-0---0---0---0--0--0---0--0--0---0---|-0---0---0--0--0---0--0--0---0---0---|-0---0---0---0--0--0--0--0---0---0--0--|


E|---------------------------------------|-------------------------------------|-------------------------------------|
B|---------------------------------------|-------------------------------------|-------------------------------------|
G|---------------------------------------|-------------------------------------|-------------------------------------|
D|---------------------------------------|-------------------------------------|-------------------------------------|
A|---------------------------------------|-------------------------------------|-------------------------------------|
D|-0--0--0---0---0--0--0--0--0---0---0---|-0---0---0---0--0--0---0--0--0---0---|-0---0---0--0--0---0--0--0---0---0---|


E|---------------------------------------|---------------------------------------|
B|---------------------------------------|---------------------------------------|
G|---------------------------------------|---------------------------------------|
D|---------------------------------------|---------------------------------------|
A|---------------------------------------|---------------------------------------|
D|-0---0---0---0--0--0--0--0---0---0--0--|-0--0--0---0---0--0--0--0--0---0---0---|


E|-------------------------------------|-------------------------------------|---------------------------------------|
B|-------------------------------------|-------------------------------------|---------------------------------------|
G|-------------------------------------|-------------------------------------|---------------------------------------|
D|-------------------------------------|-------------------------------------|---------------------------------------|
A|-------------------------------------|-------------------------------------|---------------------------------------|
D|-0---0---0---0--0--0---0--0--0---0---|-0---0---0--0--0---0--0--0---0---0---|-0---0---0---0--0--0--0--0---0---0--0--|


E|---------------------------------------|-------------------------------------|-------------------------------------|
B|---------------------------------------|-------------------------------------|-------------------------------------|
G|---------------------------------------|-------------------------------------|-------------------------------------|
D|---------------------------------------|-------------------------------------|-------------------------------------|
A|---------------------5--5--5---5---5---|-5---5---5---5--5--7---7--7--7---7---|-7---7---7--7--7---8--8--8---8---8---|
D|-0--0--0---0---0--0--0--0--0---0---0---|-0---0---0---0--0--0---0--0--0---0---|-0---0---0--0--0---0--0--0---0---0---|


E|---------------------------------------|---------------------------------------|
B|---------------------------------------|---------------------------------------|
G|---------------------------------------|---------------------------------------|
D|---------------------------------------|---------------------------------------|
A|-8---8---8---8--8--10-10-10--8---8--8--|-7--7--7---4---4--4--5--5--5---5---5---|
D|-0---0---0---0--0--0--0--0---0---0--0--|-0--0--0---0---0--0--0--0--0---0---0---|


E|-------------------------------------|-------------------------------------|---------------------------------------|
B|-------------------------------------|-------------------------------------|---------------------------------------|
G|-------------------------------------|-------------------------------------|---------------------------------------|
D|-------------------------------------|-------------------------------------|---------------------------------------|
A|-5---5---5---5--5--7---7--7--7---7---|-7---7---7--7--7---8--8--8---8---8---|-8---8---8---8--8--10-10-10--8---8--8--|
D|-0---0---0---0--0--0---0--0--0---0---|-0---0---0--0--0---0--0--0---0---0---|-0---0---0---0--0--0--0--0---0---0--0--|


E|---------------------------|---------------------------|---------------------------|
B|---------------------------|---------------------------|---------------------------|
G|---------------------------|---------------------------|---------------------------|
D|---------------------------|------0---2---3----2---3---|------0---2---3----2---3---|
A|-7--7--7---4---4--4--4-----|-0----0---0---0----0---0---|-0----0---0---0----0---0---|
D|-0--0--0---0---0--0--------|-0----0---0---0----0---0---|-0----0---0---0----0---0---|


E|---------------------------|------------------------|---------------------------|
B|---------------------------|------------------------|---------------------------|
G|---------------------------|------------------------|---------------------------|
D|------0---2---3----5---3---|------0---2---3----0----|------0---2---3----2---3---|
A|-0----0---0---0----0---0---|-0----0---0---0----0----|-0----0---0---0----0---0---|
D|-0----0---0---0----0---0---|-0----0---0---0----0----|-0----0---0---0----0---0---|


E|---------------------------|---------------------------|------------------------|
B|---------------------------|---------------------------|------------------------|
G|---------------------------|---------------------------|------------------------|
D|------0---2---3----2---3---|------0---2---3----5---3---|------0---2---3----0----|
A|-0----0---0---0----0---0---|-0----0---0---0----0---0---|-0----0---0---0----0----|
D|-0----0---0---0----0---0---|-0----0---0---0----0---0---|-0----0---0---0----0----|


E|-------------|-------------|--------|--------|--------|--------|--------|--------|
B|-------------|-------------|--------|--------|--------|--------|--------|--------|
G|-------------|-------------|--------|--------|--------|--------|--------|--------|
D|-0-----0-----|-0-----0-----|--------|--------|--------|--------|--------|--------|
A|-0-----0-----|-0-----0-----|--------|--------|--------|--------|--------|--------|
D|-0-----0-----|-0-----0-----|--------|--------|--------|--------|--------|--------|


E|--------|--------|--------|--------|--------|--------|--------|--------|--------|
B|--------|--------|--------|--------|--------|--------|--------|--------|--------|
G|--------|--------|--------|--------|--------|--------|--------|--------|--------|
D|--------|--------|--------|--------|--------|--------|--------|--------|--------|
A|--------|--------|--------|--------|--------|--------|--------|--------|--------|
D|--------|--------|--------|--------|--------|--------|--------|--------|--------|


E|--------|--------|--------|--------|--------|--------|--------|--------|--------|
B|--------|--------|--------|--------|--------|--------|--------|--------|--------|
G|--------|--------|--------|--------|--------|--------|--------|--------|--------|
D|--------|--------|--------|--------|--------|--------|--------|--------|--------|
A|--------|--------|--------|--------|--------|--------|--------|--------|--------|
D|--------|--------|--------|--------|--------|--------|--------|--------|--------|


E|--------|--------|--------|--------|-------------5---6---5--------|-6---5---------------------------|
B|--------|--------|--------|--------|---------6---------------8----|---------8---6---------------5---|
G|--------|--------|--------|--------|-----7------------------------|-------------------------5-------|
D|--------|--------|--------|--------|-0----------------------------|---------------------7-----------|
A|--------|--------|--------|--------|------------------------------|-----------------0---------------|
D|--------|--------|--------|--------|------------------------------|---------------------------------|


E|---------------------------|-------------5---6---5--------|-6---5---------------------------|
B|-6---5--------6---5--------|---------6---------------8----|---------8---6---------------5---|
G|---------7------------6----|-----7------------------------|-------------------------5-------|
D|---------------------------|-0----------------------------|---------------------7-----------|
A|---------------------------|------------------------------|-----------------0---------------|
D|---------------------------|------------------------------|---------------------------------|


E|---------------------------|-------------5---6---5--------|-6---5---------------------------|
B|-6---5--------6---5--------|---------6---------------8----|---------8---6---------------5---|
G|---------7------------6----|-----7------------------------|-------------------------5-------|
D|---------------------------|-0----------------------------|---------------------7-----------|
A|---------------------------|------------------------------|-----------------0---------------|
D|---------------------------|------------------------------|---------------------------------|


E|---------------------------|-------------5---6---5--------|-6---5---------------------------|
B|-6---5--------6---5--------|---------6---------------8----|---------8---6---------------5---|
G|---------7------------6----|-----7------------------------|-------------------------5-------|
D|---------------------------|-0----------------------------|---------------------7-----------|
A|---------------------------|------------------------------|-----------------0---------------|
D|---------------------------|------------------------------|---------------------------------|


E|---------------------------|--------|-------------|--------|--------|-------------|
B|-6---5--------6---5--------|--------|-------------|--------|--------|-------------|
G|---------7------------6----|--------|-------2-----|--------|--------|-------2-----|
D|---------------------------|-0------|-------2-----|--------|-0------|-------2-----|
A|---------------------------|-0------|-------0-----|--------|-0------|-------0-----|
D|---------------------------|-0------|-------------|--------|-0------|-------------|


E|--------|--------|-------------|--------|--------|-------------|--------|-----------------------------------|
B|--------|--------|-------------|--------|--------|-------------|--------|-----------------------------------|
G|--------|--------|-------2-----|--------|--------|-------2-----|--------|-----------------------------------|
D|--------|-0------|-------2-----|--------|-0------|-------2-----|--------|-----------8---7---5---------------|
A|--------|-0------|-------0-----|--------|-0------|-------0-----|--------|-5---5--5--------------8---7---5---|
D|--------|-0------|-------------|--------|-0------|-------------|--------|-----------------------------------|


E|---------------------------------|-----------------------------------|-------------|
B|---------------------------------|-----------------------------------|-------------|
G|---------------------------------|-----------------------------------|-10----9-----|
D|---------8---7---5---------------|-----------8---7---5---------------|-10----9-----|
A|-5---5---------------8---7---5---|-5---5--5--------------8---7---5---|-8-----7-----|
D|---------------------------------|-----------------------------------|-------------|


E|-----------------------------------|---------------------------------|-----------------------------------|
B|-----------------------------------|---------------------------------|-----------------------------------|
G|-----------------------------------|---------------------------------|-----------------------------------|
D|-----------8---7---5---------------|---------8---7---5---------------|-----------8---7---5---------------|
A|-5---5--5--------------8---7---5---|-5---5---------------8---7---5---|-5---5--5--------------8---7---5---|
D|-----------------------------------|---------------------------------|-----------------------------------|


E|-------------|-----------------|---------------------------|--------------------|
B|-------------|-----------------|---------------------------|--------------------|
G|-10----9-----|-----------------|---------------------------|--------------------|
D|-10----9-----|-7-----7-----9---|-10-----------10-----------|-12----12---12--12--|
A|-8-----7-----|-5-----5-----7---|-8----8---8---8----8---8---|-10----10---10--10--|
D|-------------|-----------------|---------------------------|--------------------|


E|------------------------------|-----------------|---------------------------|--------------------|
B|------------------------------|-----------------|---------------------------|--------------------|
G|------------------------------|-----------------|---------------------------|--------------------|
D|-----5-------5-------5---6----|-7-----7-----9---|-10-----------10-----------|-12----12---12--12--|
A|-----3-------3-------3---4----|-5-----5-----7---|-8----8---8---8----8---8---|-10----10---10--10--|
D|------------------------------|-----------------|---------------------------|--------------------|


E|------------------------------|-----------------|---------------------------|--------------------|
B|------------------------------|-----------------|---------------------------|--------------------|
G|------------------------------|-----------------|---------------------------|--------------------|
D|-----5-------5-------5---6----|-7-----7-----9---|-10-----------10-----------|-12----12---12--12--|
A|-----3-------3-------3---4----|-5-----5-----7---|-8----8---8---8----8---8---|-10----10---10--10--|
D|------------------------------|-----------------|---------------------------|--------------------|


E|------------------------------|-----------------|---------------------------|--------------------|
B|------------------------------|-----------------|---------------------------|--------------------|
G|------------------------------|-----------------|---------------------------|--------------------|
D|-----5-------5-------5---6----|-7-----7-----9---|-10-----------10-----------|-12----12---12--12--|
A|-----3-------3-------3---4----|-5-----5-----7---|-8----8---8---8----8---8---|-10----10---10--10--|
D|------------------------------|-----------------|---------------------------|--------------------|


E|------------------------------|-----------------------------------|---------------------------------|
B|------------------------------|-----------------------------------|---------------------------------|
G|------------------------------|-----------------------------------|---------------------------------|
D|-----5-------5-------5---6----|-----------8---7---5---------------|---------8---7---5---------------|
A|-----3-------3-------3---4----|-5---5--5--------------8---7---5---|-5---5---------------8---7---5---|
D|------------------------------|-----------------------------------|---------------------------------|


E|-----------------------------------|-------------|-----------------------------------|
B|-----------------------------------|-------------|-----------------------------------|
G|-----------------------------------|-10----9-----|-----------------------------------|
D|-----------8---7---5---------------|-10----9-----|-----------8---7---5---------------|
A|-5---5--5--------------8---7---5---|-8-----7-----|-5---5--5--------------8---7---5---|
D|-----------------------------------|-------------|-----------------------------------|


E|---------------------------------|-----------------------------------|-------------|
B|---------------------------------|-----------------------------------|-------------|
G|---------------------------------|-----------------------------------|-10----9-----|
D|---------8---7---5---------------|-----------8---7---5---------------|-10----9-----|
A|-5---5---------------8---7---5---|-5---5--5--------------8---7---5---|-8-----7-----|
D|---------------------------------|-----------------------------------|-------------|


E|--------|--------|--------|--------|--------|--------|--------|--------|---------------------------------------------|
B|--------|--------|--------|--------|--------|--------|--------|--------|---------------------------------------------|
G|-7------|-5------|-3------|-3------|-3------|-5------|-7------|-7------|---------------3------------3------------3---|
D|-7------|-5------|-3------|-3------|-3------|-5------|-7------|-7------|---------------3------------3------------3---|
A|-5------|-3------|-1------|-1------|-1------|-3------|-5------|-5------|-1---1--1--1-------1--1--1------1--1--1------|
D|--------|--------|--------|--------|--------|--------|--------|--------|---------------------------------------------|


E|---------------------------------------------|---------------------------------------------|
B|---------------------------------------------|---------------------------------------------|
G|---------------5------------5------------5---|---------------7------------7------------7---|
D|---------------5------------5------------5---|---------------7------------7------------7---|
A|-3---3--3--3-------3--3--3------3--3--3------|-5---5--5--5-------5--5--5------5--5--5------|
D|---------------------------------------------|---------------------------------------------|


E|-----------------------------------------------------|---------------------------------------------|
B|-----------------------------------------------------|---------------------------------------------|
G|----------7------------7------------7------------7---|---------------3------------3------------3---|
D|----------7------------7------------7------------7---|---------------3------------3------------3---|
A|-5--5--5------5--5--5------5--5--5------5--5--5------|-1---1--1--1-------1--1--1------1--1--1------|
D|-----------------------------------------------------|---------------------------------------------|


E|---------------------------------------------|---------------------------------------------|
B|---------------------------------------------|---------------------------------------------|
G|---------------5------------5------------5---|---------------7------------7------------7---|
D|---------------5------------5------------5---|---------------7------------7------------7---|
A|-3---3--3--3-------3--3--3------3--3--3------|-5---5--5--5-------5--5--5------5--5--5------|
D|---------------------------------------------|---------------------------------------------|


E|-----------------------------------------------------|---------------------------------------------|
B|-----------------------------------------------------|---------------------------------------------|
G|----------7------------7------------7------------7---|---------------3------------3------------3---|
D|----------7------------7------------7------------7---|---------------3------------3------------3---|
A|-5--5--5------5--5--5------5--5--5------5--5--5------|-1---1--1--1-------1--1--1------1--1--1------|
D|-----------------------------------------------------|---------------------------------------------|


E|---------------------------------------------|---------------------------------------------|
B|---------------------------------------------|---------------------------------------------|
G|---------------5------------5------------5---|---------------7------------7------------7---|
D|---------------5------------5------------5---|---------------7------------7------------7---|
A|-3---3--3--3-------3--3--3------3--3--3------|-5---5--5--5-------5--5--5------5--5--5------|
D|---------------------------------------------|---------------------------------------------|


E|-----------------------------------------------------|---------------------------------------------|
B|-----------------------------------------------------|---------------------------------------------|
G|----------7------------7------------7------------7---|---------------3------------3------------3---|
D|----------7------------7------------7------------7---|---------------3------------3------------3---|
A|-5--5--5------5--5--5------5--5--5------5--5--5------|-1---1--1--1-------1--1--1------1--1--1------|
D|-----------------------------------------------------|---------------------------------------------|


E|---------------------------------------------|---------------------------------------------|
B|---------------------------------------------|---------------------------------------------|
G|---------------5------------5------------5---|---------------7------------7------------7---|
D|---------------5------------5------------5---|---------------7------------7------------7---|
A|-3---3--3--3-------3--3--3------3--3--3------|-5---5--5--5-------5--5--5------5--5--5------|
D|---------------------------------------------|---------------------------------------------|


E|-----------------------------------------------------|---------------------------------------------|
B|-----------------------------------------------------|---------------------------------------------|
G|----------7------------7------------7------------7---|---------------3------------3------------3---|
D|----------7------------7------------7------------7---|---------------3------------3------------3---|
A|-5--5--5------5--5--5------5--5--5------5--5--5------|-1---1--1--1-------1--1--1------1--1--1------|
D|-----------------------------------------------------|---------------------------------------------|


E|---------------------------------------------|---------------------------------------------|
B|---------------------------------------------|---------------------------------------------|
G|---------------5------------5------------5---|---------------7------------7------------7---|
D|---------------5------------5------------5---|---------------7------------7------------7---|
A|-3---3--3--3-------3--3--3------3--3--3------|-5---5--5--5-------5--5--5------5--5--5------|
D|---------------------------------------------|---------------------------------------------|


E|-----------------------------------------------------|---------------------------------------------|
B|-----------------------------------------------------|---------------------------------------------|
G|----------7------------7------------7------------7---|---------------3------------3------------3---|
D|----------7------------7------------7------------7---|---------------3------------3------------3---|
A|-5--5--5------5--5--5------5--5--5------5--5--5------|-1---1--1--1-------1--1--1------1--1--1------|
D|-----------------------------------------------------|---------------------------------------------|


E|---------------------------------------------|---------------------------------------------|
B|---------------------------------------------|---------------------------------------------|
G|---------------5------------5------------5---|---------------7------------7------------7---|
D|---------------5------------5------------5---|---------------7------------7------------7---|
A|-3---3--3--3-------3--3--3------3--3--3------|-5---5--5--5-------5--5--5------5--5--5------|
D|---------------------------------------------|---------------------------------------------|


E|-----------------------------------------------------|---------------------------------------------|
B|-----------------------------------------------------|---------------------------------------------|
G|----------7------------7------------7------------7---|---------------3------------3------------3---|
D|----------7------------7------------7------------7---|---------------3------------3------------3---|
A|-5--5--5------5--5--5------5--5--5------5--5--5------|-1---1--1--1-------1--1--1------1--1--1------|
D|-----------------------------------------------------|---------------------------------------------|


E|---------------------------------------------|---------------------------------------------|
B|---------------------------------------------|---------------------------------------------|
G|---------------5------------5------------5---|---------------7------------7------------7---|
D|---------------5------------5------------5---|---------------7------------7------------7---|
A|-3---3--3--3-------3--3--3------3--3--3------|-5---5--5--5-------5--5--5------5--5--5------|
D|---------------------------------------------|---------------------------------------------|


E|-----------------------------------------------------|---------------------------------------------|
B|-----------------------------------------------------|---------------------------------------------|
G|----------7------------7------------7------------7---|---------------3------------3------------3---|
D|----------7------------7------------7------------7---|---------------3------------3------------3---|
A|-5--5--5------5--5--5------5--5--5------5--5--5------|-1---1--1--1-------1--1--1------1--1--1------|
D|-----------------------------------------------------|---------------------------------------------|


E|---------------------------------------------|---------------------------------------------|
B|---------------------------------------------|---------------------------------------------|
G|---------------5------------5------------5---|---------------7------------7------------7---|
D|---------------5------------5------------5---|---------------7------------7------------7---|
A|-3---3--3--3-------3--3--3------3--3--3------|-5---5--5--5-------5--5--5------5--5--5------|
D|---------------------------------------------|---------------------------------------------|


E|-----------------------------------------------------|---------------------------------------------|
B|-----------------------------------------------------|---------------------------------------------|
G|----------7------------7------------7------------7---|---------------3------------3------------3---|
D|----------7------------7------------7------------7---|---------------3------------3------------3---|
A|-5--5--5------5--5--5------5--5--5------5--5--5------|-1---1--1--1-------1--1--1------1--1--1------|
D|-----------------------------------------------------|---------------------------------------------|


E|---------------------------------------------|--------|--------|-------------5---6---5--------|
B|---------------------------------------------|--------|--------|---------6---------------8----|
G|---------------5------------5------------5---|-7------|-7------|-----7------------------------|
D|---------------5------------5------------5---|-7------|-7------|-0----------------------------|
A|-3---3--3--3-------3--3--3------3--3--3------|-5------|-5------|------------------------------|
D|---------------------------------------------|--------|--------|------------------------------|


E|-6---5---------------------------|---------------------------|-------------5---6---5--------|
B|---------8---6---------------5---|-6---5--------6---5--------|---------6---------------8----|
G|-------------------------5-------|---------7------------6----|-----7------------------------|
D|---------------------7-----------|---------------------------|-0----------------------------|
A|-----------------0---------------|---------------------------|------------------------------|
D|---------------------------------|---------------------------|------------------------------|


E|-6---5---------------------------|---------------------------|-------------5---6---5--------|
B|---------8---6---------------5---|-6---5--------6---5--------|---------6---------------8----|
G|-------------------------5-------|---------7------------6----|-----7------------------------|
D|---------------------7-----------|---------------------------|-0----------------------------|
A|-----------------0---------------|---------------------------|------------------------------|
D|---------------------------------|---------------------------|------------------------------|


E|-6---5---------------------------|---------------------------|-------------5---6---5--------|
B|---------8---6---------------5---|-6---5--------6---5--------|---------6---------------8----|
G|-------------------------5-------|---------7------------6----|-----7------------------------|
D|---------------------7-----------|---------------------------|-0----------------------------|
A|-----------------0---------------|---------------------------|------------------------------|
D|---------------------------------|---------------------------|------------------------------|


E|-6---5---------------------------|---------------------------|---------------------------------|
B|---------8---6---------------5---|-6---5--------6---5--------|---------------------------------|
G|-------------------------5-------|---------7------------6----|-------------12--14--15--14--12--|
D|---------------------7-----------|---------------------------|-12--14--15----------------------|
A|-----------------0---------------|---------------------------|---------------------------------|
D|---------------------------------|---------------------------|---------------------------------|


E|---------------------------------|---------------------------------|---------------------------------|
B|---------------------------------|---------------------------------|---------------------------------|
G|-14--15--14--12--------------12--|-14--15--14--12--14--15--14--12--|-------------12--14--15--14--12--|
D|-----------------12--14--15------|---------------------------------|-12--14--15----------------------|
A|---------------------------------|---------------------------------|---------------------------------|
D|---------------------------------|---------------------------------|---------------------------------|


E|---------------------------------|---------------------------------|---------------------------------|
B|---------------------------------|---------------------------------|---------------------------------|
G|-14--15--14--12--------------12--|-14--15--14--12--14--15--14--12--|-------------12--------------12--|
D|-----------------12--14--15------|---------------------------------|-12--14--15------12--14--15------|
A|---------------------------------|---------------------------------|---------------------------------|
D|---------------------------------|---------------------------------|---------------------------------|


E|---------------------------------|---------------------------------|---------------------------------|
B|---------------------------------|---------------------------------|---------------------------------|
G|-------------12--------------12--|-------------12--------------12--|-------------12--------------12--|
D|-12--14--15------12--14--15------|-12--14--15------12--14--15------|-12--14--15------12--14--15------|
A|---------------------------------|---------------------------------|---------------------------------|
D|---------------------------------|---------------------------------|---------------------------------|


E|--------------------|--------|--------|--------|--------|--------|--------|--------|
B|--------------------|--------|--------|--------|--------|--------|--------|--------|
G|--------------------|-6------|-7------|-7------|--------|--------|--------|--------|
D|-12--14-------------|--------|-7------|-7------|--------|--------|--------|--------|
A|--------------------|--------|-5------|-5------|--------|--------|--------|--------|
D|--------------------|--------|--------|--------|--------|--------|--------|--------|


E|--------|--------|
B|--------|--------|
G|--------|--------|
D|--------|--------|
A|--------|--------|
D|--------|--------|





Track 2: Lead Guitar (Standard Tuning)

E|--------|--------|--------|--------|--------|--------|--------|--------|--------|
B|--------|--------|--------|--------|--------|--------|--------|--------|--------|
G|--------|--------|--------|--------|--------|--------|--------|--------|--------|
D|--------|--------|--------|--------|--------|--------|--------|--------|--------|
A|--------|--------|--------|--------|--------|--------|--------|--------|--------|
E|--------|--------|--------|--------|--------|--------|--------|--------|--------|


E|--------|--------|--------|--------|--------|--------|--------|--------|--------|
B|--------|--------|--------|--------|--------|--------|--------|--------|--------|
G|--------|--------|--------|--------|--------|--------|--------|--------|--------|
D|--------|--------|--------|--------|--------|--------|--------|--------|--------|
A|--------|--------|--------|--------|--------|--------|--------|--------|--------|
E|--------|--------|--------|--------|--------|--------|--------|--------|--------|


E|--------|--------|--------|--------|--------|--------|--------|--------|--------|
B|--------|--------|--------|--------|--------|--------|--------|--------|--------|
G|--------|--------|--------|--------|--------|--------|--------|--------|--------|
D|--------|--------|--------|--------|--------|--------|--------|--------|--------|
A|--------|--------|--------|--------|--------|--------|--------|--------|--------|
E|--------|--------|--------|--------|--------|--------|--------|--------|--------|


E|--------|--------|--------|--------|--------|--------|--------|--------|--------|
B|--------|--------|--------|--------|--------|--------|--------|--------|--------|
G|--------|--------|--------|--------|--------|--------|--------|--------|--------|
D|--------|--------|--------|--------|--------|--------|--------|--------|--------|
A|--------|--------|--------|--------|--------|--------|--------|--------|--------|
E|--------|--------|--------|--------|--------|--------|--------|--------|--------|


E|--------|--------|--------|--------|--------|--------|--------|--------|--------|
B|--------|--------|--------|--------|--------|--------|--------|--------|--------|
G|--------|--------|--------|--------|--------|--------|--------|--------|--------|
D|--------|--------|--------|--------|--------|--------|--------|--------|--------|
A|--------|--------|--------|--------|--------|--------|--------|--------|--------|
E|--------|--------|--------|--------|--------|--------|--------|--------|--------|


E|--------|--------|--------|--------------------|---------------------------|-----------------------------------|
B|--------|--------|--------|--------------------|---------------------------|-----------------------------------|
G|--------|--------|--------|--------------------|---------------------------|-----------------------------------|
D|--------|--------|--------|------------0---2---|-3----2---3---5----3---0---|-2----0----0---0---0---2---2---2---|
A|--------|--------|--------|--------------------|---------------------------|-----------------------------------|
E|--------|--------|--------|--------------------|---------------------------|-----------------------------------|


E|-------------------------------------------------|------------------------------------------------------|
B|-------------------------------------------------|------------------------------------------------------|
G|-------------------------------------------------|---------5---7----------------------------------------|
D|-0---2---5---3---3---3---5---3---5---7---5---7---|-8---7------------0--7--8--0--5--7--0--3--5--0--2--3--|
A|-------------------------------------------------|------------------------------------------------------|
E|-------------------------------------------------|------------------------------------------------------|


E|-------------------------------------------|-------------------------------------------------------------------------|
B|-------------------------------------------|-------------------------------------------------------------------------|
G|-------------------------------------------|-------------------------------------------------------------------------|
D|-0-----3--2--0--3--2--0--3--2--0--3--2--0--|-5--3--0--5--3--0--5--3--0--5--3--0--7--5--0--7--5--0--7--5--0--7--5--0--|
A|-------------------------------------------|-------------------------------------------------------------------------|
E|-------------------------------------------|-------------------------------------------------------------------------|


E|-----------------------------------------------|-------------|--------|--------|
B|-----------------------------------------------|-------------|--------|--------|
G|-----------------------------------------------|-------------|--------|--------|
D|-8--7--0--8--7--0--8--7--0--8--7--0--10---10---|-10----------|--------|--------|
A|-----------------------------------------------|-------------|--------|--------|
E|-----------------------------------------------|-------------|--------|--------|


E|--------|--------|--------|--------|--------|--------|--------|--------|--------|
B|--------|--------|--------|--------|--------|--------|--------|--------|--------|
G|--------|--------|--------|--------|--------|--------|--------|--------|--------|
D|--------|--------|--------|--------|--------|--------|--------|--------|--------|
A|--------|--------|--------|--------|--------|--------|--------|--------|--------|
E|--------|--------|--------|--------|--------|--------|--------|--------|--------|


E|--------|--------|--------|--------|-------------------------|-------------------------------------|
B|--------|--------|--------|--------|-------------------------|-------------------------------------|
G|--------|--------|--------|--------|-------------------------|-------------------------------------|
D|--------|--------|--------|--------|-------------------------|-------------------------------------|
A|--------|--------|--------|--------|-------5--5--5---5---5---|-5---5---5---5--5--7---7--7--7---7---|
E|--------|--------|--------|--------|-------------------------|-------------------------------------|


E|-------------------------------------|---------------------------------------|---------------------------------------|
B|-------------------------------------|---------------------------------------|---------------------------------------|
G|-------------------------------------|---------------------------------------|---------------------------------------|
D|-------------------------------------|---------------------------------------|---------------------------------------|
A|-7---7---7--7--7---8---8--8--8---8---|-8---8---8---8--8--10-10-10--8---8--8--|-7--7--7---4---4--4--5--5--5---5---4---|
E|-------------------------------------|---------------------------------------|---------------------------------------|


E|---------------------------------|-------------------------------|-------------------------------------------------|
B|---------------------------------|-------------------------------|-------------------------------------------------|
G|---------------------------------|-------------------------------|-------------------------------------------------|
D|---------------------------------|-------------------------------|-------------------------7--7--5--7--8--8--7--8--|
A|-7-----5--7--8---7--5--7--5--4---|-5-----5--5--4--5--7--7--5--7--|-8--8--7--8--10-10-8--10-------------------------|
E|---------------------------------|-------------------------------|-------------------------------------------------|


E|------------------------------------------|-------------------------------------------------|
B|------------------------------------------|-------------------------------------------------|
G|------------------7--9--10-7--9--10-7--9--|-10-7--9--10-7--9--10-12-7--9--10-7--9--10-7--9--|
D|-10-10-8--10-12---------------------------|-------------------------------------------------|
A|------------------------------------------|-------------------------------------------------|
E|------------------------------------------|-------------------------------------------------|


E|------------------------------------------|----------------10-12-13-13101010121010101310101012101010|
B|------------------8--10-11-8--10-11-8--10-|-11-8--10-11-13------------------------------------------|
G|-10-7--9--10-12---------------------------|---------------------------------------------------------|
D|------------------------------------------|---------------------------------------------------------|
A|------------------------------------------|---------------------------------------------------------|
E|------------------------------------------|---------------------------------------------------------|


E|-131010101210101012--12--------------------------|-------------------------------------------------|
B|-------------------------------------------------|-------------------------------------------------|
G|-------------------------19-19-17-15-17-17-15-14-|-15-15-14-12-14-14-12-10-7--7--9--10-9--9--10-12-|
D|-------------------------------------------------|-------------------------------------------------|
A|-------------------------------------------------|-------------------------------------------------|
E|-------------------------------------------------|-------------------------------------------------|


E|-------------------------------------------------|-------------------------------------------------|
B|-------------------------------------------------|-------15-16-15-15-16-18-16-16-18-20-20-20-22-23-|
G|-10-10-12-14-12-12-14-15-14-14-15-17-15-15-17-19-|-17-17-------------------------------------------|
D|-------------------------------------------------|-------------------------------------------------|
A|-------------------------------------------------|-------------------------------------------------|
E|-------------------------------------------------|-------------------------------------------------|


E|-20---20---20----|-------------|-------------|-------------|--------|--------|--------|
B|-----------------|-------------|-------------|-------------|--------|--------|--------|
G|-----------------|-------------|-------------|-------------|--------|--------|--------|
D|-----------------|-------------|-------------|-------------|--------|--------|--------|
A|-----------------|-------------|-------------|-------------|--------|--------|--------|
E|-----------------|-------------|-------------|-------------|--------|--------|--------|


E|--------|--------|--------|--------|--------|--------|--------|--------|--------|
B|--------|--------|--------|--------|--------|--------|--------|--------|--------|
G|--------|--------|--------|--------|--------|--------|--------|--------|--------|
D|--------|--------|--------|--------|--------|--------|--------|--------|--------|
A|--------|--------|--------|--------|--------|--------|--------|--------|--------|
E|--------|--------|--------|--------|--------|--------|--------|--------|--------|


E|--------|--------|--------|--------|--------|--------|--------|--------|--------|
B|--------|--------|--------|--------|--------|--------|--------|--------|--------|
G|--------|--------|--------|--------|--------|--------|--------|--------|--------|
D|--------|--------|--------|--------|--------|--------|--------|--------|--------|
A|--------|--------|--------|--------|--------|--------|--------|--------|--------|
E|--------|--------|--------|--------|--------|--------|--------|--------|--------|


E|--------|--------|--------|--------|--------|--------|--------|--------|--------|
B|--------|--------|--------|--------|--------|--------|--------|--------|--------|
G|--------|--------|--------|--------|--------|--------|--------|--------|--------|
D|--------|--------|--------|--------|--------|--------|--------|--------|--------|
A|--------|--------|--------|--------|--------|--------|--------|--------|--------|
E|--------|--------|--------|--------|--------|--------|--------|--------|--------|


E|--------|--------|--------|--------|--------|--------|--------|--------|--------|
B|--------|--------|--------|--------|--------|--------|--------|--------|--------|
G|--------|--------|--------|--------|--------|--------|--------|--------|--------|
D|--------|--------|--------|--------|--------|--------|--------|--------|--------|
A|--------|--------|--------|--------|--------|--------|--------|--------|--------|
E|--------|--------|--------|--------|--------|--------|--------|--------|--------|


E|--------|--------|--------|--------|--------|--------|--------|--------|--------|
B|--------|--------|--------|--------|--------|--------|--------|--------|--------|
G|--------|--------|--------|--------|--------|--------|--------|--------|--------|
D|--------|--------|--------|--------|--------|--------|--------|--------|--------|
A|--------|--------|--------|--------|--------|--------|--------|--------|--------|
E|--------|--------|--------|--------|--------|--------|--------|--------|--------|


E|--------|--------|--------|--------|--------|--------|--------|------------------------------|
B|--------|--------|--------|--------|--------|--------|--------|---------5---6---8----6---5---|
G|--------|--------|--------|--------|--------|--------|--------|-----7------------------------|
D|--------|--------|--------|--------|--------|--------|--------|-0----------------------------|
A|--------|--------|--------|--------|--------|--------|--------|------------------------------|
E|--------|--------|--------|--------|--------|--------|--------|------------------------------|


E|------------------------------|-----------------------------------|-20----20----20--22--|
B|-6---5--------------------5---|-5--5--5--5-5-6---5----------------|---------------------|
G|---------7------------5-------|----------------------7---6---6----|---------------------|
D|------------------7-----------|-----------------------------------|---------------------|
A|--------------0---------------|-----------------------------------|---------------------|
E|------------------------------|-----------------------------------|---------------------|


E|-20--18--20--18--17---15--13--15--|----------------------------------|-------------------------------------------------|
B|----------------------------------|-15---15--15--13--12--------------|-------------------------------------------------|
G|----------------------------------|----------------------14--12------|----------------------------------------------12-|
D|----------------------------------|------------------------------14--|-12-15-12-14-12-15-12-14-12-15-12-14-12-14-15----|
A|----------------------------------|----------------------------------|-------------------------------------------------|
E|----------------------------------|----------------------------------|-------------------------------------------------|


E|-------------------------------------------------|-------------17-15-17-15-15-13-15-13-13-12-13-12-|
B|-------------------------------15-17-18-20-18-17-|-18-17-18-20-------------------------------------|
G|-14-15-14-12-14-15-15-15-15-17-------------------|-------------------------------------------------|
D|-------------------------------------------------|-------------------------------------------------|
A|-------------------------------------------------|-------------------------------------------------|
E|-------------------------------------------------|-------------------------------------------------|


E|-13-12-10-13-12-10-13-12-10-13-12-10-13--15-13-12-15-13-|-12-15-13-12-15-13-12-15--17-15-13-17-15-13-17-15-13-17-|
B|--------------------------------------------------------|--------------------------------------------------------|
G|--------------------------------------------------------|--------------------------------------------------------|
D|--------------------------------------------------------|--------------------------------------------------------|
A|--------------------------------------------------------|--------------------------------------------------------|
E|--------------------------------------------------------|--------------------------------------------------------|


E|-15-13-17--19---20---20---|-20-----|--------|--------|--------|--------|--------|
B|--------------------------|--------|--------|--------|--------|--------|--------|
G|--------------------------|--------|--------|--------|--------|--------|--------|
D|--------------------------|--------|--------|--------|--------|--------|--------|
A|--------------------------|--------|--------|--------|--------|--------|--------|
E|--------------------------|--------|--------|--------|--------|--------|--------|


E|--------|--------|--------|--------|--------|--------|--------|--------|--------|
B|--------|--------|--------|--------|--------|--------|--------|--------|--------|
G|--------|--------|--------|--------|--------|--------|--------|--------|--------|
D|--------|--------|--------|--------|--------|--------|--------|--------|--------|
A|--------|--------|--------|--------|--------|--------|--------|--------|--------|
E|--------|--------|--------|--------|--------|--------|--------|--------|--------|


E|--------|--------------------|---------------------------|-------------------------------------|
B|--------|--------------------|---------------------------|-------------------------------------|
G|--------|--------------------|---------------------------|---------12------14-12-----14-12-----|
D|--------|-12----12---12--14--|-15---14--12--14---12------|-----12------12--------12--------12--|
A|--------|--------------------|-----------------------15--|-14----------------------------------|
E|--------|--------------------|---------------------------|-------------------------------------|


E|-------------------------------|-----------------------------------------|-------------------------------------------------|
B|-------------------------------|-----------------------------------------|-------------------------------------------------|
G|-------------------------------|-----------------------------------------|-------------------------------------------------|
D|-12-15-14-12-14----------------|-----------------------------------------|-------------------------------------------------|
A|-------------------0---3---4---|-5---5--7--8---7--8--10--8--10-12--10-12-|-13-13-12-13-15-15-13-15-17-17-15-17-18-18-17-18-|
E|-------------------------------|-----------------------------------------|-------------------------------------------------|


E|-------------------------------------------------|------------------------------|
B|-------------------------------------------------|------------------------------|
G|-------------------------------------------------|-----17------17------17--17---|
D|-15-15-13-15-17-17-15-17-19-19-17-19-20-20-19-20-|------------------------------|
A|-------------------------------------------------|------------------------------|
E|-------------------------------------------------|------------------------------|


E|--------|--------|--------|--------|--------|--------|--------|--------|--------|
B|--------|--------|--------|--------|--------|--------|--------|--------|--------|
G|--------|--------|--------|--------|--------|--------|--------|--------|--------|
D|--------|--------|--------|--------|--------|--------|--------|--------|--------|
A|--------|--------|--------|--------|--------|--------|--------|--------|--------|
E|--------|--------|--------|--------|--------|--------|--------|--------|--------|


E|--------|--------|--------|--------|--------|--------|--------|--------|--------|
B|--------|--------|--------|--------|--------|--------|--------|--------|--------|
G|--------|--------|--------|--------|--------|--------|--------|--------|--------|
D|--------|--------|--------|--------|--------|--------|--------|--------|--------|
A|--------|--------|--------|--------|--------|--------|--------|--------|--------|
E|--------|--------|--------|--------|--------|--------|--------|--------|--------|


E|--------|--------|--------|--------|--------|--------|--------------------|-----------------------------------------|
B|--------|--------|--------|--------|--------|--------|--------------------|-----------------------------------------|
G|--------|--------|--------|--------|--------|--------|--------------------|-----------------------------------------|
D|--------|--------|--------|--------|--------|--------|--------------------|-----------------------------------------|
A|--------|--------|--------|--------|--------|--------|--------------------|-8---5---7-------5--0--3--0--5--0--3--0--|
E|--------|--------|--------|--------|--------|--------|-5-----5----5---6---|-------------8---------------------------|


E|-------------------------------------------------|--------|------------------------------|
B|-------------------------------------------------|--------|------------------------------|
G|-------------------------------------------------|--------|--------------9---10--12------|
D|-------------------------------------------------|--------|------12--10--------------12--|
A|-3--0--4--0--5--0--6--0--7--0--8--0--10-0--12-0--|-13-----|-13---------------------------|
E|-------------------------------------------------|--------|------------------------------|


E|---------------------------------|---------------------------------|-------------------------------------------------|
B|---------10----------10----------|-10----------10------------------|-------------------------------------------------|
G|-10----------10----------10------|-----10----------10--------------|-------------9-------9---10--9---10--12-12-10-12-|
D|-----12----------12----------12--|---------12----------12--12--12--|-12--10--12------12------------------------------|
A|---------------------------------|---------------------------------|-------------------------------------------------|
E|---------------------------------|---------------------------------|-------------------------------------------------|


E|-------------------------------------10--8---10--|-10-10-8--10-11-10-8--10-12-12-10-12-13-12-10-12-|
B|-10------10--11-11-10-11-13-13-11-13-------------|-------------------------------------------------|
G|-----12------------------------------------------|-------------------------------------------------|
D|-------------------------------------------------|-------------------------------------------------|
A|-------------------------------------------------|-------------------------------------------------|
E|-------------------------------------------------|-------------------------------------------------|


E|-13--12--10--13--12--10--13--12--10--13--12--10--|-13-12-10-12-13--12--10--13--12--10--13-12-10-12-|
B|-------------------------------------------------|-------------------------------------------------|
G|-------------------------------------------------|-------------------------------------------------|
D|-------------------------------------------------|-------------------------------------------------|
A|-------------------------------------------------|-------------------------------------------------|
E|-------------------------------------------------|-------------------------------------------------|


E|-13-12-10-13-12-10-13-12-10-13-12-10-13-12-10-13-12-10-13-12-10-13-12-10-|-15-12-10-15-12-10-15-12-10-15-12-10-15-12-10-15-12-10-15-12-10-15-12-10-|
B|-------------------------------------------------------------------------|-------------------------------------------------------------------------|
G|-------------------------------------------------------------------------|-------------------------------------------------------------------------|
D|-------------------------------------------------------------------------|-------------------------------------------------------------------------|
A|-------------------------------------------------------------------------|-------------------------------------------------------------------------|
E|-------------------------------------------------------------------------|-------------------------------------------------------------------------|


E|-17-12-10-17-12-10-17-12-10-17-12-10-17-12-10-17-12-10-17-12-10-17-12-10-|-17-12-10-17-12-10-17-12-10-17-12-10-17-12-10-17-12-10-17-12-10-17-12-10-|
B|-------------------------------------------------------------------------|-------------------------------------------------------------------------|
G|-------------------------------------------------------------------------|-------------------------------------------------------------------------|
D|-------------------------------------------------------------------------|-------------------------------------------------------------------------|
A|-------------------------------------------------------------------------|-------------------------------------------------------------------------|
E|-------------------------------------------------------------------------|-------------------------------------------------------------------------|


E|-13-12-10-13-12-10-13-12-10-13-12-10-13-12-10-13-12-10-13-12-10-13-12-10-|-15-12-10-15-12-10-15-12-10-15-12-10-15-12-10-15-12-10-15-12-10-15-12-10-|
B|-------------------------------------------------------------------------|-------------------------------------------------------------------------|
G|-------------------------------------------------------------------------|-------------------------------------------------------------------------|
D|-------------------------------------------------------------------------|-------------------------------------------------------------------------|
A|-------------------------------------------------------------------------|-------------------------------------------------------------------------|
E|-------------------------------------------------------------------------|-------------------------------------------------------------------------|


E|-17-12-10-17-12-10-17-12-10-17-12-10-17-12-10-17-12-10-17-12-10-17-12-10-|-17-12-10-17-12-10-17-12-10-17-12-10-17-12-10-17-12-10-17-12-10-17-12-10-|
B|-------------------------------------------------------------------------|-------------------------------------------------------------------------|
G|-------------------------------------------------------------------------|-------------------------------------------------------------------------|
D|-------------------------------------------------------------------------|-------------------------------------------------------------------------|
A|-------------------------------------------------------------------------|-------------------------------------------------------------------------|
E|-------------------------------------------------------------------------|-------------------------------------------------------------------------|


E|-17-12-18-12-17-12-15-12-17-12-18-12-17-12-15-12-|-17-12-18-12-17-12-15-12-17-12-18-12-17-12-15-12-|
B|-------------------------------------------------|-------------------------------------------------|
G|-------------------------------------------------|-------------------------------------------------|
D|-------------------------------------------------|-------------------------------------------------|
A|-------------------------------------------------|-------------------------------------------------|
E|-------------------------------------------------|-------------------------------------------------|


E|-17-12-18-12-17-12-15-12-17-12-18-12-17-12-15-12-|-1818181817171717181818181717171717171717151515151717171715151515|
B|-------------------------------------------------|-----------------------------------------------------------------|
G|-------------------------------------------------|-----------------------------------------------------------------|
D|-------------------------------------------------|-----------------------------------------------------------------|
A|-------------------------------------------------|-----------------------------------------------------------------|
E|-------------------------------------------------|-----------------------------------------------------------------|


E|-1515151513131313151515151313131313131313121212121313131312121212|-10-----|-10-----|
B|-----------------------------------------------------------------|--------|--------|
G|-----------------------------------------------------------------|--------|--------|
D|-----------------------------------------------------------------|--------|--------|
A|-----------------------------------------------------------------|--------|--------|
E|-----------------------------------------------------------------|--------|--------|


E|-10-----|--------|--------|--------|--------|--------|--------|--------|--------|
B|--------|--------|--------|--------|--------|--------|--------|--------|--------|
G|--------|--------|--------|--------|--------|--------|--------|--------|--------|
D|--------|--------|--------|--------|--------|--------|--------|--------|--------|
A|--------|--------|--------|--------|--------|--------|--------|--------|--------|
E|--------|--------|--------|--------|--------|--------|--------|--------|--------|


E|--------|--------|--------|--------|--------|--------|--------|--------|--------|
B|--------|--------|--------|--------|--------|--------|--------|--------|--------|
G|--------|--------|--------|--------|--------|--------|--------|--------|--------|
D|--------|--------|--------|--------|--------|--------|--------|--------|--------|
A|--------|--------|--------|--------|--------|--------|--------|--------|--------|
E|--------|--------|--------|--------|--------|--------|--------|--------|--------|


E|--------|--------|--------|--------|--------|--------|--------|--------|--------|
B|--------|--------|--------|--------|--------|--------|--------|--------|--------|
G|--------|--------|--------|--------|--------|--------|--------|--------|--------|
D|--------|--------|--------|--------|--------|--------|--------|--------|--------|
A|--------|--------|--------|--------|--------|--------|--------|--------|--------|
E|--------|--------|--------|--------|--------|--------|--------|--------|--------|


E|--------|--------|--------|--------|--------|--------|
B|--------|--------|--------|--------|--------|--------|
G|--------|--------|--------|--------|--------|--------|
D|--------|--------|--------|--------|--------|--------|
A|--------|--------|--------|--------|--------|--------|
E|--------|--------|--------|--------|--------|--------|





Track 3: Rhythm Guitar II (Drop D)

E|--------|--------|--------|--------|--------|--------|--------|--------|--------|
B|--------|--------|--------|--------|--------|--------|--------|--------|--------|
G|--------|--------|--------|--------|--------|--------|--------|--------|--------|
D|--------|--------|--------|--------|--------|--------|--------|--------|--------|
A|--------|--------|--------|--------|--------|--------|--------|--------|--------|
D|--------|--------|--------|--------|--------|--------|--------|--------|--------|


E|--------|--------|--------|--------|--------|--------|--------|--------|--------|
B|--------|--------|--------|--------|--------|--------|--------|--------|--------|
G|--------|--------|--------|--------|--------|--------|--------|--------|--------|
D|--------|--------|--------|--------|--------|--------|--------|--------|--------|
A|--------|--------|--------|--------|--------|--------|--------|--------|--------|
D|--------|--------|--------|--------|--------|--------|--------|--------|--------|


E|--------|--------|--------|--------|--------|--------|--------|--------|--------|
B|--------|--------|--------|--------|--------|--------|--------|--------|--------|
G|--------|--------|--------|--------|--------|--------|--------|--------|--------|
D|--------|--------|--------|--------|--------|--------|--------|--------|--------|
A|--------|--------|--------|--------|--------|--------|--------|--------|--------|
D|--------|--------|--------|--------|--------|--------|--------|--------|--------|


E|--------|--------|--------|--------|--------|--------|--------|--------|--------|
B|--------|--------|--------|--------|--------|--------|--------|--------|--------|
G|--------|--------|--------|--------|--------|--------|--------|--------|--------|
D|--------|--------|--------|--------|--------|--------|--------|--------|--------|
A|--------|--------|--------|--------|--------|--------|--------|--------|--------|
D|--------|--------|--------|--------|--------|--------|--------|--------|--------|


E|--------|--------|--------|--------|--------|--------|--------|--------|--------|
B|--------|--------|--------|--------|--------|--------|--------|--------|--------|
G|--------|--------|--------|--------|--------|--------|--------|--------|--------|
D|--------|--------|--------|--------|--------|--------|--------|--------|--------|
A|--------|--------|--------|--------|--------|--------|--------|--------|--------|
D|--------|--------|--------|--------|--------|--------|--------|--------|--------|


E|--------|--------|--------|--------|--------|--------|--------|--------|--------|
B|--------|--------|--------|--------|--------|--------|--------|--------|--------|
G|--------|--------|--------|--------|--------|--------|--------|--------|--------|
D|--------|--------|--------|--------|--------|--------|--------|--------|--------|
A|--------|--------|--------|--------|--------|--------|--------|--------|--------|
D|--------|--------|--------|--------|--------|--------|--------|--------|--------|


E|--------|--------|--------|--------|--------|--------|--------|--------|--------|
B|--------|--------|--------|--------|--------|--------|--------|--------|--------|
G|--------|--------|--------|--------|--------|--------|--------|--------|--------|
D|--------|--------|--------|--------|--------|--------|--------|--------|--------|
A|--------|--------|--------|--------|--------|--------|--------|--------|--------|
D|--------|--------|--------|--------|--------|--------|--------|--------|--------|


E|--------|---------------------------|--------------------------------------------|
B|--------|---------------------------|--------------------------------------------|
G|--------|---------------------------|--------------------------------------------|
D|--------|-------5--5--5--5--5---5---|-5--5--5---5--5--5--5---7--7--7--7--7---7---|
A|--------|---------------------------|--------------------------------------------|
D|--------|---------------------------|--------------------------------------------|


E|--------------------------------------------|--------------------------------------------------|
B|--------------------------------------------|--------------------------------------------------|
G|--------------------------------------------|--------------------------------------------------|
D|-7--7--7---7--7--7--7---8--8--8--8--8---8---|-8--8--8---8--8--8--8---10-10-10-10--8--8--8--8---|
A|--------------------------------------------|--------------------------------------------------|
D|--------------------------------------------|--------------------------------------------------|


E|-----------------------------------------------|--------------------------------------------|
B|-----------------------------------------------|--------------------------------------------|
G|-----------------------------------------------|--------------------------------------------|
D|-7--7--7--7---4--4--4--4---5--5--5--5--5---5---|-5--5--5---5--5--5--5---7--7--7--7--7---7---|
A|-----------------------------------------------|--------------------------------------------|
D|-----------------------------------------------|--------------------------------------------|


E|--------------------------------------------|--------------------------------------------------|
B|--------------------------------------------|--------------------------------------------------|
G|--------------------------------------------|--------------------------------------------------|
D|-7--7--7---7--7--7--7---8--8--8--8--8---8---|-8--8--8---8--8--8--8---10-10-10-10--8--8--8--8---|
A|--------------------------------------------|--------------------------------------------------|
D|--------------------------------------------|--------------------------------------------------|


E|---------------------------------|--------|--------|--------|--------|--------|--------|
B|---------------------------------|--------|--------|--------|--------|--------|--------|
G|---------------------------------|--------|--------|--------|--------|--------|--------|
D|-7--7--7--7---4--4--4--4---------|--------|--------|--------|--------|--------|--------|
A|---------------------------------|--------|--------|--------|--------|--------|--------|
D|---------------------------------|--------|--------|--------|--------|--------|--------|


E|--------|--------|--------|--------|--------|--------|--------|--------|--------|
B|--------|--------|--------|--------|--------|--------|--------|--------|--------|
G|--------|--------|--------|--------|--------|--------|--------|--------|--------|
D|--------|--------|--------|--------|--------|--------|--------|--------|--------|
A|--------|--------|--------|--------|--------|--------|--------|--------|--------|
D|--------|--------|--------|--------|--------|--------|--------|--------|--------|


E|--------|--------|--------|--------|--------|--------|--------|--------|--------|
B|--------|--------|--------|--------|--------|--------|--------|--------|--------|
G|--------|--------|--------|--------|--------|--------|--------|--------|--------|
D|--------|--------|--------|--------|--------|--------|--------|--------|--------|
A|--------|--------|--------|--------|--------|--------|--------|--------|--------|
D|--------|--------|--------|--------|--------|--------|--------|--------|--------|


E|--------|--------|--------|--------|--------|--------|--------|--------|--------|
B|--------|--------|--------|--------|--------|--------|--------|--------|--------|
G|--------|--------|--------|--------|--------|--------|--------|--------|--------|
D|--------|--------|--------|--------|--------|--------|--------|--------|--------|
A|--------|--------|--------|--------|--------|--------|--------|--------|--------|
D|--------|--------|--------|--------|--------|--------|--------|--------|--------|


E|--------|--------|--------|--------|--------|--------|--------|--------|--------|
B|--------|--------|--------|--------|--------|--------|--------|--------|--------|
G|--------|--------|--------|--------|--------|--------|--------|--------|--------|
D|--------|--------|--------|--------|--------|--------|--------|--------|--------|
A|--------|--------|--------|--------|--------|--------|--------|--------|--------|
D|--------|--------|--------|--------|--------|--------|--------|--------|--------|


E|--------|--------|--------|--------|--------|--------|--------|--------|--------|
B|--------|--------|--------|--------|--------|--------|--------|--------|--------|
G|--------|--------|--------|--------|--------|--------|--------|--------|--------|
D|--------|--------|--------|--------|--------|--------|--------|--------|--------|
A|--------|--------|--------|--------|--------|--------|--------|--------|--------|
D|--------|--------|--------|--------|--------|--------|--------|--------|--------|


E|--------|--------|--------|--------|--------|--------|--------|--------|--------|
B|--------|--------|--------|--------|--------|--------|--------|--------|--------|
G|--------|--------|--------|--------|--------|--------|--------|--------|--------|
D|--------|--------|--------|--------|--------|--------|--------|--------|--------|
A|--------|--------|--------|--------|--------|--------|--------|--------|--------|
D|--------|--------|--------|--------|--------|--------|--------|--------|--------|


E|--------|--------|--------|-------------|--------|--------|-------------|--------|
B|--------|--------|--------|-------------|--------|--------|-------------|--------|
G|--------|--------|--------|-------2-----|--------|--------|-------2-----|--------|
D|--------|--------|-0------|-------2-----|--------|-0------|-------2-----|--------|
A|--------|--------|-0------|-------0-----|--------|-0------|-------0-----|--------|
D|--------|--------|-0------|-------------|--------|-0------|-------------|--------|


E|------------------------------|-----------------------------|-------------------------------|
B|------------------------------|-----------------------------|-------------------------------|
G|------------------------------|-----------2---2---2--2--2---|-2---2---------------2----2----|
D|-0----0---0---0---0---0---0---|-0----0----2---2---2--2--2---|-2---2---------------2----2----|
A|-0----0---0---0---0---0---0---|-0----0----0---0---0--0--0---|-0---0---0--0--0--0--0----0----|
D|-0----0---0---0---0---0---0---|-0----0----------------------|-------------------------------|


E|------------------------------|-----------------------------|-------------------------------|
B|------------------------------|-----------------------------|-------------------------------|
G|------------------------------|-----------2---2---2--2--2---|-2---2---------------2----2----|
D|-0----0---0---0---0---0---0---|-0----0----2---2---2--2--2---|-2---2---------------2----2----|
A|-0----0---0---0---0---0---0---|-0----0----0---0---0--0--0---|-0---0---0--0--0--0--0----0----|
D|-0----0---0---0---0---0---0---|-0----0----------------------|-------------------------------|


E|--------|--------|--------|--------|--------|--------|--------|--------|--------|
B|--------|--------|--------|--------|--------|--------|--------|--------|--------|
G|--------|--------|--------|--------|--------|--------|--------|--------|--------|
D|--------|--------|--------|--------|--------|--------|--------|--------|--------|
A|--------|--------|--------|--------|--------|--------|--------|--------|--------|
D|--------|--------|--------|--------|--------|--------|--------|--------|--------|


E|--------|--------|--------|---------------------------|--------------------|--------------------|
B|--------|--------|--------|---------------------------|--------------------|--------------------|
G|--------|--------|--------|---------------------------|--------------------|--------------------|
D|--------|--------|--------|-0---------------------0---|-0------------------|-0------------------|
A|--------|--------|--------|-0---------------------0---|-0------------------|-0------------------|
D|--------|--------|--------|-0---------------------0---|-0------------------|-0------------------|


E|-------------|---------------------------|--------------------|--------------------|
B|-------------|---------------------------|--------------------|--------------------|
G|-10----9-----|---------------------------|--------------------|--------------------|
D|-10----9-----|-0---------------------0---|-0------------------|-0------------------|
A|-8-----7-----|-0---------------------0---|-0------------------|-0------------------|
D|-------------|-0---------------------0---|-0------------------|-0------------------|


E|-------------|--------|--------|--------|--------|--------|--------|--------|--------|
B|-------------|--------|--------|--------|--------|--------|--------|--------|--------|
G|-10----9-----|--------|--------|--------|--------|--------|--------|--------|--------|
D|-10----9-----|--------|--------|--------|--------|--------|--------|--------|--------|
A|-8-----7-----|--------|--------|--------|--------|--------|--------|--------|--------|
D|-------------|--------|--------|--------|--------|--------|--------|--------|--------|


E|--------|--------|--------|--------|--------|--------|--------|--------|--------|
B|--------|--------|--------|--------|--------|--------|--------|--------|--------|
G|--------|--------|--------|--------|--------|--------|--------|--------|--------|
D|--------|--------|--------|--------|--------|--------|--------|--------|--------|
A|--------|--------|--------|--------|--------|--------|--------|--------|--------|
D|--------|--------|--------|--------|--------|--------|--------|--------|--------|


E|--------|--------|--------|--------|--------|--------|--------|--------|--------|
B|--------|--------|--------|--------|--------|--------|--------|--------|--------|
G|--------|--------|--------|--------|--------|--------|--------|--------|--------|
D|--------|--------|--------|--------|--------|--------|--------|--------|--------|
A|--------|--------|--------|--------|--------|--------|--------|--------|--------|
D|--------|--------|--------|--------|--------|--------|--------|--------|--------|


E|--------|--------|--------|--------|--------|--------|--------|--------|--------|
B|--------|--------|--------|--------|--------|--------|--------|--------|--------|
G|--------|--------|--------|--------|--------|--------|--------|--------|--------|
D|--------|--------|--------|--------|--------|--------|--------|--------|--------|
A|--------|--------|--------|--------|--------|--------|--------|--------|--------|
D|--------|--------|--------|--------|--------|--------|--------|--------|--------|


E|--------|--------|--------|--------|--------|--------|--------|--------|--------|
B|--------|--------|--------|--------|--------|--------|--------|--------|--------|
G|--------|--------|--------|--------|--------|--------|--------|--------|--------|
D|--------|--------|--------|--------|--------|--------|--------|--------|--------|
A|--------|--------|--------|--------|--------|--------|--------|--------|--------|
D|--------|--------|--------|--------|--------|--------|--------|--------|--------|


E|--------|--------|--------|--------|--------|--------|--------|--------|--------|
B|--------|--------|--------|--------|--------|--------|--------|--------|--------|
G|--------|--------|--------|--------|--------|--------|--------|--------|--------|
D|--------|--------|--------|--------|--------|--------|--------|--------|--------|
A|--------|--------|--------|--------|--------|--------|--------|--------|--------|
D|--------|--------|--------|--------|--------|--------|--------|--------|--------|


E|--------|--------|--------|--------|--------|--------|--------|--------|--------|
B|--------|--------|--------|--------|--------|--------|--------|--------|--------|
G|--------|--------|--------|--------|--------|--------|--------|--------|--------|
D|--------|--------|--------|--------|--------|--------|--------|--------|--------|
A|--------|--------|--------|--------|--------|--------|--------|--------|--------|
D|--------|--------|--------|--------|--------|--------|--------|--------|--------|


E|--------|--------|--------|--------|--------|--------|------------------------------|
B|--------|--------|--------|--------|--------|--------|------------------------------|
G|--------|--------|--------|--------|--------|--------|------------------------------|
D|--------|--------|--------|--------|--------|--------|-0----0---0---0---0---0---0---|
A|--------|--------|--------|--------|--------|--------|-0----0---0---0---0---0---0---|
D|--------|--------|--------|--------|--------|--------|-0----0---0---0---0---0---0---|


E|-----------------------------|-------------------------------|------------------------------|
B|-----------------------------|-------------------------------|------------------------------|
G|-----------2---2---2--2--2---|-2---2---------------2----2----|------------------------------|
D|-0----0----2---2---2--2--2---|-2---2---------------2----2----|-0----0---0---0---0---0---0---|
A|-0----0----0---0---0--0--0---|-0---0---0--0--0--0--0----0----|-0----0---0---0---0---0---0---|
D|-0----0----------------------|-------------------------------|-0----0---0---0---0---0---0---|


E|-----------------------------|-------------------------------|------------------------------|
B|-----------------------------|-------------------------------|------------------------------|
G|-----------2---2---2--2--2---|-2---2---------------2----2----|------------------------------|
D|-0----0----2---2---2--2--2---|-2---2---------------2----2----|-0----0---0---0---0---0---0---|
A|-0----0----0---0---0--0--0---|-0---0---0--0--0--0--0----0----|-0----0---0---0---0---0---0---|
D|-0----0----------------------|-------------------------------|-0----0---0---0---0---0---0---|


E|-----------------------------|-------------------------------|------------------------------|
B|-----------------------------|-------------------------------|------------------------------|
G|-----------2---2---2--2--2---|-2---2---------------2----2----|------------------------------|
D|-0----0----2---2---2--2--2---|-2---2---------------2----2----|-0----0---0---0---0---0---0---|
A|-0----0----0---0---0--0--0---|-0---0---0--0--0--0--0----0----|-0----0---0---0---0---0---0---|
D|-0----0----------------------|-------------------------------|-0----0---0---0---0---0---0---|


E|-----------------------------|-------------------------------|--------|-------------|
B|-----------------------------|-------------------------------|--------|-------------|
G|-----------2---2---2--2--2---|-2---2---------------2----2----|-7------|-------7-----|
D|-0----0----2---2---2--2--2---|-2---2---------------2----2----|-7------|-------7-----|
A|-0----0----0---0---0--0--0---|-0---0---0--0--0--0--0----0----|-5------|-------5-----|
D|-0----0----------------------|-------------------------------|--------|-------------|


E|--------|--------|-------------|--------|-------------|-------------|-------------|
B|--------|--------|-------------|--------|-------------|-------------|-------------|
G|--------|-7------|-------7-----|--------|-7-----7-----|-7-----7-----|-7-----7-----|
D|--------|-7------|-------7-----|--------|-7-----7-----|-7-----7-----|-7-----7-----|
A|--------|-5------|-------5-----|--------|-5-----5-----|-5-----5-----|-5-----5-----|
D|--------|--------|-------------|--------|-------------|-------------|-------------|


E|-----------------|-----------------|--------|--------|--------|--------|--------|
B|-----------------|-----------------|--------|--------|--------|--------|--------|
G|-7-----7----7----|-7---------------|--------|--------|--------|--------|--------|
D|-7-----7----7----|-7---------------|--------|--------|--------|--------|--------|
A|-5-----5----5----|-5---------------|--------|--------|--------|--------|--------|
D|-----------------|-----------------|--------|--------|--------|--------|--------|


E|--------|--------|--------|--------|
B|--------|--------|--------|--------|
G|--------|--------|--------|--------|
D|--------|--------|--------|--------|
A|--------|--------|--------|--------|
D|--------|--------|--------|--------|





Track 4: Acoustic Rhythm Guitar (Standard Tuning)

E|--------|--------|--------|--------|--------|--------|--------|--------|--------|
B|--------|--------|--------|--------|--------|--------|--------|--------|--------|
G|--------|--------|--------|--------|--------|--------|--------|--------|--------|
D|--------|--------|--------|--------|--------|--------|--------|--------|--------|
A|--------|--------|--------|--------|--------|--------|--------|--------|--------|
E|--------|--------|--------|--------|--------|--------|--------|--------|--------|


E|--------|--------|--------|--------|--------|--------|--------|--------|--------|
B|--------|--------|--------|--------|--------|--------|--------|--------|--------|
G|--------|--------|--------|--------|--------|--------|--------|--------|--------|
D|--------|--------|--------|--------|--------|--------|--------|--------|--------|
A|--------|--------|--------|--------|--------|--------|--------|--------|--------|
E|--------|--------|--------|--------|--------|--------|--------|--------|--------|


E|--------|--------|--------|--------|--------|--------|--------|--------|--------|
B|--------|--------|--------|--------|--------|--------|--------|--------|--------|
G|--------|--------|--------|--------|--------|--------|--------|--------|--------|
D|--------|--------|--------|--------|--------|--------|--------|--------|--------|
A|--------|--------|--------|--------|--------|--------|--------|--------|--------|
E|--------|--------|--------|--------|--------|--------|--------|--------|--------|


E|--------|--------|--------|--------|--------|--------|--------|--------|--------|
B|--------|--------|--------|--------|--------|--------|--------|--------|--------|
G|--------|--------|--------|--------|--------|--------|--------|--------|--------|
D|--------|--------|--------|--------|--------|--------|--------|--------|--------|
A|--------|--------|--------|--------|--------|--------|--------|--------|--------|
E|--------|--------|--------|--------|--------|--------|--------|--------|--------|


E|--------|--------|--------|--------|--------|--------|--------|--------|--------|
B|--------|--------|--------|--------|--------|--------|--------|--------|--------|
G|--------|--------|--------|--------|--------|--------|--------|--------|--------|
D|--------|--------|--------|--------|--------|--------|--------|--------|--------|
A|--------|--------|--------|--------|--------|--------|--------|--------|--------|
E|--------|--------|--------|--------|--------|--------|--------|--------|--------|


E|--------|--------|--------|--------|--------|--------|--------|--------|--------|
B|--------|--------|--------|--------|--------|--------|--------|--------|--------|
G|--------|--------|--------|--------|--------|--------|--------|--------|--------|
D|--------|--------|--------|--------|--------|--------|--------|--------|--------|
A|--------|--------|--------|--------|--------|--------|--------|--------|--------|
E|--------|--------|--------|--------|--------|--------|--------|--------|--------|


E|--------|--------|--------|--------|--------|--------|--------|--------|--------|
B|--------|--------|--------|--------|--------|--------|--------|--------|--------|
G|--------|--------|--------|--------|--------|--------|--------|--------|--------|
D|--------|--------|--------|--------|--------|--------|--------|--------|--------|
A|--------|--------|--------|--------|--------|--------|--------|--------|--------|
E|--------|--------|--------|--------|--------|--------|--------|--------|--------|


E|--------|--------|--------|--------|--------|--------|--------|--------|--------|
B|--------|--------|--------|--------|--------|--------|--------|--------|--------|
G|--------|--------|--------|--------|--------|--------|--------|--------|--------|
D|--------|--------|--------|--------|--------|--------|--------|--------|--------|
A|--------|--------|--------|--------|--------|--------|--------|--------|--------|
E|--------|--------|--------|--------|--------|--------|--------|--------|--------|


E|--------|--------|--------|--------|--------|--------|--------|--------|--------|
B|--------|--------|--------|--------|--------|--------|--------|--------|--------|
G|--------|--------|--------|--------|--------|--------|--------|--------|--------|
D|--------|--------|--------|--------|--------|--------|--------|--------|--------|
A|--------|--------|--------|--------|--------|--------|--------|--------|--------|
E|--------|--------|--------|--------|--------|--------|--------|--------|--------|


E|--------|--------|--------|--------|--------|--------|--------|--------|--------|
B|--------|--------|--------|--------|--------|--------|--------|--------|--------|
G|--------|--------|--------|--------|--------|--------|--------|--------|--------|
D|--------|--------|--------|--------|--------|--------|--------|--------|--------|
A|--------|--------|--------|--------|--------|--------|--------|--------|--------|
E|--------|--------|--------|--------|--------|--------|--------|--------|--------|


E|--------|--------|--------|--------|--------|--------|--------|--------|--------|
B|--------|--------|--------|--------|--------|--------|--------|--------|--------|
G|--------|--------|--------|--------|--------|--------|--------|--------|--------|
D|--------|--------|--------|--------|--------|--------|--------|--------|--------|
A|--------|--------|--------|--------|--------|--------|--------|--------|--------|
E|--------|--------|--------|--------|--------|--------|--------|--------|--------|


E|--------|--------|--------|--------|--------|--------|--------|--------|---------------------------------|
B|--------|--------|--------|--------|--------|--------|--------|--------|-----------------0-------1-------|
G|--------|--------|--------|--------|--------|--------|--------|--------|---------2-----------------------|
D|--------|--------|--------|--------|--------|--------|--------|--------|-----2-------2-------2-------2---|
A|--------|--------|--------|--------|--------|--------|--------|--------|---------------------------------|
E|--------|--------|--------|--------|--------|--------|--------|--------|---------------------------------|


E|---------------------------------|---------------------------------|---------------------------------|
B|-3-------1-------0---------------|-----------------0-------1-------|-3-------1-------0---------------|
G|-------------------------2-------|---------2-----------------------|-------------------------2-------|
D|-----2-------2-------2-------2---|-----2-------2-------2-------2---|-----2-------2-------2-------2---|
A|---------------------------------|---------------------------------|---------------------------------|
E|---------------------------------|---------------------------------|---------------------------------|


E|-----------------0-------1-------|-3-------1-------0---------------|-----------------0-------1-------|
B|---------3-----------------------|-------------------------3-------|---------3-----------------------|
G|-----2-------2-------2-------2---|-----2-------2-------2-------2---|-----2-------2-------2-------2---|
D|---------------------------------|---------------------------------|---------------------------------|
A|---------------------------------|---------------------------------|---------------------------------|
E|---------------------------------|---------------------------------|---------------------------------|


E|-3-------1-------0---------------|---------------------------------|---------------------------------|
B|-------------------------3-------|-----------------0-------1-------|-3-------1-------0---------------|
G|-----2-------2-------2-------2---|---------2-----------------------|-------------------------2-------|
D|---------------------------------|-----2-------2-------2-------2---|-----2-------2-------2-------2---|
A|---------------------------------|---------------------------------|---------------------------------|
E|---------------------------------|---------------------------------|---------------------------------|


E|---------------------------------|---------------------------------|--------|--------|
B|-----------------0-------1-------|-3-------1-------0---------------|--------|--------|
G|---------2-----------------------|-------------------------2-------|--------|--------|
D|-----2-------2-------2-------2---|-----2-------2-------2-------2---|--------|--------|
A|---------------------------------|---------------------------------|--------|--------|
E|---------------------------------|---------------------------------|--------|--------|


E|--------|--------|-1------|-------0-----|--------|-1------|-------0-----|--------|
B|--------|--------|-3------|-------1-----|--------|-3------|-------1-----|--------|
G|--------|--------|-2------|-------2-----|--------|-2------|-------2-----|--------|
D|--------|--------|-0------|-------2-----|--------|-0------|-------2-----|--------|
A|--------|--------|--------|-------0-----|--------|--------|-------0-----|--------|
E|--------|--------|--------|-------------|--------|--------|-------------|--------|


E|-1------|-------0-----|--------|-1------|-------0-----|--------|--------|--------|
B|-3------|-------1-----|--------|-3------|-------1-----|--------|--------|--------|
G|-2------|-------2-----|--------|-2------|-------2-----|--------|--------|--------|
D|-0------|-------2-----|--------|-0------|-------2-----|--------|--------|--------|
A|--------|-------0-----|--------|--------|-------0-----|--------|--------|--------|
E|--------|-------------|--------|--------|-------------|--------|--------|--------|


E|--------|--------|--------|--------|--------|--------|--------|--------|--------|
B|--------|--------|--------|--------|--------|--------|--------|--------|--------|
G|--------|--------|--------|--------|--------|--------|--------|--------|--------|
D|--------|--------|--------|--------|--------|--------|--------|--------|--------|
A|--------|--------|--------|--------|--------|--------|--------|--------|--------|
E|--------|--------|--------|--------|--------|--------|--------|--------|--------|


E|--------|--------|--------|--------|--------|--------|--------|--------|--------|
B|--------|--------|--------|--------|--------|--------|--------|--------|--------|
G|--------|--------|--------|--------|--------|--------|--------|--------|--------|
D|--------|--------|--------|--------|--------|--------|--------|--------|--------|
A|--------|--------|--------|--------|--------|--------|--------|--------|--------|
E|--------|--------|--------|--------|--------|--------|--------|--------|--------|


E|--------|--------|--------|--------|--------|--------|--------|--------|--------|
B|--------|--------|--------|--------|--------|--------|--------|--------|--------|
G|--------|--------|--------|--------|--------|--------|--------|--------|--------|
D|--------|--------|--------|--------|--------|--------|--------|--------|--------|
A|--------|--------|--------|--------|--------|--------|--------|--------|--------|
E|--------|--------|--------|--------|--------|--------|--------|--------|--------|


E|--------|--------|--------|--------|--------|--------|--------|--------|--------|
B|--------|--------|--------|--------|--------|--------|--------|--------|--------|
G|--------|--------|--------|--------|--------|--------|--------|--------|--------|
D|--------|--------|--------|--------|--------|--------|--------|--------|--------|
A|--------|--------|--------|--------|--------|--------|--------|--------|--------|
E|--------|--------|--------|--------|--------|--------|--------|--------|--------|


E|--------|--------|--------|--------|--------|--------|--------|--------|--------|
B|--------|--------|--------|--------|--------|--------|--------|--------|--------|
G|--------|--------|--------|--------|--------|--------|--------|--------|--------|
D|--------|--------|--------|--------|--------|--------|--------|--------|--------|
A|--------|--------|--------|--------|--------|--------|--------|--------|--------|
E|--------|--------|--------|--------|--------|--------|--------|--------|--------|


E|--------|--------|--------|--------|--------|--------|--------|--------|--------|
B|--------|--------|--------|--------|--------|--------|--------|--------|--------|
G|--------|--------|--------|--------|--------|--------|--------|--------|--------|
D|--------|--------|--------|--------|--------|--------|--------|--------|--------|
A|--------|--------|--------|--------|--------|--------|--------|--------|--------|
E|--------|--------|--------|--------|--------|--------|--------|--------|--------|


E|--------|--------|--------|--------|--------|--------|--------|--------|--------|
B|--------|--------|--------|--------|--------|--------|--------|--------|--------|
G|--------|--------|--------|--------|--------|--------|--------|--------|--------|
D|--------|--------|--------|--------|--------|--------|--------|--------|--------|
A|--------|--------|--------|--------|--------|--------|--------|--------|--------|
E|--------|--------|--------|--------|--------|--------|--------|--------|--------|


E|--------|--------|--------|--------|--------|--------|--------|--------|--------|
B|--------|--------|--------|--------|--------|--------|--------|--------|--------|
G|--------|--------|--------|--------|--------|--------|--------|--------|--------|
D|--------|--------|--------|--------|--------|--------|--------|--------|--------|
A|--------|--------|--------|--------|--------|--------|--------|--------|--------|
E|--------|--------|--------|--------|--------|--------|--------|--------|--------|


E|--------|--------|--------|--------|--------|--------|--------|--------|--------|
B|--------|--------|--------|--------|--------|--------|--------|--------|--------|
G|--------|--------|--------|--------|--------|--------|--------|--------|--------|
D|--------|--------|--------|--------|--------|--------|--------|--------|--------|
A|--------|--------|--------|--------|--------|--------|--------|--------|--------|
E|--------|--------|--------|--------|--------|--------|--------|--------|--------|


E|--------|--------|--------|--------|--------|--------|--------|--------|--------|
B|--------|--------|--------|--------|--------|--------|--------|--------|--------|
G|--------|--------|--------|--------|--------|--------|--------|--------|--------|
D|--------|--------|--------|--------|--------|--------|--------|--------|--------|
A|--------|--------|--------|--------|--------|--------|--------|--------|--------|
E|--------|--------|--------|--------|--------|--------|--------|--------|--------|


E|--------|--------|--------|--------|--------|--------|--------|--------|--------|
B|--------|--------|--------|--------|--------|--------|--------|--------|--------|
G|--------|--------|--------|--------|--------|--------|--------|--------|--------|
D|--------|--------|--------|--------|--------|--------|--------|--------|--------|
A|--------|--------|--------|--------|--------|--------|--------|--------|--------|
E|--------|--------|--------|--------|--------|--------|--------|--------|--------|


E|--------|--------|--------|--------|--------|--------|--------|--------|--------|
B|--------|--------|--------|--------|--------|--------|--------|--------|--------|
G|--------|--------|--------|--------|--------|--------|--------|--------|--------|
D|--------|--------|--------|--------|--------|--------|--------|--------|--------|
A|--------|--------|--------|--------|--------|--------|--------|--------|--------|
E|--------|--------|--------|--------|--------|--------|--------|--------|--------|


E|--------|--------|--------|--------|--------|--------|--------|--------|--------|
B|--------|--------|--------|--------|--------|--------|--------|--------|--------|
G|--------|--------|--------|--------|--------|--------|--------|--------|--------|
D|--------|--------|--------|--------|--------|--------|--------|--------|--------|
A|--------|--------|--------|--------|--------|--------|--------|--------|--------|
E|--------|--------|--------|--------|--------|--------|--------|--------|--------|


E|--------|--------|--------|--------|--------|--------|--------|-------------5---6---5--------|
B|--------|--------|--------|--------|--------|--------|--------|---------6---------------8----|
G|--------|--------|--------|--------|--------|--------|--------|-----7------------------------|
D|--------|--------|--------|--------|--------|--------|--------|-0----------------------------|
A|--------|--------|--------|--------|--------|--------|--------|------------------------------|
E|--------|--------|--------|--------|--------|--------|--------|------------------------------|


E|-6---5---------------------------|---------------------------|----------------1----|
B|---------8---6---------------5---|-6---5--------6---5--------|-----------3----3----|
G|-------------------------5-------|---------7------------6----|------2----2----2----|
D|---------------------7-----------|---------------------------|-0----0----0----0----|
A|-----------------0---------------|---------------------------|---------------------|
E|---------------------------------|---------------------------|---------------------|


E|-1------|-1------|
B|-3------|-3------|
G|-2------|-2------|
D|-0------|-0------|
A|--------|--------|
E|--------|--------|





Track 5: Acoustic Rhythm Guitar (Standard Tuning)

E|--------|--------|--------|--------|--------|--------|--------|--------|--------|
B|--------|--------|--------|--------|--------|--------|--------|--------|--------|
G|--------|--------|--------|--------|--------|--------|--------|--------|--------|
D|--------|--------|--------|--------|--------|--------|--------|--------|--------|
A|--------|--------|--------|--------|--------|--------|--------|--------|--------|
E|--------|--------|--------|--------|--------|--------|--------|--------|--------|


E|--------|--------|--------|--------|--------|--------|--------|--------|--------|
B|--------|--------|--------|--------|--------|--------|--------|--------|--------|
G|--------|--------|--------|--------|--------|--------|--------|--------|--------|
D|--------|--------|--------|--------|--------|--------|--------|--------|--------|
A|--------|--------|--------|--------|--------|--------|--------|--------|--------|
E|--------|--------|--------|--------|--------|--------|--------|--------|--------|


E|--------|--------|--------|--------|--------|--------|--------|--------|--------|
B|--------|--------|--------|--------|--------|--------|--------|--------|--------|
G|--------|--------|--------|--------|--------|--------|--------|--------|--------|
D|--------|--------|--------|--------|--------|--------|--------|--------|--------|
A|--------|--------|--------|--------|--------|--------|--------|--------|--------|
E|--------|--------|--------|--------|--------|--------|--------|--------|--------|


E|--------|--------|--------|--------|--------|--------|--------|--------|--------|
B|--------|--------|--------|--------|--------|--------|--------|--------|--------|
G|--------|--------|--------|--------|--------|--------|--------|--------|--------|
D|--------|--------|--------|--------|--------|--------|--------|--------|--------|
A|--------|--------|--------|--------|--------|--------|--------|--------|--------|
E|--------|--------|--------|--------|--------|--------|--------|--------|--------|


E|--------|--------|--------|--------|--------|--------|--------|--------|--------|
B|--------|--------|--------|--------|--------|--------|--------|--------|--------|
G|--------|--------|--------|--------|--------|--------|--------|--------|--------|
D|--------|--------|--------|--------|--------|--------|--------|--------|--------|
A|--------|--------|--------|--------|--------|--------|--------|--------|--------|
E|--------|--------|--------|--------|--------|--------|--------|--------|--------|


E|--------|--------|--------|--------|--------|--------|--------|--------|--------|
B|--------|--------|--------|--------|--------|--------|--------|--------|--------|
G|--------|--------|--------|--------|--------|--------|--------|--------|--------|
D|--------|--------|--------|--------|--------|--------|--------|--------|--------|
A|--------|--------|--------|--------|--------|--------|--------|--------|--------|
E|--------|--------|--------|--------|--------|--------|--------|--------|--------|


E|--------|--------|--------|--------|--------|--------|--------|--------|--------|
B|--------|--------|--------|--------|--------|--------|--------|--------|--------|
G|--------|--------|--------|--------|--------|--------|--------|--------|--------|
D|--------|--------|--------|--------|--------|--------|--------|--------|--------|
A|--------|--------|--------|--------|--------|--------|--------|--------|--------|
E|--------|--------|--------|--------|--------|--------|--------|--------|--------|


E|--------|--------|--------|--------|--------|--------|--------|--------|--------|
B|--------|--------|--------|--------|--------|--------|--------|--------|--------|
G|--------|--------|--------|--------|--------|--------|--------|--------|--------|
D|--------|--------|--------|--------|--------|--------|--------|--------|--------|
A|--------|--------|--------|--------|--------|--------|--------|--------|--------|
E|--------|--------|--------|--------|--------|--------|--------|--------|--------|


E|--------|--------|--------|--------|--------|--------|--------|--------|--------|
B|--------|--------|--------|--------|--------|--------|--------|--------|--------|
G|--------|--------|--------|--------|--------|--------|--------|--------|--------|
D|--------|--------|--------|--------|--------|--------|--------|--------|--------|
A|--------|--------|--------|--------|--------|--------|--------|--------|--------|
E|--------|--------|--------|--------|--------|--------|--------|--------|--------|


E|--------|--------|--------|--------|--------|--------|--------|--------|--------|
B|--------|--------|--------|--------|--------|--------|--------|--------|--------|
G|--------|--------|--------|--------|--------|--------|--------|--------|--------|
D|--------|--------|--------|--------|--------|--------|--------|--------|--------|
A|--------|--------|--------|--------|--------|--------|--------|--------|--------|
E|--------|--------|--------|--------|--------|--------|--------|--------|--------|


E|--------|--------|--------|--------|--------|--------|--------|--------|--------|
B|--------|--------|--------|--------|--------|--------|--------|--------|--------|
G|--------|--------|--------|--------|--------|--------|--------|--------|--------|
D|--------|--------|--------|--------|--------|--------|--------|--------|--------|
A|--------|--------|--------|--------|--------|--------|--------|--------|--------|
E|--------|--------|--------|--------|--------|--------|--------|--------|--------|


E|--------|--------|--------|--------|--------|--------|--------|--------|-0------|
B|--------|--------|--------|--------|--------|--------|--------|--------|-1------|
G|--------|--------|--------|--------|--------|--------|--------|--------|-2------|
D|--------|--------|--------|--------|--------|--------|--------|--------|-2------|
A|--------|--------|--------|--------|--------|--------|--------|--------|-0------|
E|--------|--------|--------|--------|--------|--------|--------|--------|--------|


E|-0------|-0------|-0------|-1------|-1------|-1------|-1------|-0------|-0------|
B|-1------|-1------|-1------|-3------|-3------|-3------|-3------|-1------|-1------|
G|-2------|-2------|-2------|-2------|-2------|-2------|-2------|-2------|-2------|
D|-2------|-2------|-2------|-0------|-0------|-0------|-0------|-2------|-2------|
A|-0------|-0------|-0------|--------|--------|--------|--------|-0------|-0------|
E|--------|--------|--------|--------|--------|--------|--------|--------|--------|


E|-0------|-0------|--------|--------|--------|--------|-------------5---6----6----|
B|-1------|-1------|--------|--------|--------|--------|---------6-----------------|
G|-2------|-2------|--------|--------|--------|--------|-----7---------------------|
D|-2------|-2------|--------|--------|--------|--------|-0-------------------------|
A|-0------|-0------|--------|--------|--------|--------|---------------------------|
E|--------|--------|--------|--------|--------|--------|---------------------------|


E|-----------------------|-------------|-------------5---6---5--------|-----------------------|
B|-------------------5---|-6----6------|---------6---------------8----|-------------------5---|
G|---------------5-------|-------------|-----7------------------------|---------------5-------|
D|-----------7-----------|-------------|-0----------------------------|-----------7-----------|
A|-------0---------------|-------------|------------------------------|-------0---------------|
E|-----------------------|-------------|------------------------------|-----------------------|


E|----------------|-------------5---6---5--------|-6---5------------------------|---------------------------|
B|-6---5----------|---------6---------------8----|---------8----------------5---|-6---5--------6---5--------|
G|---------7------|-----7------------------------|----------------------5-------|---------7------------7----|
D|----------------|-0----------------------------|------------------7-----------|---------------------------|
A|----------------|------------------------------|--------------0---------------|---------------------------|
E|----------------|------------------------------|------------------------------|---------------------------|


E|-------------5---6---5--------|-6---5---------------------------|---------------------------|
B|---------6---------------8----|---------8---6---------------5---|-6---5--------6---5--------|
G|-----7------------------------|-------------------------5-------|---------7------------6----|
D|-0----------------------------|---------------------7-----------|---------------------------|
A|------------------------------|-----------------0---------------|---------------------------|
E|------------------------------|---------------------------------|---------------------------|


E|--------|--------|--------|--------|--------|--------|--------|--------|--------|
B|--------|--------|--------|--------|--------|--------|--------|--------|--------|
G|--------|--------|--------|--------|--------|--------|--------|--------|--------|
D|--------|--------|--------|--------|--------|--------|--------|--------|--------|
A|--------|--------|--------|--------|--------|--------|--------|--------|--------|
E|--------|--------|--------|--------|--------|--------|--------|--------|--------|


E|--------|--------|--------|--------|--------|--------|--------|--------|--------|
B|--------|--------|--------|--------|--------|--------|--------|--------|--------|
G|--------|--------|--------|--------|--------|--------|--------|--------|--------|
D|--------|--------|--------|--------|--------|--------|--------|--------|--------|
A|--------|--------|--------|--------|--------|--------|--------|--------|--------|
E|--------|--------|--------|--------|--------|--------|--------|--------|--------|


E|--------|--------|--------|--------|--------|--------|--------|--------|--------|
B|--------|--------|--------|--------|--------|--------|--------|--------|--------|
G|--------|--------|--------|--------|--------|--------|--------|--------|--------|
D|--------|--------|--------|--------|--------|--------|--------|--------|--------|
A|--------|--------|--------|--------|--------|--------|--------|--------|--------|
E|--------|--------|--------|--------|--------|--------|--------|--------|--------|


E|--------|--------|--------|--------|--------|--------|--------|--------|--------|
B|--------|--------|--------|--------|--------|--------|--------|--------|--------|
G|--------|--------|--------|--------|--------|--------|--------|--------|--------|
D|--------|--------|--------|--------|--------|--------|--------|--------|--------|
A|--------|--------|--------|--------|--------|--------|--------|--------|--------|
E|--------|--------|--------|--------|--------|--------|--------|--------|--------|


E|--------|--------|--------|--------|--------|--------|--------|--------|--------|
B|--------|--------|--------|--------|--------|--------|--------|--------|--------|
G|--------|--------|--------|--------|--------|--------|--------|--------|--------|
D|--------|--------|--------|--------|--------|--------|--------|--------|--------|
A|--------|--------|--------|--------|--------|--------|--------|--------|--------|
E|--------|--------|--------|--------|--------|--------|--------|--------|--------|


E|--------|--------|--------|--------|--------|--------|--------|--------|--------|
B|--------|--------|--------|--------|--------|--------|--------|--------|--------|
G|--------|--------|--------|--------|--------|--------|--------|--------|--------|
D|--------|--------|--------|--------|--------|--------|--------|--------|--------|
A|--------|--------|--------|--------|--------|--------|--------|--------|--------|
E|--------|--------|--------|--------|--------|--------|--------|--------|--------|


E|--------|--------|--------|--------|--------|--------|--------|--------|--------|
B|--------|--------|--------|--------|--------|--------|--------|--------|--------|
G|--------|--------|--------|--------|--------|--------|--------|--------|--------|
D|--------|--------|--------|--------|--------|--------|--------|--------|--------|
A|--------|--------|--------|--------|--------|--------|--------|--------|--------|
E|--------|--------|--------|--------|--------|--------|--------|--------|--------|


E|--------|--------|--------|--------|--------|--------|--------|--------|--------|
B|--------|--------|--------|--------|--------|--------|--------|--------|--------|
G|--------|--------|--------|--------|--------|--------|--------|--------|--------|
D|--------|--------|--------|--------|--------|--------|--------|--------|--------|
A|--------|--------|--------|--------|--------|--------|--------|--------|--------|
E|--------|--------|--------|--------|--------|--------|--------|--------|--------|


E|--------|--------|--------|--------|--------|--------|--------|--------|--------|
B|--------|--------|--------|--------|--------|--------|--------|--------|--------|
G|--------|--------|--------|--------|--------|--------|--------|--------|--------|
D|--------|--------|--------|--------|--------|--------|--------|--------|--------|
A|--------|--------|--------|--------|--------|--------|--------|--------|--------|
E|--------|--------|--------|--------|--------|--------|--------|--------|--------|


E|--------|--------|--------|--------|--------|--------|--------|--------|--------|
B|--------|--------|--------|--------|--------|--------|--------|--------|--------|
G|--------|--------|--------|--------|--------|--------|--------|--------|--------|
D|--------|--------|--------|--------|--------|--------|--------|--------|--------|
A|--------|--------|--------|--------|--------|--------|--------|--------|--------|
E|--------|--------|--------|--------|--------|--------|--------|--------|--------|


E|--------|--------|--------|--------|--------|--------|--------|--------|--------|
B|--------|--------|--------|--------|--------|--------|--------|--------|--------|
G|--------|--------|--------|--------|--------|--------|--------|--------|--------|
D|--------|--------|--------|--------|--------|--------|--------|--------|--------|
A|--------|--------|--------|--------|--------|--------|--------|--------|--------|
E|--------|--------|--------|--------|--------|--------|--------|--------|--------|


E|--------|--------|--------|--------|--------|--------|--------|--------|--------|
B|--------|--------|--------|--------|--------|--------|--------|--------|--------|
G|--------|--------|--------|--------|--------|--------|--------|--------|--------|
D|--------|--------|--------|--------|--------|--------|--------|--------|--------|
A|--------|--------|--------|--------|--------|--------|--------|--------|--------|
E|--------|--------|--------|--------|--------|--------|--------|--------|--------|


E|--------|--------|--------|--------|--------|--------|--------|--------|--------|
B|--------|--------|--------|--------|--------|--------|--------|--------|--------|
G|--------|--------|--------|--------|--------|--------|--------|--------|--------|
D|--------|--------|--------|--------|--------|--------|--------|--------|--------|
A|--------|--------|--------|--------|--------|--------|--------|--------|--------|
E|--------|--------|--------|--------|--------|--------|--------|--------|--------|


E|--------|--------|--------|--------|--------|--------|--------|--------|--------|
B|--------|--------|--------|--------|--------|--------|--------|--------|--------|
G|--------|--------|--------|--------|--------|--------|--------|--------|--------|
D|--------|--------|--------|--------|--------|--------|--------|--------|--------|
A|--------|--------|--------|--------|--------|--------|--------|--------|--------|
E|--------|--------|--------|--------|--------|--------|--------|--------|--------|


E|-----1-------1-------1-------1---|-----1-------1-------0-------0---|-----0-------0-------0-------0---|
B|-----3-------3-------3-------3---|-----3-------3-------1-------1---|-----1-------1-------1-------2---|
G|-----2-------2-------2-------2---|-----2-------2-------2-------2---|-----2-------2-------2-------2---|
D|-0---0---0---0---0---0---0---0---|-0---0---0---0-------2-------2---|-----2-------2-------2-------2---|
A|---------------------------------|-----------------0---0---0---0---|-0---0---0---0---0---0---0---0---|
E|---------------------------------|---------------------------------|---------------------------------|


E|--------|--------|--------|
B|--------|--------|--------|
G|--------|--------|--------|
D|--------|--------|--------|
A|--------|--------|--------|
E|--------|--------|--------|





Track 6: Acoustic Lead Guitar (Standard Tuning)

E|--------|--------|--------|--------|--------|--------|--------|--------|--------|
B|--------|--------|--------|--------|--------|--------|--------|--------|--------|
G|--------|--------|--------|--------|--------|--------|--------|--------|--------|
D|--------|--------|--------|--------|--------|--------|--------|--------|--------|
A|--------|--------|--------|--------|--------|--------|--------|--------|--------|
E|--------|--------|--------|--------|--------|--------|--------|--------|--------|


E|--------|--------|--------|--------|--------|--------|--------|--------|--------|
B|--------|--------|--------|--------|--------|--------|--------|--------|--------|
G|--------|--------|--------|--------|--------|--------|--------|--------|--------|
D|--------|--------|--------|--------|--------|--------|--------|--------|--------|
A|--------|--------|--------|--------|--------|--------|--------|--------|--------|
E|--------|--------|--------|--------|--------|--------|--------|--------|--------|


E|--------|--------|--------|--------|--------|--------|--------|--------|--------|
B|--------|--------|--------|--------|--------|--------|--------|--------|--------|
G|--------|--------|--------|--------|--------|--------|--------|--------|--------|
D|--------|--------|--------|--------|--------|--------|--------|--------|--------|
A|--------|--------|--------|--------|--------|--------|--------|--------|--------|
E|--------|--------|--------|--------|--------|--------|--------|--------|--------|


E|--------|--------|--------|--------|--------|--------|--------|--------|--------|
B|--------|--------|--------|--------|--------|--------|--------|--------|--------|
G|--------|--------|--------|--------|--------|--------|--------|--------|--------|
D|--------|--------|--------|--------|--------|--------|--------|--------|--------|
A|--------|--------|--------|--------|--------|--------|--------|--------|--------|
E|--------|--------|--------|--------|--------|--------|--------|--------|--------|


E|--------|--------|--------|--------|--------|--------|--------|--------|--------|
B|--------|--------|--------|--------|--------|--------|--------|--------|--------|
G|--------|--------|--------|--------|--------|--------|--------|--------|--------|
D|--------|--------|--------|--------|--------|--------|--------|--------|--------|
A|--------|--------|--------|--------|--------|--------|--------|--------|--------|
E|--------|--------|--------|--------|--------|--------|--------|--------|--------|


E|--------|--------|--------|--------|--------|--------|--------|--------|--------|
B|--------|--------|--------|--------|--------|--------|--------|--------|--------|
G|--------|--------|--------|--------|--------|--------|--------|--------|--------|
D|--------|--------|--------|--------|--------|--------|--------|--------|--------|
A|--------|--------|--------|--------|--------|--------|--------|--------|--------|
E|--------|--------|--------|--------|--------|--------|--------|--------|--------|


E|--------|--------|--------|--------|--------|--------|--------|--------|--------|
B|--------|--------|--------|--------|--------|--------|--------|--------|--------|
G|--------|--------|--------|--------|--------|--------|--------|--------|--------|
D|--------|--------|--------|--------|--------|--------|--------|--------|--------|
A|--------|--------|--------|--------|--------|--------|--------|--------|--------|
E|--------|--------|--------|--------|--------|--------|--------|--------|--------|


E|--------|--------|--------|--------|--------|--------|--------|--------|--------|
B|--------|--------|--------|--------|--------|--------|--------|--------|--------|
G|--------|--------|--------|--------|--------|--------|--------|--------|--------|
D|--------|--------|--------|--------|--------|--------|--------|--------|--------|
A|--------|--------|--------|--------|--------|--------|--------|--------|--------|
E|--------|--------|--------|--------|--------|--------|--------|--------|--------|


E|--------|--------|--------|--------|--------|--------|--------|--------|--------|
B|--------|--------|--------|--------|--------|--------|--------|--------|--------|
G|--------|--------|--------|--------|--------|--------|--------|--------|--------|
D|--------|--------|--------|--------|--------|--------|--------|--------|--------|
A|--------|--------|--------|--------|--------|--------|--------|--------|--------|
E|--------|--------|--------|--------|--------|--------|--------|--------|--------|


E|--------|--------|--------|--------|--------|--------|--------|--------|--------|
B|--------|--------|--------|--------|--------|--------|--------|--------|--------|
G|--------|--------|--------|--------|--------|--------|--------|--------|--------|
D|--------|--------|--------|--------|--------|--------|--------|--------|--------|
A|--------|--------|--------|--------|--------|--------|--------|--------|--------|
E|--------|--------|--------|--------|--------|--------|--------|--------|--------|


E|--------|--------|--------|--------|--------|--------|--------|--------|--------|
B|--------|--------|--------|--------|--------|--------|--------|--------|--------|
G|--------|--------|--------|--------|--------|--------|--------|--------|--------|
D|--------|--------|--------|--------|--------|--------|--------|--------|--------|
A|--------|--------|--------|--------|--------|--------|--------|--------|--------|
E|--------|--------|--------|--------|--------|--------|--------|--------|--------|


E|--------|--------|--------|--------|--------|--------|--------|--------|--------------------|
B|--------|--------|--------|--------|--------|--------|--------|--------|-12---13----12--13--|
G|--------|--------|--------|--------|--------|--------|--------|--------|--------------------|
D|--------|--------|--------|--------|--------|--------|--------|--------|--------------------|
A|--------|--------|--------|--------|--------|--------|--------|--------|--------------------|
E|--------|--------|--------|--------|--------|--------|--------|--------|--------------------|


E|---------------------------------|--------|--------|-12---13----12--13--|-15--13--12------13--12----------|
B|-15--13--12--13--12------12------|--------|--------|--------------------|-------------15----------15--13--|
G|---------------------14------12--|-14-----|-14-----|--------------------|---------------------------------|
D|---------------------------------|--------|--------|--------------------|---------------------------------|
A|---------------------------------|--------|--------|--------------------|---------------------------------|
E|---------------------------------|--------|--------|--------------------|---------------------------------|


E|--------|--------|--------------------|---------------------------------|--------|
B|-15-----|-15-----|-12---13----12--13--|-15--13--12--13--12------12------|--------|
G|--------|--------|--------------------|---------------------14------12--|-14-----|
D|--------|--------|--------------------|---------------------------------|--------|
A|--------|--------|--------------------|---------------------------------|--------|
E|--------|--------|--------------------|---------------------------------|--------|


E|--------|-3---1---0-------1---0-----------|-0-------------------------------|-0------|
B|--------|-------------3-----------3---1---|-----3---1---0---3---1---0-------|-1------|
G|-14-----|---------------------------------|-----------------------------2---|-2------|
D|--------|---------------------------------|---------------------------------|-2------|
A|--------|---------------------------------|---------------------------------|-0------|
E|--------|---------------------------------|---------------------------------|--------|


E|-0------|--------|--------|--------|--------|--------|--------|--------|--------|
B|-1------|--------|--------|--------|--------|--------|--------|--------|--------|
G|-2------|--------|--------|--------|--------|--------|--------|--------|--------|
D|-2------|--------|--------|--------|--------|--------|--------|--------|--------|
A|-0------|--------|--------|--------|--------|--------|--------|--------|--------|
E|--------|--------|--------|--------|--------|--------|--------|--------|--------|


E|--------|--------|--------|--------|--------|--------|--------|--------|--------|
B|--------|--------|--------|--------|--------|--------|--------|--------|--------|
G|--------|--------|--------|--------|--------|--------|--------|--------|--------|
D|--------|--------|--------|--------|--------|--------|--------|--------|--------|
A|--------|--------|--------|--------|--------|--------|--------|--------|--------|
E|--------|--------|--------|--------|--------|--------|--------|--------|--------|


E|--------|--------|--------|--------|--------|--------|--------|--------|--------|
B|--------|--------|--------|--------|--------|--------|--------|--------|--------|
G|--------|--------|--------|--------|--------|--------|--------|--------|--------|
D|--------|--------|--------|--------|--------|--------|--------|--------|--------|
A|--------|--------|--------|--------|--------|--------|--------|--------|--------|
E|--------|--------|--------|--------|--------|--------|--------|--------|--------|


E|--------|--------|--------|--------|--------|--------|--------|--------|--------|
B|--------|--------|--------|--------|--------|--------|--------|--------|--------|
G|--------|--------|--------|--------|--------|--------|--------|--------|--------|
D|--------|--------|--------|--------|--------|--------|--------|--------|--------|
A|--------|--------|--------|--------|--------|--------|--------|--------|--------|
E|--------|--------|--------|--------|--------|--------|--------|--------|--------|


E|--------|--------|--------|--------|--------|--------|--------|--------|--------|
B|--------|--------|--------|--------|--------|--------|--------|--------|--------|
G|--------|--------|--------|--------|--------|--------|--------|--------|--------|
D|--------|--------|--------|--------|--------|--------|--------|--------|--------|
A|--------|--------|--------|--------|--------|--------|--------|--------|--------|
E|--------|--------|--------|--------|--------|--------|--------|--------|--------|


E|--------|--------|--------|--------|--------|--------|--------|--------|--------|
B|--------|--------|--------|--------|--------|--------|--------|--------|--------|
G|--------|--------|--------|--------|--------|--------|--------|--------|--------|
D|--------|--------|--------|--------|--------|--------|--------|--------|--------|
A|--------|--------|--------|--------|--------|--------|--------|--------|--------|
E|--------|--------|--------|--------|--------|--------|--------|--------|--------|


E|--------|--------|--------|--------|--------|--------|--------|--------|--------|
B|--------|--------|--------|--------|--------|--------|--------|--------|--------|
G|--------|--------|--------|--------|--------|--------|--------|--------|--------|
D|--------|--------|--------|--------|--------|--------|--------|--------|--------|
A|--------|--------|--------|--------|--------|--------|--------|--------|--------|
E|--------|--------|--------|--------|--------|--------|--------|--------|--------|


E|--------|--------|--------|--------|--------|--------|--------|--------|--------|
B|--------|--------|--------|--------|--------|--------|--------|--------|--------|
G|--------|--------|--------|--------|--------|--------|--------|--------|--------|
D|--------|--------|--------|--------|--------|--------|--------|--------|--------|
A|--------|--------|--------|--------|--------|--------|--------|--------|--------|
E|--------|--------|--------|--------|--------|--------|--------|--------|--------|


E|--------|--------|--------|--------|--------|--------|--------|--------|--------|
B|--------|--------|--------|--------|--------|--------|--------|--------|--------|
G|--------|--------|--------|--------|--------|--------|--------|--------|--------|
D|--------|--------|--------|--------|--------|--------|--------|--------|--------|
A|--------|--------|--------|--------|--------|--------|--------|--------|--------|
E|--------|--------|--------|--------|--------|--------|--------|--------|--------|


E|--------|--------|--------|--------|--------|--------|--------|--------|--------|
B|--------|--------|--------|--------|--------|--------|--------|--------|--------|
G|--------|--------|--------|--------|--------|--------|--------|--------|--------|
D|--------|--------|--------|--------|--------|--------|--------|--------|--------|
A|--------|--------|--------|--------|--------|--------|--------|--------|--------|
E|--------|--------|--------|--------|--------|--------|--------|--------|--------|


E|--------|--------|--------|--------|--------|--------|--------|--------|--------|
B|--------|--------|--------|--------|--------|--------|--------|--------|--------|
G|--------|--------|--------|--------|--------|--------|--------|--------|--------|
D|--------|--------|--------|--------|--------|--------|--------|--------|--------|
A|--------|--------|--------|--------|--------|--------|--------|--------|--------|
E|--------|--------|--------|--------|--------|--------|--------|--------|--------|


E|--------|--------|--------|--------|--------|--------|--------|--------|--------|
B|--------|--------|--------|--------|--------|--------|--------|--------|--------|
G|--------|--------|--------|--------|--------|--------|--------|--------|--------|
D|--------|--------|--------|--------|--------|--------|--------|--------|--------|
A|--------|--------|--------|--------|--------|--------|--------|--------|--------|
E|--------|--------|--------|--------|--------|--------|--------|--------|--------|


E|--------|--------|--------|--------|--------|--------|--------|--------|--------|
B|--------|--------|--------|--------|--------|--------|--------|--------|--------|
G|--------|--------|--------|--------|--------|--------|--------|--------|--------|
D|--------|--------|--------|--------|--------|--------|--------|--------|--------|
A|--------|--------|--------|--------|--------|--------|--------|--------|--------|
E|--------|--------|--------|--------|--------|--------|--------|--------|--------|


E|--------|--------|--------|--------|--------|--------|--------|--------|--------|
B|--------|--------|--------|--------|--------|--------|--------|--------|--------|
G|--------|--------|--------|--------|--------|--------|--------|--------|--------|
D|--------|--------|--------|--------|--------|--------|--------|--------|--------|
A|--------|--------|--------|--------|--------|--------|--------|--------|--------|
E|--------|--------|--------|--------|--------|--------|--------|--------|--------|


E|--------|--------|--------|--------|--------|--------|--------|--------|--------|
B|--------|--------|--------|--------|--------|--------|--------|--------|--------|
G|--------|--------|--------|--------|--------|--------|--------|--------|--------|
D|--------|--------|--------|--------|--------|--------|--------|--------|--------|
A|--------|--------|--------|--------|--------|--------|--------|--------|--------|
E|--------|--------|--------|--------|--------|--------|--------|--------|--------|


E|--------|--------|--------|--------|--------|--------|--------|--------|--------|
B|--------|--------|--------|--------|--------|--------|--------|--------|--------|
G|--------|--------|--------|--------|--------|--------|--------|--------|--------|
D|--------|--------|--------|--------|--------|--------|--------|--------|--------|
A|--------|--------|--------|--------|--------|--------|--------|--------|--------|
E|--------|--------|--------|--------|--------|--------|--------|--------|--------|


E|--------|
B|--------|
G|--------|
D|--------|
A|--------|
E|--------|





Track 7: Untitled

G|---------------------------------|---------------------------------|---------------------------------|
D|---------------------------------|---------------------------------|---------------------------------|
A|-5---5-------5-------5-------5---|-5---5-------5-------5-------5---|-5---5-------5-------5-------5---|
D|---------------------------------|---------------------------------|---------------------------------|


G|---------------------------------|---------------------------------|---------------------------------|
D|---------------------------------|---------------------------------|---------------------------------|
A|-5---5-------5-------5-------5---|-5---5-------5-------5-------5---|-5---5-------5-------5-------5---|
D|---------------------------------|---------------------------------|---------------------------------|


G|---------------------------------|---------------------------------|---------------------------------|
D|---------------------------------|---------------------------------|---------------------------------|
A|-5---5-------5-------5-------5---|-5---5-------5-------5-------5---|-5---5-------5-------5-------5---|
D|---------------------------------|---------------------------------|---------------------------------|


G|---------------------------------|---------------------------------|---------------------------------|
D|---------------------------------|---------------------------------|---------------------------------|
A|-5---5-------5-------5-------5---|-5---5-------5-------5-------5---|-5---5-------5-------5-------5---|
D|---------------------------------|---------------------------------|---------------------------------|


G|---------------------------------|---------------------------------|---------------------------------|
D|---------------------------------|---------------------------------|---------------------------------|
A|-5---5-------5-------5-------5---|-5---5-------5-------5-------5---|-5---5-------5-------5-------5---|
D|---------------------------------|---------------------------------|---------------------------------|


G|---------------------------------|---------------------------|---------------------|
D|---------------------------------|---------------------------|---------------------|
A|-5---7---8---7---8---7---8---7---|-8---7---8---7---5-----5---|-5----5----5-----5---|
D|---------------------------------|---------------------------|---------------------|


G|---------------------|---------------------|---------------------|---------------------|
D|---------------------|---------------------|---------------------|---------------------|
A|-5----5----5-----5---|-5----5----5-----5---|-8----7----5-----5---|-5----5----5-----5---|
D|---------------------|---------------------|---------------------|---------------------|


G|---------------------|---------------------|---------------------|---------------------|
D|---------------------|---------------------|---------------------|---------------------|
A|-5----5----5-----5---|-5----5----5-----5---|-8----7----5-----5---|-5----5----5-----5---|
D|---------------------|---------------------|---------------------|---------------------|


G|---------------------|---------------------|---------------------|---------------------|
D|---------------------|---------------------|---------------------|---------------------|
A|-5----5----5-----5---|-5----5----5-----5---|-8----7----5-----5---|-5----5----5-----5---|
D|---------------------|---------------------|---------------------|---------------------|


G|---------------------|---------------------|---------------------|---------------------|
D|---------------------|---------------------|-----------5-----5---|-5----5----5-----5---|
A|-5----5----5-----5---|-5----5----5-----5---|-8----7--------------|---------------------|
D|---------------------|---------------------|---------------------|---------------------|


G|---------------------|---------------------|-----------------|---------------------|
D|-5----5----5-----5---|-5----5----5-----5---|-8-----5-----5---|-5----5----5-----5---|
A|---------------------|---------------------|-----------------|---------------------|
D|---------------------|---------------------|-----------------|---------------------|


G|---------------------|---------------------|-----------------|---------------------|
D|-5----5----5-----5---|-5----5----5-----5---|-8---------------|---------------------|
A|---------------------|---------------------|-------5-----5---|-5----5----5-----5---|
D|---------------------|---------------------|-----------------|---------------------|


G|---------------------|---------------------|---------------------|---------------------|
D|---------------------|---------------------|---------------------|---------------------|
A|-5----5----5-----5---|-5----5----5-----5---|-8----7----5-----5---|-5----5----5-----5---|
D|---------------------|---------------------|---------------------|---------------------|


G|---------------------|---------------------|---------------------|---------------------|
D|---------------------|---------------------|---------------------|---------------------|
A|-5----5----5-----5---|-5----5----5-----5---|-8----7----5-----5---|-5----5----5-----5---|
D|---------------------|---------------------|---------------------|---------------------|


G|---------------------|---------------------|---------------------|---------------------|
D|---------------------|---------------------|---------------------|---------------------|
A|-5----5----5-----5---|-5----5----5-----5---|-5----5----5-----5---|-5----5----5-----5---|
D|---------------------|---------------------|---------------------|---------------------|


G|---------------------|---------------------|-----------------------------|-------------------------------------|
D|---------------------|---------------------|-----------------------------|-------------------------------------|
A|-5----5----5-----5---|-5----5----5-----5---|-5----5----5--5--5---5---5---|-5---5---5---5--5--7---7--7--7---7---|
D|---------------------|---------------------|-----------------------------|-------------------------------------|


G|-------------------------------------|---------------------------------------|---------------------------------------|
D|-------------------------------------|---------------------------------------|---------------------------------------|
A|-7---7---7--7--7---8--8--8---8---8---|-8---8---8---8--8--10-10-10--8---8--8--|-7--7--7---4---4--4--5--5--5---5---5---|
D|-------------------------------------|---------------------------------------|---------------------------------------|


G|-------------------------------------|-------------------------------------|---------------------------------------|
D|-------------------------------------|-------------------------------------|---------------------------------------|
A|-5---5---5---5--5--7---7--7--7---7---|-7---7---7--7--7---8--8--8---8---8---|-8---8---8---8--8--10-10-10--8---8--8--|
D|-------------------------------------|-------------------------------------|---------------------------------------|


G|-----------------------------------------|--------------------------------------------|
D|---------------------5--5--5--5--5---5---|-5--5--5---5--5--5--5---7--7--7--7--7---7---|
A|-7--7--7---4---4--4----------------------|--------------------------------------------|
D|-----------------------------------------|--------------------------------------------|


G|--------------------------------------------|--------------------------------------------------|
D|-7--7--7---7--7--7--7---8--8--8--8--8---8---|-8--8--8---8--8--8--8---10-10-10-10--8--8--8--8---|
A|--------------------------------------------|--------------------------------------------------|
D|--------------------------------------------|--------------------------------------------------|


G|-----------------------------------------------|--------------------------------------------|
D|-7--7--7--7---4--4--4--4---5--5--5--5--5---5---|-5--5--5---5--5--5--5---7--7--7--7--7---7---|
A|-----------------------------------------------|--------------------------------------------|
D|-----------------------------------------------|--------------------------------------------|


G|--------------------------------------------|--------------------------------------------------|
D|-7--7--7---7--7--7--7---8--8--8--8--8---8---|-8--8--8---8--8--8--8---10-10-10-10--8--8--8--8---|
A|--------------------------------------------|--------------------------------------------------|
D|--------------------------------------------|--------------------------------------------------|


G|---------------------------------------------|-------------------------------------|
D|-7--7--7--7---4--4--4--4---------------------|-------------------------------------|
A|---------------------------5--5--5---5---5---|-5---5---5---5--5--5---5--5--5---5---|
D|---------------------------------------------|-------------------------------------|


G|-------------------------------------|---------------------------------------|---------------------------------------|
D|-------------------------------------|---------------------------------------|---------------------------------------|
A|-5---5---5--5--5---5--5--5---5---5---|-5---5---5---5--5--5--5--5---5---5--5--|-5--5--5---5---5--5--5--5--5---5---5---|
D|-------------------------------------|---------------------------------------|---------------------------------------|


G|-------------------------------------|-------------------------------------|---------------------------------------|
D|-------------------------------------|-------------------------------------|---------------------------------------|
A|-5---5---5---5--5--5---5--5--5---5---|-5---5---5--5--5---5--5--5---5---5---|-5---5---5---5--5--5--5--5---5---5--5--|
D|-------------------------------------|-------------------------------------|---------------------------------------|


G|---------------------------------------|-------------------------------------|-------------------------------------|
D|---------------------------------------|-------------------------------------|-------------------------------------|
A|-5--5--5---5---5--5--5--5--5---5---5---|-5---5---5---5--5--5---5--5--5---5---|-5---5---5--5--5---5--5--5---5---5---|
D|---------------------------------------|-------------------------------------|-------------------------------------|


G|---------------------------------------|---------------------------------------|
D|---------------------------------------|---------------------------------------|
A|-5---5---5---5--5--5--5--5---5---5--5--|-5--5--5---5---5--5--5--5--5---5---5---|
D|---------------------------------------|---------------------------------------|


G|-------------------------------------|-------------------------------------|---------------------------------------|
D|-------------------------------------|-------------------------------------|---------------------------------------|
A|-5---5---5---5--5--5---5--5--5---5---|-5---5---5--5--5---5--5--5---5---5---|-5---5---5---5--5--5--5--5---5---5--5--|
D|-------------------------------------|-------------------------------------|---------------------------------------|


G|---------------------------------------|-------------------------------------|-------------------------------------|
D|---------------------------------------|-------------------------------------|-------------------------------------|
A|-5--5--5---5---5--5--5--5--5---5---5---|-5---5---5---5--5--7---7--7--7---7---|-7---7---7--7--7---8--8--8---8---8---|
D|---------------------------------------|-------------------------------------|-------------------------------------|


G|---------------------------------------|---------------------------------------|
D|---------------------------------------|---------------------------------------|
A|-8---8---8---8--8--10-10-10--8---8--8--|-7--7--7---4---4--4--5--5--5---5---5---|
D|---------------------------------------|---------------------------------------|


G|-------------------------------------|-------------------------------------|---------------------------------------|
D|-------------------------------------|-------------------------------------|---------------------------------------|
A|-5---5---5---5--5--7---7--7--7---7---|-7---7---7--7--7---8--8--8---8---8---|-8---8---8---8--8--10-10-10--8---8--8--|
D|-------------------------------------|-------------------------------------|---------------------------------------|


G|---------------------------|---------------------|---------------------|---------------------|
D|---------------------------|---------------------|---------------------|---------------------|
A|-7--7--7---4---4--4--4-----|-5-----5---5----5----|-5-----5---5----5----|-5-----5---5----5----|
D|---------------------------|---------------------|---------------------|---------------------|


G|---------------------|---------------------|---------------------|---------------------|
D|---------------------|---------------------|---------------------|---------------------|
A|-5-----5---8----7----|-5-----5---5----5----|-5-----5---5----5----|-5-----5---5----5----|
D|---------------------|---------------------|---------------------|---------------------|


G|---------------------|-----------------------------------------|---------------------------|
D|---------------------|---------------------5------5--7---5--7--|-8---7--8--10--8--10-12----|
A|-5-----5---8----7----|-5---5--7--8---7--8------8---------------|---------------------------|
D|---------------------|-----------------------------------------|---------------------------|


G|-----------2---------|-----------2---------|-----------2---------|-----------2---------|
D|------2---------2----|------2---------2----|------2---------2----|------2---------2----|
A|-0-------------------|-0-------------------|-0-------------------|-0-------------------|
D|---------------------|---------------------|---------------------|---------------------|


G|-----------7---------|-----------7---------|-----------7---------|-----------7---------|
D|------7---------7----|------7---------7----|------7---------7----|------7---------7----|
A|-5-------------------|-5-------------------|-5-------------------|-5-------------------|
D|---------------------|---------------------|---------------------|---------------------|


G|-----------2---------|-----------2---------|-----------2---------|-----------2---------|
D|------2---------2----|------2---------2----|------2---------2----|------2---------2----|
A|-0-------------------|-0-------------------|-0-------------------|-0-------------------|
D|---------------------|---------------------|---------------------|---------------------|


G|-------------|-------------|--------|--------|--------|-------------|--------|--------|
D|-5-----3-----|-------------|--------|--------|--------|-------------|--------|--------|
A|-------------|-3-----5-----|-7------|-7------|-5------|-------0-----|--------|-5------|
D|-------------|-------------|--------|--------|--------|-------------|--------|--------|


G|-------------|--------|--------|-------------|--------|--------|-----------------------|
D|-------------|--------|--------|-------------|--------|--------|-----------------------|
A|-------0-----|--------|-5------|-------0-----|--------|-5------|-------0---0---0---0---|
D|-------------|--------|--------|-------------|--------|--------|-----------------------|


G|---------------------------------|-----------------|-----------------|-----------------|
D|---------------------------------|-----------------|-----------------|-----------------|
A|-0---0---0---0---0---0---0---0---|-5-----5----5----|------5----0-----|-0----0-----0----|
D|---------------------------------|-----------------|-----------------|-----------------|


G|-----------------|-----------------|-----------------|--------------------------------|
D|-----------------|-----------------|-----------------|--------------------------------|
A|-5-----5----5----|------5----0-----|-0----0-----0----|-5----5---5---5--5--5---5---5---|
D|-----------------|-----------------|-----------------|--------------------------------|


G|--------------------------------------|---------------------|--------------------------------|
D|--------------------------------------|---------------------|--------------------------------|
A|-5----5--5--5--5--0--0--0--0--0---0---|-0----0----0----0----|-5----5---5---5--5--5---5---5---|
D|--------------------------------------|---------------------|--------------------------------|


G|--------------------------------------|---------------------|-----------------|-----------------|
D|--------------------------------------|---------------------|-----------------|-----------------|
A|-5----5--5--5--5--0--0--0--0--0---0---|-0----0----0----0----|-5-----5----5----|------5----0-----|
D|--------------------------------------|---------------------|-----------------|-----------------|


G|-----------------|-----------------|-----------------|-----------------|-----------------|
D|-----------------|-----------------|-----------------|-----------------|-----------------|
A|-0----0-----0----|-5-----5----5----|------5----0-----|-0----0-----0----|-5-----5----5----|
D|-----------------|-----------------|-----------------|-----------------|-----------------|


G|-----------------|-----------------|-----------------|-----------------|-----------------|
D|-----------------|-----------------|-----------------|-----------------|-----------------|
A|------5----0-----|-0----0-----0----|-5-----5----5----|------5----0-----|-0----0-----0----|
D|-----------------|-----------------|-----------------|-----------------|-----------------|


G|------------------------|---------------------|---------------------|-------------|
D|------------------------|---------------------|---------------------|-------------|
A|-5----5----5----5---5---|-5----5----5----5----|-5----5----5----5----|-8-----7-----|
D|------------------------|---------------------|---------------------|-------------|


G|------------------------|---------------------|---------------------|-------------|
D|------------------------|---------------------|---------------------|-------------|
A|-5----5----5----5---5---|-5----5----5----5----|-5----5----5----5----|-8-----7-----|
D|------------------------|---------------------|---------------------|-------------|


G|--------------------|---------------------------|--------------------|------------------------------|
D|--------------------|---------------------------|--------------------|------------------------------|
A|-5-----5----5---7---|-8----8---8---8----8---8---|-10----10---10--10--|------------------------------|
D|--------------------|---------------------------|--------------------|-10------10------10------11---|


G|--------------------|---------------------------|--------------------|------------------------------|
D|--------------------|---------------------------|--------------------|------------------------------|
A|-5-----5----5---7---|-8----8---8---8----8---8---|-10----10---10--10--|------------------------------|
D|--------------------|---------------------------|--------------------|-10------10------10------11---|


G|--------------------|---------------------------|--------------------|------------------------------|
D|--------------------|---------------------------|--------------------|------------------------------|
A|-5-----5----5---7---|-8----8---8---8----8---8---|-10----10---10--10--|------------------------------|
D|--------------------|---------------------------|--------------------|-10------10------10------11---|


G|--------------------|---------------------------|--------------------|------------------------------|
D|--------------------|---------------------------|--------------------|------------------------------|
A|-5-----5----5---7---|-8----8---8---8----8---8---|-10----10---10--10--|------------------------------|
D|--------------------|---------------------------|--------------------|-10------10------10------11---|


G|------------------------|---------------------|---------------------|-------------|
D|------------------------|---------------------|---------------------|-------------|
A|-5----5----5----5---5---|-5----5----5----5----|-5----5----5----5----|-8-----7-----|
D|------------------------|---------------------|---------------------|-------------|


G|------------------------|---------------------|---------------------|-------------|
D|------------------------|---------------------|---------------------|-------------|
A|-5----5----5----5---5---|-5----5----5----5----|-5----5----5----5----|-8-----7-----|
D|------------------------|---------------------|---------------------|-------------|


G|--------|--------|--------|--------|--------|--------|--------|--------|---------------------------------------------|
D|--------|--------|--------|--------|--------|--------|--------|--------|---------------3------------3------------3---|
A|-5------|-3------|-1------|-1------|-1------|-3------|-5------|-5------|-1---1--1--1-------1--1--1------1--1--1------|
D|--------|--------|--------|--------|--------|--------|--------|--------|---------------------------------------------|


G|---------------------------------------------|---------------------------------------------|
D|---------------5------------5------------5---|---------------7------------7------------7---|
A|-3---3--3--3-------3--3--3------3--3--3------|-5---5--5--5-------5--5--5------5--5--5------|
D|---------------------------------------------|---------------------------------------------|


G|-----------------------------------------------------|---------------------------------------------|
D|----------7------------7------------7------------7---|---------------3------------3------------3---|
A|-5--5--5------5--5--5------5--5--5------5--5--5------|-1---1--1--1-------1--1--1------1--1--1------|
D|-----------------------------------------------------|---------------------------------------------|


G|---------------------------------------------|---------------------------------------------|
D|---------------5------------5------------5---|---------------7------------7------------7---|
A|-3---3--3--3-------3--3--3------3--3--3------|-5---5--5--5-------5--5--5------5--5--5------|
D|---------------------------------------------|---------------------------------------------|


G|-----------------------------------------------------|---------------------------------------------|
D|----------7------------7------------7------------7---|---------------3------------3------------3---|
A|-5--5--5------5--5--5------5--5--5------5--5--5------|-1---1--1--1-------1--1--1------1--1--1------|
D|-----------------------------------------------------|---------------------------------------------|


G|---------------------------------------------|---------------------------------------------|
D|---------------5------------5------------5---|---------------7------------7------------7---|
A|-3---3--3--3-------3--3--3------3--3--3------|-5---5--5--5-------5--5--5------5--5--5------|
D|---------------------------------------------|---------------------------------------------|


G|-----------------------------------------------------|---------------------------------------------|
D|----------7------------7------------7------------7---|---------------3------------3------------3---|
A|-5--5--5------5--5--5------5--5--5------5--5--5------|-1---1--1--1-------1--1--1------1--1--1------|
D|-----------------------------------------------------|---------------------------------------------|


G|---------------------------------------------|---------------------------------------------|
D|---------------5------------5------------5---|---------------7------------7------------7---|
A|-3---3--3--3-------3--3--3------3--3--3------|-5---5--5--5-------5--5--5------5--5--5------|
D|---------------------------------------------|---------------------------------------------|


G|-----------------------------------------------------|---------------------------------------------|
D|----------7------------7------------7------------7---|---------------3------------3------------3---|
A|-5--5--5------5--5--5------5--5--5------5--5--5------|-1---1--1--1-------1--1--1------1--1--1------|
D|-----------------------------------------------------|---------------------------------------------|


G|---------------------------------------------|---------------------------------------------|
D|---------------5------------5------------5---|---------------7------------7------------7---|
A|-3---3--3--3-------3--3--3------3--3--3------|-5---5--5--5-------5--5--5------5--5--5------|
D|---------------------------------------------|---------------------------------------------|


G|-----------------------------------------------------|---------------------------------------------|
D|----------7------------7------------7------------7---|---------------3------------3------------3---|
A|-5--5--5------5--5--5------5--5--5------5--5--5------|-1---1--1--1-------1--1--1------1--1--1------|
D|-----------------------------------------------------|---------------------------------------------|


G|---------------------------------------------|---------------------------------------------|
D|---------------5------------5------------5---|---------------7------------7------------7---|
A|-3---3--3--3-------3--3--3------3--3--3------|-5---5--5--5-------5--5--5------5--5--5------|
D|---------------------------------------------|---------------------------------------------|


G|-----------------------------------------------------|---------------------------------------------|
D|----------7------------7------------7------------7---|---------------3------------3------------3---|
A|-5--5--5------5--5--5------5--5--5------5--5--5------|-1---1--1--1-------1--1--1------1--1--1------|
D|-----------------------------------------------------|---------------------------------------------|


G|---------------------------------------------|---------------------------------------------|
D|---------------5------------5------------5---|---------------7------------7------------7---|
A|-3---3--3--3-------3--3--3------3--3--3------|-5---5--5--5-------5--5--5------5--5--5------|
D|---------------------------------------------|---------------------------------------------|


G|-----------------------------------------------------|---------------------------------------------|
D|----------7------------7------------7------------7---|---------------3------------3------------3---|
A|-5--5--5------5--5--5------5--5--5------5--5--5------|-1---1--1--1-------1--1--1------1--1--1------|
D|-----------------------------------------------------|---------------------------------------------|


G|---------------------------------------------|---------------------------------------------|
D|---------------5------------5------------5---|---------------7------------7------------7---|
A|-3---3--3--3-------3--3--3------3--3--3------|-5---5--5--5-------5--5--5------5--5--5------|
D|---------------------------------------------|---------------------------------------------|


G|-----------------------------------------------------|---------------------------------------------|
D|----------7------------7------------7------------7---|---------------3------------3------------3---|
A|-5--5--5------5--5--5------5--5--5------5--5--5------|-1---1--1--1-------1--1--1------1--1--1------|
D|-----------------------------------------------------|---------------------------------------------|


G|---------------------------------------------|--------|--------|--------------------------------|
D|---------------5------------5------------5---|--------|--------|--------------------------------|
A|-3---3--3--3-------3--3--3------3--3--3------|-5------|-5------|-5----5---5---5--5--5---5---5---|
D|---------------------------------------------|--------|--------|--------------------------------|


G|--------------------------------------|---------------------|--------------------------------|
D|--------------------------------------|---------------------|--------------------------------|
A|-5----5--5--5--5--0--0--0--0--0---0---|-0----0----0----0----|-5----5---5---5--5--5---5---5---|
D|--------------------------------------|---------------------|--------------------------------|


G|--------------------------------------|---------------------|--------------------------------|
D|--------------------------------------|---------------------|--------------------------------|
A|-5----5--5--5--5--0--0--0--0--0---0---|-0----0----0----0----|-5----5---5---5--5--5---5---5---|
D|--------------------------------------|---------------------|--------------------------------|


G|--------------------------------------|---------------------|--------------------------------|
D|--------------------------------------|---------------------|--------------------------------|
A|-5----5--5--5--5--0--0--0--0--0---0---|-0----0----0----0----|-5----5---5---5--5--5---5---5---|
D|--------------------------------------|---------------------|--------------------------------|


G|--------------------------------------|---------------------|--------|-------------|
D|--------------------------------------|---------------------|--------|-------------|
A|-5----5--5--5--5--0--0--0--0--0---0---|-0----0----0----0----|-5------|-------5-----|
D|--------------------------------------|---------------------|--------|-------------|


G|--------|--------|-------------|--------|-------------|-------------|-------------|
D|--------|--------|-------------|--------|-------------|-------------|-------------|
A|--------|-5------|-------5-----|--------|-5-----5-----|-5-----5-----|-5-----5-----|
D|--------|--------|-------------|--------|-------------|-------------|-------------|


G|-----------------|-----------------|--------|-------------------------------------------------|
D|-----------------|-----------------|--------|-------------------------------------------------|
A|-5-----5----5----|-5---------------|--------|-------------------------------------------------|
D|-----------------|-----------------|-11-----|-12-12----12----12----12-12-12----12----12----12-|


G|-------------------------------------------------|---------------------|---------------------|
D|-------------------------------------------------|---------------------|---------------------|
A|-------------------------------------------------|-5---------5---------|-5---------0---------|
D|-12-12----12----12----12-12-12----12----12----12-|------7---------7----|------7---------2----|


G|---------------------|--------|--------|--------|
D|---------------------|--------|--------|--------|
A|-0---------0---------|-5------|-5------|-5------|
D|------2---------2----|--------|--------|--------|