Menu:

 

Search:

 

olav - fade to misery:

 



Title: Fade To Misery
Artist: 
Album: 
Author: Sponge


Track 1: Clean 2

E|---------0-----------------------|-----------------------------2---|---------0-----------------------|
B|-----0-------0-----------1-------|---------1---------------0-------|-----0-------0-----------1-------|
G|-----------------------------0---|-------------2-------------------|-----------------------------0---|
D|---------------------2-----------|-----2---------------1-----------|---------------------2-----------|
A|-----------------3---------------|-0---------------2---------------|-----------------3---------------|
E|-0-------------------------------|---------------------------------|-0-------------------------------|


E|-----------------------------2---|-0------|--------|--------|--------|--------|---------0-----------------------|
B|---------1---------------0-------|-0------|--------|--------|--------|--------|-----0-------0-----------1-------|
G|-------------2-------------------|-0------|--------|--------|--------|--------|-----------------------------0---|
D|-----2---------------1-----------|-2------|--------|--------|--------|--------|---------------------2-----------|
A|-0---------------2---------------|-2------|--------|--------|--------|--------|-----------------3---------------|
E|---------------------------------|-0------|--------|--------|--------|--------|-0-------------------------------|


E|-----------------------------2---|---------0-----------------------|-----------------------------2---|
B|---------1---------------0-------|-----0-------0-----------1-------|---------1---------------0-------|
G|-------------2-------------------|-----------------------------0---|-------------2-------------------|
D|-----2---------------1-----------|---------------------2-----------|-----2---------------1-----------|
A|-0---------------2---------------|-----------------3---------------|-0---------------2---------------|
E|---------------------------------|-0-------------------------------|---------------------------------|


E|---------0-----------------------|-----------------------------2---|---------0-----------------------|
B|-----0-------0-----------1-------|---------1---------------0-------|-----0-------0-----------1-------|
G|-----------------------------0---|-------------2-------------------|-----------------------------0---|
D|---------------------2-----------|-----2---------------1-----------|---------------------2-----------|
A|-----------------3---------------|-0---------------2---------------|-----------------3---------------|
E|-0-------------------------------|---------------------------------|-0-------------------------------|


E|-----------------------------2---|--------|--------|--------|--------|--------|--------|
B|---------1---------------0-------|--------|--------|--------|--------|--------|--------|
G|-------------2-------------------|--------|--------|--------|--------|--------|--------|
D|-----2---------------1-----------|--------|--------|--------|--------|--------|--------|
A|-0---------------2---------------|--------|--------|--------|--------|--------|--------|
E|---------------------------------|--------|--------|--------|--------|--------|--------|


E|--------|--------|--------|--------|--------|--------|--------|--------|--------|
B|--------|--------|--------|--------|--------|--------|--------|--------|--------|
G|--------|--------|--------|--------|--------|--------|--------|--------|--------|
D|--------|--------|--------|--------|--------|--------|--------|--------|--------|
A|--------|--------|--------|--------|--------|--------|--------|--------|--------|
E|--------|--------|--------|--------|--------|--------|--------|--------|--------|


E|--------|--------|--------|--------|--------|--------|--------|--------|--------|
B|--------|--------|--------|--------|--------|--------|--------|--------|--------|
G|--------|--------|--------|--------|--------|--------|--------|--------|--------|
D|--------|--------|--------|--------|--------|--------|--------|--------|--------|
A|--------|--------|--------|--------|--------|--------|--------|--------|--------|
E|--------|--------|--------|--------|--------|--------|--------|--------|--------|


E|--------|--------|--------|--------|--------|--------|--------|--------|--------|
B|--------|--------|--------|--------|--------|--------|--------|--------|--------|
G|--------|--------|--------|--------|--------|--------|--------|--------|--------|
D|--------|--------|--------|--------|--------|--------|--------|--------|--------|
A|--------|--------|--------|--------|--------|--------|--------|--------|--------|
E|--------|--------|--------|--------|--------|--------|--------|--------|--------|


E|--------|--------|--------|--------|--------|--------|--------|--------|--------|
B|--------|--------|--------|--------|--------|--------|--------|--------|--------|
G|--------|--------|--------|--------|--------|--------|--------|--------|--------|
D|--------|--------|--------|--------|--------|--------|--------|--------|--------|
A|--------|--------|--------|--------|--------|--------|--------|--------|--------|
E|--------|--------|--------|--------|--------|--------|--------|--------|--------|


E|--------|--------|--------|--------|--------|--------|--------|--------|--------|
B|--------|--------|--------|--------|--------|--------|--------|--------|--------|
G|--------|--------|--------|--------|--------|--------|--------|--------|--------|
D|--------|--------|--------|--------|--------|--------|--------|--------|--------|
A|--------|--------|--------|--------|--------|--------|--------|--------|--------|
E|--------|--------|--------|--------|--------|--------|--------|--------|--------|


E|--------|--------|--------|--------|--------|--------|--------|--------|--------|
B|--------|--------|--------|--------|--------|--------|--------|--------|--------|
G|--------|--------|--------|--------|--------|--------|--------|--------|--------|
D|--------|--------|--------|--------|--------|--------|--------|--------|--------|
A|--------|--------|--------|--------|--------|--------|--------|--------|--------|
E|--------|--------|--------|--------|--------|--------|--------|--------|--------|


E|--------|--------|--------|--------|--------|--------|--------|--------|--------|
B|--------|--------|--------|--------|--------|--------|--------|--------|--------|
G|--------|--------|--------|--------|--------|--------|--------|--------|--------|
D|--------|--------|--------|--------|--------|--------|--------|--------|--------|
A|--------|--------|--------|--------|--------|--------|--------|--------|--------|
E|--------|--------|--------|--------|--------|--------|--------|--------|--------|


E|--------|--------|--------|--------|--------|--------|--------|--------|--------|
B|--------|--------|--------|--------|--------|--------|--------|--------|--------|
G|--------|--------|--------|--------|--------|--------|--------|--------|--------|
D|--------|--------|--------|--------|--------|--------|--------|--------|--------|
A|--------|--------|--------|--------|--------|--------|--------|--------|--------|
E|--------|--------|--------|--------|--------|--------|--------|--------|--------|


E|--------|--------|--------|--------|--------|--------|--------|--------|--------|
B|--------|--------|--------|--------|--------|--------|--------|--------|--------|
G|--------|--------|--------|--------|--------|--------|--------|--------|--------|
D|--------|--------|--------|--------|--------|--------|--------|--------|--------|
A|--------|--------|--------|--------|--------|--------|--------|--------|--------|
E|--------|--------|--------|--------|--------|--------|--------|--------|--------|


E|--------|--------|--------|--------|--------|--------|--------|--------|--------|
B|--------|--------|--------|--------|--------|--------|--------|--------|--------|
G|--------|--------|--------|--------|--------|--------|--------|--------|--------|
D|--------|--------|--------|--------|--------|--------|--------|--------|--------|
A|--------|--------|--------|--------|--------|--------|--------|--------|--------|
E|--------|--------|--------|--------|--------|--------|--------|--------|--------|


E|--------|--------|--------|--------|--------|--------|--------|--------|--------|
B|--------|--------|--------|--------|--------|--------|--------|--------|--------|
G|--------|--------|--------|--------|--------|--------|--------|--------|--------|
D|--------|--------|--------|--------|--------|--------|--------|--------|--------|
A|--------|--------|--------|--------|--------|--------|--------|--------|--------|
E|--------|--------|--------|--------|--------|--------|--------|--------|--------|


E|--------|--------|--------|--------|--------|--------|--------|--------|--------|
B|--------|--------|--------|--------|--------|--------|--------|--------|--------|
G|--------|--------|--------|--------|--------|--------|--------|--------|--------|
D|--------|--------|--------|--------|--------|--------|--------|--------|--------|
A|--------|--------|--------|--------|--------|--------|--------|--------|--------|
E|--------|--------|--------|--------|--------|--------|--------|--------|--------|


E|--------|--------|--------|--------|--------|--------|--------|--------|--------|
B|--------|--------|--------|--------|--------|--------|--------|--------|--------|
G|--------|--------|--------|--------|--------|--------|--------|--------|--------|
D|--------|--------|--------|--------|--------|--------|--------|--------|--------|
A|--------|--------|--------|--------|--------|--------|--------|--------|--------|
E|--------|--------|--------|--------|--------|--------|--------|--------|--------|


E|--------|--------|--------|--------|--------|--------|--------|--------|--------|
B|--------|--------|--------|--------|--------|--------|--------|--------|--------|
G|--------|--------|--------|--------|--------|--------|--------|--------|--------|
D|--------|--------|--------|--------|--------|--------|--------|--------|--------|
A|--------|--------|--------|--------|--------|--------|--------|--------|--------|
E|--------|--------|--------|--------|--------|--------|--------|--------|--------|


E|--------|--------|--------|--------|--------|--------|--------|--------|--------|
B|--------|--------|--------|--------|--------|--------|--------|--------|--------|
G|--------|--------|--------|--------|--------|--------|--------|--------|--------|
D|--------|--------|--------|--------|--------|--------|--------|--------|--------|
A|--------|--------|--------|--------|--------|--------|--------|--------|--------|
E|--------|--------|--------|--------|--------|--------|--------|--------|--------|


E|--------|--------|--------|--------|--------|--------|--------|--------|--------|
B|--------|--------|--------|--------|--------|--------|--------|--------|--------|
G|--------|--------|--------|--------|--------|--------|--------|--------|--------|
D|--------|--------|--------|--------|--------|--------|--------|--------|--------|
A|--------|--------|--------|--------|--------|--------|--------|--------|--------|
E|--------|--------|--------|--------|--------|--------|--------|--------|--------|


E|--------|--------|--------|--------|--------|--------|--------|--------|--------|
B|--------|--------|--------|--------|--------|--------|--------|--------|--------|
G|--------|--------|--------|--------|--------|--------|--------|--------|--------|
D|--------|--------|--------|--------|--------|--------|--------|--------|--------|
A|--------|--------|--------|--------|--------|--------|--------|--------|--------|
E|--------|--------|--------|--------|--------|--------|--------|--------|--------|


E|--------|--------|--------|--------|--------|--------|--------|--------|--------|
B|--------|--------|--------|--------|--------|--------|--------|--------|--------|
G|--------|--------|--------|--------|--------|--------|--------|--------|--------|
D|--------|--------|--------|--------|--------|--------|--------|--------|--------|
A|--------|--------|--------|--------|--------|--------|--------|--------|--------|
E|--------|--------|--------|--------|--------|--------|--------|--------|--------|


E|--------|--------|--------|--------|--------|--------|--------|--------|--------|
B|--------|--------|--------|--------|--------|--------|--------|--------|--------|
G|--------|--------|--------|--------|--------|--------|--------|--------|--------|
D|--------|--------|--------|--------|--------|--------|--------|--------|--------|
A|--------|--------|--------|--------|--------|--------|--------|--------|--------|
E|--------|--------|--------|--------|--------|--------|--------|--------|--------|


E|--------|--------|--------|--------|--------|--------|--------|--------|--------|
B|--------|--------|--------|--------|--------|--------|--------|--------|--------|
G|--------|--------|--------|--------|--------|--------|--------|--------|--------|
D|--------|--------|--------|--------|--------|--------|--------|--------|--------|
A|--------|--------|--------|--------|--------|--------|--------|--------|--------|
E|--------|--------|--------|--------|--------|--------|--------|--------|--------|


E|--------|
B|--------|
G|--------|
D|--------|
A|--------|
E|--------|





Track 2: Clean 1

E|--------|--------|--------|--------|--------|--------------------------------|-----------------------------------|
B|--------|--------|--------|--------|--------|--------------------------------|-----------------------------------|
G|--------|--------|--------|--------|--------|--------------------------------|-----------------------------------|
D|--------|--------|--------|--------|--------|---------2----------------------|-----------------------------------|
A|--------|--------|--------|--------|--------|-----2-------2---3----3--2--0---|-0---2---3---0---2---2---0---------|
E|--------|--------|--------|--------|--------|-0------------------------------|----------------------------3--2---|


E|--------------------------------|-----------------------------------|--------------------------------|
B|--------------------------------|-----------------------------------|--------------------------------|
G|--------------------------------|-----------------------------------|--------------------------------|
D|---------2----------------------|-----------------------------------|---------2----------------------|
A|-----2-------2---3----3--2--0---|-0---2---3---0---2---2---0---------|-----2-------2---3----3--2--0---|
E|-0------------------------------|----------------------------3--2---|-0------------------------------|


E|-----------------------------------|--------------------------------|-----------------------------------|
B|-----------------------------------|--------------------------------|-----------------------------------|
G|-----------------------------------|--------------------------------|-----------------------------------|
D|-----------------------------------|---------2----------------------|-----------------------------------|
A|-0---2---3---0---2---2---0---------|-----2-------2---3----3--2--0---|-0---2---3---0---2---2---0---------|
E|----------------------------3--2---|-0------------------------------|----------------------------3--2---|


E|--------------------------------|-----------------------------------|--------------------------------|
B|--------------------------------|-----------------------------------|--------------------------------|
G|--------------------------------|-----------------------------------|--------------------------------|
D|---------2----------------------|-----------------------------------|---------2----------------------|
A|-----2-------2---3----3--2--0---|-0---2---3---0---2---2---0---------|-----2-------2---3----3--2--0---|
E|-0------------------------------|----------------------------3--2---|-0------------------------------|


E|-----------------------------------|--------|--------|--------|--------|--------|
B|-----------------------------------|--------|--------|--------|--------|--------|
G|-----------------------------------|--------|--------|--------|--------|--------|
D|-----------------------------------|--------|--------|--------|--------|--------|
A|-0---2---3---0---2---2---0---------|--------|--------|--------|--------|--------|
E|----------------------------3--2---|--------|--------|--------|--------|--------|


E|--------|--------|--------|--------|--------|--------|--------|--------|--------|
B|--------|--------|--------|--------|--------|--------|--------|--------|--------|
G|--------|--------|--------|--------|--------|--------|--------|--------|--------|
D|--------|--------|--------|--------|--------|--------|--------|--------|--------|
A|--------|--------|--------|--------|--------|--------|--------|--------|--------|
E|--------|--------|--------|--------|--------|--------|--------|--------|--------|


E|--------|--------|--------|--------|--------|--------|--------|--------|--------|
B|--------|--------|--------|--------|--------|--------|--------|--------|--------|
G|--------|--------|--------|--------|--------|--------|--------|--------|--------|
D|--------|--------|--------|--------|--------|--------|--------|--------|--------|
A|--------|--------|--------|--------|--------|--------|--------|--------|--------|
E|--------|--------|--------|--------|--------|--------|--------|--------|--------|


E|--------|--------|--------|--------|--------|--------|--------|--------|--------|
B|--------|--------|--------|--------|--------|--------|--------|--------|--------|
G|--------|--------|--------|--------|--------|--------|--------|--------|--------|
D|--------|--------|--------|--------|--------|--------|--------|--------|--------|
A|--------|--------|--------|--------|--------|--------|--------|--------|--------|
E|--------|--------|--------|--------|--------|--------|--------|--------|--------|


E|--------|--------|--------|--------|--------|--------|--------|--------|--------|
B|--------|--------|--------|--------|--------|--------|--------|--------|--------|
G|--------|--------|--------|--------|--------|--------|--------|--------|--------|
D|--------|--------|--------|--------|--------|--------|--------|--------|--------|
A|--------|--------|--------|--------|--------|--------|--------|--------|--------|
E|--------|--------|--------|--------|--------|--------|--------|--------|--------|


E|--------|--------|--------|--------|--------|--------|--------|--------|--------|
B|--------|--------|--------|--------|--------|--------|--------|--------|--------|
G|--------|--------|--------|--------|--------|--------|--------|--------|--------|
D|--------|--------|--------|--------|--------|--------|--------|--------|--------|
A|--------|--------|--------|--------|--------|--------|--------|--------|--------|
E|--------|--------|--------|--------|--------|--------|--------|--------|--------|


E|--------|--------|--------|--------|--------|--------|--------|--------|--------|
B|--------|--------|--------|--------|--------|--------|--------|--------|--------|
G|--------|--------|--------|--------|--------|--------|--------|--------|--------|
D|--------|--------|--------|--------|--------|--------|--------|--------|--------|
A|--------|--------|--------|--------|--------|--------|--------|--------|--------|
E|--------|--------|--------|--------|--------|--------|--------|--------|--------|


E|--------|--------|--------|--------|--------|--------|--------|--------|--------|
B|--------|--------|--------|--------|--------|--------|--------|--------|--------|
G|--------|--------|--------|--------|--------|--------|--------|--------|--------|
D|--------|--------|--------|--------|--------|--------|--------|--------|--------|
A|--------|--------|--------|--------|--------|--------|--------|--------|--------|
E|--------|--------|--------|--------|--------|--------|--------|--------|--------|


E|--------|--------|--------|--------|--------|--------|--------|--------|--------|
B|--------|--------|--------|--------|--------|--------|--------|--------|--------|
G|--------|--------|--------|--------|--------|--------|--------|--------|--------|
D|--------|--------|--------|--------|--------|--------|--------|--------|--------|
A|--------|--------|--------|--------|--------|--------|--------|--------|--------|
E|--------|--------|--------|--------|--------|--------|--------|--------|--------|


E|--------|--------|--------|--------|--------|--------|--------|--------|--------|
B|--------|--------|--------|--------|--------|--------|--------|--------|--------|
G|--------|--------|--------|--------|--------|--------|--------|--------|--------|
D|--------|--------|--------|--------|--------|--------|--------|--------|--------|
A|--------|--------|--------|--------|--------|--------|--------|--------|--------|
E|--------|--------|--------|--------|--------|--------|--------|--------|--------|


E|--------|--------|--------|--------|--------|--------|--------|--------|--------|
B|--------|--------|--------|--------|--------|--------|--------|--------|--------|
G|--------|--------|--------|--------|--------|--------|--------|--------|--------|
D|--------|--------|--------|--------|--------|--------|--------|--------|--------|
A|--------|--------|--------|--------|--------|--------|--------|--------|--------|
E|--------|--------|--------|--------|--------|--------|--------|--------|--------|


E|--------|--------|--------|--------|--------|--------|--------|--------|--------|
B|--------|--------|--------|--------|--------|--------|--------|--------|--------|
G|--------|--------|--------|--------|--------|--------|--------|--------|--------|
D|--------|--------|--------|--------|--------|--------|--------|--------|--------|
A|--------|--------|--------|--------|--------|--------|--------|--------|--------|
E|--------|--------|--------|--------|--------|--------|--------|--------|--------|


E|--------|--------|--------|--------|--------------0---------------|---------------------------------|
B|--------|--------|--------|--------|----------0-------0-----------|-1---------------1---------------|
G|--------|--------|--------|--------|------------------------------|-----0---------------2-----------|
D|--------|--------|--------|--------|--------------------------2---|-------------2---------------1---|
A|--------|--------|--------|--------|----------------------3-------|---------0---------------2-------|
E|--------|--------|--------|--------|------0-----------------------|---------------------------------|


E|-----2-----------0---------------|---------------------------------|-----2-----------0---------------|
B|-0-----------0-------0-----------|-1---------------1---------------|-0-----------0-------0-----------|
G|---------------------------------|-----0---------------2-----------|---------------------------------|
D|-----------------------------2---|-------------2---------------1---|-----------------------------2---|
A|-------------------------3-------|---------0---------------2-------|-------------------------3-------|
E|---------0-----------------------|---------------------------------|---------0-----------------------|


E|---------------------------------|-----2-----------0---------------|---------------------------------|
B|-1---------------1---------------|-0-----------0-------0-----------|-1---------------1---------------|
G|-----0---------------2-----------|---------------------------------|-----0---------------2-----------|
D|-------------2---------------1---|-----------------------------2---|-------------2---------------1---|
A|---------0---------------2-------|-------------------------3-------|---------0---------------2-------|
E|---------------------------------|---------0-----------------------|---------------------------------|


E|-----2-----------0---------------|---------------------------------|-----2-----------0---------------|
B|-0-----------0-------0-----------|-1---------------1---------------|-0-----------0-------0-----------|
G|---------------------------------|-----0---------------2-----------|---------------------------------|
D|-----------------------------2---|-------------2---------------1---|-----------------------------2---|
A|-------------------------3-------|---------0---------------2-------|-------------------------3-------|
E|---------0-----------------------|---------------------------------|---------0-----------------------|


E|---------------------------------|-----2-----------0---------------|---------------------------------|
B|-1---------------1---------------|-0-----------0-------0-----------|-1---------------1---------------|
G|-----0---------------2-----------|---------------------------------|-----0---------------2-----------|
D|-------------2---------------1---|-----------------------------2---|-------------2---------------1---|
A|---------0---------------2-------|-------------------------3-------|---------0---------------2-------|
E|---------------------------------|---------0-----------------------|---------------------------------|


E|-----2-----------0---------------|---------------------------------|-----2----------|
B|-0-----------0-------0-----------|-1---------------1---------------|-0--------------|
G|---------------------------------|-----0---------------2-----------|----------------|
D|-----------------------------2---|-------------2---------------1---|----------------|
A|-------------------------3-------|---------0---------------2-------|----------------|
E|---------0-----------------------|---------------------------------|----------------|


E|--------|--------|--------|--------|--------|--------|--------|--------|--------|
B|--------|--------|--------|--------|--------|--------|--------|--------|--------|
G|--------|--------|--------|--------|--------|--------|--------|--------|--------|
D|--------|--------|--------|--------|--------|--------|--------|--------|--------|
A|--------|--------|--------|--------|--------|--------|--------|--------|--------|
E|--------|--------|--------|--------|--------|--------|--------|--------|--------|


E|--------|--------|--------|--------|--------|--------|--------|--------|--------|
B|--------|--------|--------|--------|--------|--------|--------|--------|--------|
G|--------|--------|--------|--------|--------|--------|--------|--------|--------|
D|--------|--------|--------|--------|--------|--------|--------|--------|--------|
A|--------|--------|--------|--------|--------|--------|--------|--------|--------|
E|--------|--------|--------|--------|--------|--------|--------|--------|--------|


E|--------|--------|--------|--------|--------|--------|--------|--------|--------|
B|--------|--------|--------|--------|--------|--------|--------|--------|--------|
G|--------|--------|--------|--------|--------|--------|--------|--------|--------|
D|--------|--------|--------|--------|--------|--------|--------|--------|--------|
A|--------|--------|--------|--------|--------|--------|--------|--------|--------|
E|--------|--------|--------|--------|--------|--------|--------|--------|--------|


E|--------|--------|--------|--------|--------|--------|--------|--------|--------|
B|--------|--------|--------|--------|--------|--------|--------|--------|--------|
G|--------|--------|--------|--------|--------|--------|--------|--------|--------|
D|--------|--------|--------|--------|--------|--------|--------|--------|--------|
A|--------|--------|--------|--------|--------|--------|--------|--------|--------|
E|--------|--------|--------|--------|--------|--------|--------|--------|--------|


E|--------|--------|--------|--------|--------|--------|--------|--------|--------|
B|--------|--------|--------|--------|--------|--------|--------|--------|--------|
G|--------|--------|--------|--------|--------|--------|--------|--------|--------|
D|--------|--------|--------|--------|--------|--------|--------|--------|--------|
A|--------|--------|--------|--------|--------|--------|--------|--------|--------|
E|--------|--------|--------|--------|--------|--------|--------|--------|--------|


E|--------|--------|--------|--------|--------|--------|--------|--------|--------|
B|--------|--------|--------|--------|--------|--------|--------|--------|--------|
G|--------|--------|--------|--------|--------|--------|--------|--------|--------|
D|--------|--------|--------|--------|--------|--------|--------|--------|--------|
A|--------|--------|--------|--------|--------|--------|--------|--------|--------|
E|--------|--------|--------|--------|--------|--------|--------|--------|--------|


E|--------|--------|--------|--------|--------|--------|--------|--------|
B|--------|--------|--------|--------|--------|--------|--------|--------|
G|--------|--------|--------|--------|--------|--------|--------|--------|
D|--------|--------|--------|--------|--------|--------|--------|--------|
A|--------|--------|--------|--------|--------|--------|--------|--------|
E|--------|--------|--------|--------|--------|--------|--------|--------|





Track 3: Rhythm Left

E|--------|--------|--------|--------|--------|--------|--------|--------|--------|
B|--------|--------|--------|--------|--------|--------|--------|--------|--------|
G|--------|--------|--------|--------|--------|--------|--------|--------|--------|
D|--------|--------|--------|--------|--------|--------|--------|--------|--------|
A|--------|--------|--------|--------|--------|--------|--------|--------|--------|
E|--------|--------|--------|--------|--------|--------|--------|--------|--------|


E|--------|--------|--------|--------|--------|--------|--------|--------|--------------------------------|
B|--------|--------|--------|--------|--------|--------|--------|--------|--------------------------------|
G|--------|--------|--------|--------|--------|--------|--------|--------|--------------------------------|
D|--------|--------|--------|--------|--------|--------|--------|--------|---------2----------------------|
A|--------|--------|--------|--------|--------|--------|--------|--------|-----2-------2---3----3--2--0---|
E|--------|--------|--------|--------|--------|--------|--------|--------|-0------------------------------|


E|-----------------------------------|--------------------------------|-----------------------------------|
B|-----------------------------------|--------------------------------|-----------------------------------|
G|-----------------------------------|--------------------------------|-----------------------------------|
D|-----------------------------------|---------2----------------------|-----------------------------------|
A|-0---2---3---0---2---2---0---------|-----2-------2---3----3--2--0---|-0---2---3---0---2---2---0---------|
E|----------------------------3--2---|-0------------------------------|----------------------------3--2---|


E|--------------------------------|-----------------------------------|--------------------------------|
B|--------------------------------|-----------------------------------|--------------------------------|
G|--------------------------------|-----------------------------------|--------------------------------|
D|---------2----------------------|-----------------------------------|---------2----------------------|
A|-----2-------2---3----3--2--0---|-0---2---3---0---2---2---0---------|-----2-------2---3----3--2--0---|
E|-0------------------------------|----------------------------3--2---|-0------------------------------|


E|-----------------------------------|--------------------------------|-----------------------------------|
B|-----------------------------------|--------------------------------|-----------------------------------|
G|-----------------------------------|--------------------------------|-----------------------------------|
D|-----------------------------------|--------------------------------|-----------------------------------|
A|-0---2---3---0---2---2---0---------|-0-----------------7------------|-----------------------------------|
E|----------------------------3--2---|----3--2---0---7-------7---8----|-8--7--5---5---7---8---5---7---7---|


E|--------------------------------|-----------------------------------|--------------------------------|
B|--------------------------------|-----------------------------------|--------------------------------|
G|--------------------------------|-----------------------------------|--------------------------------|
D|--------------------------------|-----------------------------------|--------------------------------|
A|-------------------7------------|-----------------------------------|-------------------7------------|
E|-5--3--2---0---7-------7---8----|-8--7--5---5---7---8---5---7---7---|-5--3--2---0---7-------7---8----|


E|-----------------------------------|--------------------------------|-----------------------------------|
B|-----------------------------------|--------------------------------|-----------------------------------|
G|-----------------------------------|--------------------------------|-----------------------------------|
D|-----------------------------------|--------------------------------|-----------------------------------|
A|-----------------------------------|-------------------7------------|-----------------------------------|
E|-8--7--5---5---7---8---5---7---7---|-5--3--2---0---7-------7---8----|-8--7--5---5---7---8---5---7---7---|


E|-------------------------------------|-------------------------------------|-------------------------------------|
B|-------------------------------------|-------------------------------------|-------------------------------------|
G|-------------------------------------|-------------------------------------|-------------------------------------|
D|-----------2---2---2--2--2---2---2---|-2--2--2---2---2---2--2--2---2---2---|-----------2---2---2--2--2---2---2---|
A|-----------2---2---2--2--2---2---2---|-2--2--2---2---2---2--2--2---2---2---|-2--0------2---2---2--2--2---2---2---|
E|-5--3--2---0---0---0--0--0---0---0---|-0--0--0---0---0---0--0--0---0---0---|-------3---0---0---0--0--0---0---0---|


E|-------------------------------------|-------------------------------------|-------------------------------------|
B|-------------------------------------|-------------------------------------|-------------------------------------|
G|-------------------------------------|-------------------------------------|-----------5---5---5--5--5---5---5---|
D|-2--2--2---2---2---2--2--2---2---2---|-----------2---2---2--2--2---2---2---|-2--2--2---5---3---5--5--5---5---3---|
A|-2--2--2---2---2---2--2--2---2---2---|-2--0------2---2---2--2--2---2---2---|-2--2--2---3---3---3--3--3---3---3---|
E|-0--0--0---0---0---0--0--0---0---0---|-------3---0---0---0--0--0---0---0---|-0--0--0-----------------------------|


E|-------------------------------------|-------------------------------------|-------------------------------------|
B|-------------------------------------|-------------------------------------|-------------------------------------|
G|-5--5--5---2---2---2--2--2---2---2---|-2--2--2---4---4---4--4--4---4---4---|-------------------------------------|
D|-5--5--5---2---2---2--2--2---2---2---|-2--2--2---4---4---4--4--4---4---4---|-----------2---2---2--2--2---2---2---|
A|-3--3--3---0---0---0--0--0---0---0---|-0--0--0---2---2---2--2--2---2---2---|-2--0------2---2---2--2--2---2---2---|
E|-------------------------------------|-------------------------------------|-------3---0---0---0--0--0---0---0---|


E|-------------------------------------|-------------------------------------|-------------------------------------|
B|-------------------------------------|-------------------------------------|-------------------------------------|
G|-----------5---5---5--5--5---5---5---|-5--5--5---2---2---2--2--2---2---2---|-2--2--2---4---4---4--4--4---4---4---|
D|-2--2--2---5---3---5--5--5---5---3---|-5--5--5---2---2---2--2--2---2---2---|-2--2--2---4---4---4--4--4---4---4---|
A|-2--2--2---3---3---3--3--3---3---3---|-3--3--3---0---0---0--0--0---0---0---|-0--0--0---2---2---2--2--2---2---2---|
E|-0--0--0-----------------------------|-------------------------------------|-------------------------------------|


E|-------------------------------------|-------------------------------------|-------------------------------------|
B|-------------------------------------|-------------------------------------|-------------------------------------|
G|-------------------------------------|-------------------------------------|-------------------------------------|
D|-----------2---2---2--2--2---2---2---|-2--2--2---2---2---2--2--2---2---2---|-2--2--2---2---2---2--2--2---2---2---|
A|-2--0------2---2---2--2--2---2---2---|-2--2--2---2---2---2--2--2---2---2---|-2--2--2---2---2---2--2--2---2---2---|
E|-------3---0---0---0--0--0---0---0---|-0--0--0---0---0---0--0--0---0---0---|-0--0--0---0---0---0--0--0---0---0---|


E|-------------------------------------|----------------------------------|-------------------------------------|
B|-------------------------------------|----------------------------------|-------------------------------------|
G|-------------------------------------|-----------4----------------------|-------------------------------------|
D|-2--2--2---2---2---2--2--2---2---2---|-2--2--2---4----2---2---2--2--2---|-2---2---2--2--2---2---2---2--2--2---|
A|-2--2--2---2---2---2--2--2---2---2---|-2--2--2---2----2---2---2--2--2---|-2---2---2--2--2---2---2---2--2--2---|
E|-0--0--0---0---0---0--0--0---0---0---|-0--0--0--------0---0---0--0--0---|-0---0---0--0--0---0---0---0--0--0---|


E|-------------------------------------|-------------------------------------|-------------------------------------|
B|-------------------------------------|-------------------------------------|-------------------------------------|
G|-------------------5---5---5--5--5---|-5---5---5--5--5---4---4---4--4--4---|-4---4---4--4--4---------------------|
D|-2---2---2--2--2---5---5---5--5--5---|-5---5---5--5--5---4---4---4--4--4---|-4---4---4--4--4---2---2---2--2--2---|
A|-2---2---2--2--2---3---3---3--3--3---|-3---3---3--3--3---2---2---2--2--2---|-2---2---2--2--2---2---2---2--2--2---|
E|-0---0---0--0--0---------------------|-------------------------------------|-------------------0---0---0--0--0---|


E|-------------------------------------|-------------------------------------|-------------------------------------|
B|-------------------------------------|-------------------------------------|-------------------------------------|
G|-------------------------------------|-------------------2---2---2--2--2---|-2---2---2--2--2---2---2---2--2--2---|
D|-2---2---2--2--2---2---2---2--2--2---|-2---2---2--2--2---2---2---2--2--2---|-2---2---2--2--2---2---2---2--2--2---|
A|-2---2---2--2--2---2---2---2--2--2---|-2---2---2--2--2---0---0---0--0--0---|-0---0---0--0--0---0---0---0--0--0---|
E|-0---0---0--0--0---0---0---0--0--0---|-0---0---0--0--0---------------------|-------------------------------------|


E|---------------------------------------|-------------------------------------|---------------------------------------|
B|---------------------------------------|-------------------------------------|---------------------------------------|
G|---------------------------------------|-------------------------------------|---------------------------------------|
D|-5--5--5---4--4--4---2---2---2--2--2---|-2---2---2--2--2---2--2--2---2---2---|-2--2--2---2---2---2--2--2---2--2--2---|
A|-5--5--5---4--4--4---2---2---2--2--2---|-2---2---2--2--2---2--2--2---2---2---|-2--2--2---2---2---2--2--2---2--2--2---|
E|-3--3--3---2--2--2---0---0---0--0--0---|-0---0---0--0--0---0--0--0---0---0---|-0--0--0---0---0---0--0--0---0--0--0---|


E|-------------------------------------|-------------------------------------|-------------------------------------|
B|-------------------------------------|-------------------------------------|-------------------------------------|
G|-------------------------------------|-------------------------------------|-5---5---5--5--5---5---5---5--5--5---|
D|-2---2---2--2--2---2---2---2--2--2---|-2---2---2--2--2---2---2---2--2--2---|-5---5---5--5--5---5---5---5--5--5---|
A|-2---2---2--2--2---2---2---2--2--2---|-2---2---2--2--2---2---2---2--2--2---|-3---3---3--3--3---3---3---3--3--3---|
E|-0---0---0--0--0---0---0---0--0--0---|-0---0---0--0--0---0---0---0--0--0---|-------------------------------------|


E|-------------------------------------|-------------------------------------|-------------------------------------|
B|-------------------------------------|-------------------------------------|-------------------------------------|
G|-4---4---4--4--4---4---4---4--4--4---|-------------------------------------|-------------------------------------|
D|-4---4---4--4--4---4---4---4--4--4---|-2---2---2--2--2---2---2---2--2--2---|-2---2---2--2--2---2---2---2--2--2---|
A|-2---2---2--2--2---2---2---2--2--2---|-2---2---2--2--2---2---2---2--2--2---|-2---2---2--2--2---2---2---2--2--2---|
E|-------------------------------------|-0---0---0--0--0---0---0---0--0--0---|-0---0---0--0--0---0---0---0--0--0---|


E|-------------------------------------|---------------------------------------|-------------------------------------|
B|-------------------------------------|---------------------------------------|-------------------------------------|
G|-2---2---2--2--2---2---2---2--2--2---|-2---2---2--2--2-----------------------|-------------------------------------|
D|-2---2---2--2--2---2---2---2--2--2---|-2---2---2--2--2---5--5--5---4--4--4---|-2---2---2--2--2---2---2---2--2--2---|
A|-0---0---0--0--0---0---0---0--0--0---|-0---0---0--0--0---5--5--5---4--4--4---|-2---2---2--2--2---2---2---2--2--2---|
E|-------------------------------------|-------------------3--3--3---2--2--2---|-0---0---0--0--0---0---0---0--0--0---|


E|-------------------------------------|-------------------------------------|--------------------------------|
B|-------------------------------------|-------------------------------------|--------------------------------|
G|-------------------------------------|-------------------------------------|--------------------------------|
D|-2--2--2---2---2---2--2--2---2---2---|-2--2--2---2--2--2-------------------|--------------------------------|
A|-2--2--2---2---2---2--2--2---2---2---|-2--2--2---2--2--2-----------7-------|--------------------------------|
E|-0--0--0---0---0---0--0--0---0---0---|-0--0--0---0--0--0---0---7-------7---|-8----8--7--5---5---7---8---5---|


E|-----------------------------------|--------------------------------|-----------------------------------|
B|-----------------------------------|--------------------------------|-----------------------------------|
G|-----------------------------------|--------------------------------|-----------------------------------|
D|-----------------------------------|--------------------------------|-----------------------------------|
A|---------------------------7-------|--------------------------------|---------------------------7-------|
E|-7---7---5--3--2---0---7-------7---|-8----8--7--5---5---7---8---5---|-7---7---5--3--2---0---7-------7---|


E|--------------------------------|-----------------------------------|--------------------------------|
B|--------------------------------|-----------------------------------|--------------------------------|
G|--------------------------------|-----------------------------------|--------------------------------|
D|--------------------------------|-----------------------------------|--------------------------------|
A|--------------------------------|---------------------------7-------|--------------------------------|
E|-8----8--7--5---5---7---8---5---|-7---7---5--3--2---0---7-------7---|-8----8--7--5---5---7---8---5---|


E|-----------------------------------|--------------------------------|-----------------------------------|
B|-----------------------------------|--------------------------------|-----------------------------------|
G|-----------------------------------|--------------------------------|-----------------------------------|
D|-----------------------------------|--------------------------------|-----------------------------------|
A|---------------------------7-------|--------------------------------|---------------------------7-------|
E|-7---7---5--3--2---0---7-------7---|-8----8--7--5---5---7---8---5---|-7---7---5--3--2---0---7-------7---|


E|--------------------------------|---------------------------------------|-----------------------------------------|
B|--------------------------------|---------------------------------------|-----------------------------------------|
G|--------------------------------|---------------------------------------|-----------------------------------------|
D|--------------------------------|-------------------5--5--5---5--5--5---|-5--5--5---4--4--4---4--4--4---4--4--4---|
A|--------------------------------|-------------------5--5--5---5--5--5---|-5--5--5---4--4--4---4--4--4---4--4--4---|
E|-8----8--7--5---5---7---8---5---|-7---7---5--3--2---3--3--3---3--3--3---|-3--3--3---2--2--2---2--2--2---2--2--2---|


E|-------------------------------------|-------------------------------------|-------------------------------------|
B|-------------------------------------|-------------------------------------|-------------------------------------|
G|-------------------5---5---5--5--5---|-2---2---2--2--2---4---4-------------|-------------------5---5---5--5--5---|
D|-2---2---2--2--2---5---5---5--5--5---|-2---2---2--2--2---4---4-------------|-2---2---2--2--2---5---5---5--5--5---|
A|-2---2---2--2--2---3---3---3--5--3---|-0---0---0--0--0---2---2---2--0------|-2---2---2--2--2---3---3---3--5--3---|
E|-0---0---0--0--0---------------------|---------------------------------3---|-0---0---0--0--0---------------------|


E|-------------------------------------|-------------------------------------|-------------------------------------|
B|-------------------------------------|-------------------------------------|-------------------------------------|
G|-2---2---2--2--2---4---4-------------|-------------------5---5---5--5--5---|-2---2---2--2--2---4---4-------------|
D|-2---2---2--2--2---4---4-------------|-2---2---2--2--2---5---5---5--5--5---|-2---2---2--2--2---4---4-------------|
A|-0---0---0--0--0---2---2---2--0------|-2---2---2--2--2---3---3---3--5--3---|-0---0---0--0--0---2---2---2--0------|
E|---------------------------------3---|-0---0---0--0--0---------------------|---------------------------------3---|


E|-------------------------------------|-------------------------------------|-------------------------------------|
B|-------------------------------------|-------------------------------------|-------------------------------------|
G|-------------------5---5---5--5--5---|-2---2---2--2--2---4---4-------------|-------------------------------------|
D|-2---2---2--2--2---5---5---5--5--5---|-2---2---2--2--2---4---4-------------|-2---2---2--2--2---2---2---2--2--2---|
A|-2---2---2--2--2---3---3---3--5--3---|-0---0---0--0--0---2---2---2--0------|-2---2---2--2--2---2---2---2--2--2---|
E|-0---0---0--0--0---------------------|---------------------------------3---|-0---0---0--0--0---0---0---0--0--0---|


E|-------------------------------------|----------------------------------|-------------------------------------|
B|-------------------------------------|----------------------------------|-------------------------------------|
G|-------------------------------------|-----------4----------------------|-------------------------------------|
D|-2--2--2---2---2---2--2--2---2---2---|-2--2--2---4----2---2---2--2--2---|-2---2---2--2--2---2---2---2--2--2---|
A|-2--2--2---2---2---2--2--2---2---2---|-2--2--2---2----2---2---2--2--2---|-2---2---2--2--2---2---2---2--2--2---|
E|-0--0--0---0---0---0--0--0---0---0---|-0--0--0--------0---0---0--0--0---|-0---0---0--0--0---0---0---0--0--0---|


E|-------------------------------------|-------------------------------------|-------------------------------------|
B|-------------------------------------|-------------------------------------|-------------------------------------|
G|-------------------5---5---5--5--5---|-5---5---5--5--5---4---4---4--4--4---|-4---4---4--4--4---------------------|
D|-2---2---2--2--2---5---5---5--5--5---|-5---5---5--5--5---4---4---4--4--4---|-4---4---4--4--4---2---2---2--2--2---|
A|-2---2---2--2--2---3---3---3--3--3---|-3---3---3--3--3---2---2---2--2--2---|-2---2---2--2--2---2---2---2--2--2---|
E|-0---0---0--0--0---------------------|-------------------------------------|-------------------0---0---0--0--0---|


E|-------------------------------------|-------------------------------------|-------------------------------------|
B|-------------------------------------|-------------------------------------|-------------------------------------|
G|-------------------------------------|-------------------2---2---2--2--2---|-2---2---2--2--2---2---2---2--2--2---|
D|-2---2---2--2--2---2---2---2--2--2---|-2---2---2--2--2---2---2---2--2--2---|-2---2---2--2--2---2---2---2--2--2---|
A|-2---2---2--2--2---2---2---2--2--2---|-2---2---2--2--2---0---0---0--0--0---|-0---0---0--0--0---0---0---0--0--0---|
E|-0---0---0--0--0---0---0---0--0--0---|-0---0---0--0--0---------------------|-------------------------------------|


E|---------------------------------------|-----------------------------------|-------------------------------------|
B|---------------------------------------|-----------------------------------|-------------------------------------|
G|---------------------------------------|-----------------------------------|-------------------------------------|
D|-5--5--5---4--4--4---2---2---2--2--2---|-2---5---5---5--5--4---4---2---2---|-2--2--2---2---2---2--2--2---2---2---|
A|-5--5--5---4--4--4---2---2---2--2--2---|-2---5---5---5--5--4---4---2---2---|-2--2--2---2---2---2--2--2---2---2---|
E|-3--3--3---2--2--2---0---0---0--0--0---|-0---3---3---3--3--2---2---0---0---|-0--0--0---0---0---0--0--0---0---0---|


E|-------------------------------------|-------------------------------------|-------------------------------------|
B|-------------------------------------|-------------------------------------|-------------------------------------|
G|-----------------------------5---5---|-5--5--5---5---5---5--5--5---4---4---|-4--4--4---4---4---4--4--4-----------|
D|-2--2--2---2---2---2--2--2---5---5---|-5--5--5---5---5---5--5--5---4---4---|-4--4--4---4---4---4--4--4---2---2---|
A|-2--2--2---2---2---2--2--2---3---3---|-3--3--3---3---3---3--3--3---2---2---|-2--2--2---2---2---2--2--2---2---2---|
E|-0--0--0---0---0---0--0--0-----------|-------------------------------------|-----------------------------0---0---|


E|-------------------------------------|-------------------------------------|-------------------------------------|
B|-------------------------------------|-------------------------------------|-------------------------------------|
G|-------------------------------------|-----------------------------2---2---|-2--2--2---2---2---2--2--2---2---2---|
D|-2--2--2---2---2---2--2--2---2---2---|-2--2--2---2---2---2--2--2---2---2---|-2--2--2---2---2---2--2--2---2---2---|
A|-2--2--2---2---2---2--2--2---2---2---|-2--2--2---2---2---2--2--2---0---0---|-0--0--0---0---0---0--0--0---0---0---|
E|-0--0--0---0---0---0--0--0---0---0---|-0--0--0---0---0---0--0--0-----------|-------------------------------------|


E|-------------------------------------------|---------------------------------------|
B|-------------------------------------------|---------------------------------------|
G|-2--2--2-----------------------------------|---------------------------------------|
D|-2--2--2---5--5--5---4--4--4---5--5--5--5--|-4---4---3--3--3---4--4--4--4--3---3---|
A|-0--0--0---5--5--5---4--4--4---5--5--5--5--|-4---4---3--3--3---4--4--4--4--3---3---|
E|-----------3--3--3---2--2--2---3--3--3--3--|-2---2---1--1--1---2--2--2--2--1---1---|


E|--------------------------------|-----------------------------------|--------------------------------|
B|--------------------------------|-----------------------------------|--------------------------------|
G|--------------------------------|-----------------------------------|--------------------------------|
D|-3--3--3------------------------|-----------------------------------|--------------------------------|
A|-3--3--3-----------7------------|-----------------------------------|-------------------7------------|
E|-1--1--1---0---7-------7---8----|-8--7--5---5---7---8---5---7---7---|-5--3--2---0---7-------7---8----|


E|-----------------------------------|--------------------------------|-----------------------------------|
B|-----------------------------------|--------------------------------|-----------------------------------|
G|-----------------------------------|--------------------------------|-----------------------------------|
D|-----------------------------------|--------------------------------|-----------------------------------|
A|-----------------------------------|-------------------7------------|-----------------------------------|
E|-8--7--5---5---7---8---5---7---7---|-5--3--2---0---7-------7---8----|-8--7--5---5---7---8---5---7---7---|


E|--------------------------------|-----------------------------------|--------------------------------|
B|--------------------------------|-----------------------------------|--------------------------------|
G|--------------------------------|-----------------------------------|--------------------------------|
D|--------------------------------|-----------------------------------|--------------------------------|
A|-------------------7------------|-----------------------------------|-------------------7------------|
E|-5--3--2---0---7-------7---8----|-8--7--5---5---7---8---5---7---7---|-5--3--2---0---7-------7---8----|


E|-----------------------------------|--------------------------------|-----------------------------------|
B|-----------------------------------|--------------------------------|-----------------------------------|
G|-----------------------------------|--------------------------------|-----------------------------------|
D|-----------------------------------|--------------------------------|-----------------------------------|
A|-----------------------------------|-------------------7------------|-----------------------------------|
E|-8--7--5---5---7---8---5---7---7---|-5--3--2---0---7-------7---8----|-8--7--5---5---7---8---5---7---7---|


E|------------------|--------|--------|--------|--------|--------|--------|--------|
B|------------------|--------|--------|--------|--------|--------|--------|--------|
G|------------------|--------|--------|--------|--------|--------|--------|--------|
D|------------------|--------|--------|--------|--------|--------|--------|--------|
A|------------------|--------|--------|--------|--------|--------|--------|--------|
E|-5--3--2----------|--------|--------|--------|--------|--------|--------|--------|


E|--------|--------|--------|--------|--------|--------|--------|--------|--------|
B|--------|--------|--------|--------|--------|--------|--------|--------|--------|
G|--------|--------|--------|--------|--------|--------|--------|--------|--------|
D|--------|--------|--------|--------|--------|--------|--------|--------|--------|
A|--------|--------|--------|--------|--------|--------|--------|--------|--------|
E|--------|--------|--------|--------|--------|--------|--------|--------|--------|


E|--------------------------------|-------------------------------------|-------------------------------------|
B|--------------------------------|-------------------------------------|-------------------------------------|
G|--------------------------------|-------------------------------------|-----------5---5---5--5--5---5---5---|
D|------2---2---2--2--2---2---2---|-2--2--2---2---2---2--2--2---2---2---|-2--2--2---5---5---5--5--5---5---5---|
A|------2---2---2--2--2---2---2---|-2--2--2---2---2---2--2--2---2---2---|-2--2--2---3---3---3--3--3---3---3---|
E|------0---0---0--0--0---0---0---|-0--0--0---0---0---0--0--0---0---0---|-0--0--0-----------------------------|


E|-------------------------------------|-------------------------------------|-------------------------------------|
B|-------------------------------------|-------------------------------------|-------------------------------------|
G|-5--5--5---4---4---4--4--4---4---4---|-4--4--4-----------------------------|-------------------------------------|
D|-5--5--5---4---4---4--4--4---4---4---|-4--4--4---2---2---2--2--2---2---2---|-2--2--2---2---2---2--2--2---2---2---|
A|-3--3--3---2---2---2--2--2---2---2---|-2--2--2---2---2---2--2--2---2---2---|-2--2--2---2---2---2--2--2---2---2---|
E|-------------------------------------|-----------0---0---0--0--0---0---0---|-0--0--0---0---0---0--0--0---0---0---|


E|-------------------------------------|---------------------------------------|-------------------------------------|
B|-------------------------------------|---------------------------------------|-------------------------------------|
G|-----------2---2---2--2--2---2---2---|-2--2--2---2---2---2--2--2-------------|-----------------------------12--12--|
D|-2--2--2---2---2---2--2--2---2---2---|-2--2--2---2---2---2--2--2---5--5--5---|-4--4--4---9---9---9--9--9---12--12--|
A|-2--2--2---0---0---0--0--0---0---0---|-0--0--0---0---0---0--0--0---5--5--5---|-4--4--4---9---9---9--9--9---10--10--|
E|-0--0--0-----------------------------|-----------------------------3--3--3---|-2--2--2---7---7---7--7--7-----------|


E|-------------------------------------|-------------------------------------|-------------------------------------|
B|-------------------------------------|-------------------------------------|-------------------------------------|
G|-12-12-12--9---9---9--9--9---11--11--|-11-11-11--------------------12--12--|-12-12-12--9---9---9--9--9---11--11--|
D|-12-12-12--9---9---9--9--9---11--11--|-11-11-11--9---9---9--9--9---12--12--|-12-12-12--9---9---9--9--9---11--11--|
A|-10-10-10--7---7---7--7--7---9---9---|-9--9--9---9---9---9--9--9---10--10--|-10-10-10--7---7---7--7--7---9---9---|
E|-------------------------------------|-----------7---7---7--7--7-----------|-------------------------------------|


E|--------------------------------|-----------------------------------|-------------------------------------|
B|--------------------------------|-----------------------------------|-------------------------------------|
G|-11-11-11--11--11-------11------|-----11--------------------12--12--|-12-12-12--9---9---9--9--9---11--11--|
D|-11-11-11--11--11-------11------|-----11--9---9---9--9--9---12--12--|-12-12-12--9---9---9--9--9---11--11--|
A|-9--9--9---9---9--------9-------|-----9---9---9---9--9--9---10--10--|-10-10-10--7---7---7--7--7---9---9---|
E|--------------------------------|---------7---7---7--7--7-----------|-------------------------------------|


E|-------------------------------------|-------------------------------------|-----------------------------------------|
B|-------------------------------------|-------------------------------------|-----------------------------------------|
G|-11-11-11--------------------12--12--|-12-12-12--9---9---9--9--9---11--11--|-11-11-11--------------------------------|
D|-11-11-11--9---9---9--9--9---12--12--|-12-12-12--9---9---9--9--9---11--11--|-11-11-11--9--9--9---9--9--9---9--9--9---|
A|-9--9--9---9---9---9--9--9---10--10--|-10-10-10--7---7---7--7--7---9---9---|-9--9--9---9--9--9---9--9--9---9--9--9---|
E|-----------7---7---7--7--7-----------|-------------------------------------|-----------7--7--7---7--7--7---7--7--7---|


E|-----------------------------------------|-------------------------------------|
B|-----------------------------------------|-------------------------------------|
G|-----------------------------------------|-------------------------------------|
D|-9--9--9---9--9--9---7--7--7---5--5--5---|-4--4--4---2---2---2--2--2---2---2---|
A|-9--9--9---9--9--9---7--7--7---5--5--5---|-4--4--4---2---2---2--2--2---2---2---|
E|-7--7--7---7--7--7---5--5--5---3--3--3---|-2--2--2---0---0---0--0--0---0---0---|


E|-------------------------------------|-------------------------------------|-------------------------------------|
B|-------------------------------------|-------------------------------------|-------------------------------------|
G|-------------------------------------|-----------5---5---5--5--5---5---5---|-5--5--5---4---4---4--4--4---4---4---|
D|-2--2--2---2---2---2--2--2---2---2---|-2--2--2---5---5---5--5--5---5---5---|-5--5--5---4---4---4--4--4---4---4---|
A|-2--2--2---2---2---2--2--2---2---2---|-2--2--2---3---3---3--3--3---3---3---|-3--3--3---2---2---2--2--2---2---2---|
E|-0--0--0---0---0---0--0--0---0---0---|-0--0--0-----------------------------|-------------------------------------|


E|-------------------------------------|-------------------------------------|-------------------------------------|
B|-------------------------------------|-------------------------------------|-------------------------------------|
G|-4--4--4-----------------------------|-------------------------------------|-----------2---2---2--2--2---2---2---|
D|-4--4--4---2---2---2--2--2---2---2---|-2--2--2---2---2---2--2--2---2---2---|-2--2--2---2---2---2--2--2---2---2---|
A|-2--2--2---2---2---2--2--2---2---2---|-2--2--2---2---2---2--2--2---2---2---|-2--2--2---0---0---0--0--0---0---0---|
E|-----------0---0---0--0--0---0---0---|-0--0--0---0---0---0--0--0---0---0---|-0--0--0-----------------------------|


E|---------------------------------------|-------------------------------------|---------------------------------------|
B|---------------------------------------|-------------------------------------|---------------------------------------|
G|-2--2--2---2---2---2--2--2-------------|-------------------------------------|---------------------------------------|
D|-2--2--2---2---2---2--2--2---5--5--5---|-4--4--4---2---2---2--2--2---2---2---|-2--2--2---2--2--2---2---2---2--2--2---|
A|-0--0--0---0---0---0--0--0---5--5--5---|-4--4--4---2---2---2--2--2---2---2---|-2--2--2---2--2--2---2---2---2--2--2---|
E|-----------------------------3--3--3---|-2--2--2---0---0---0--0--0---0---0---|-0--0--0---0--0--0---0---0---0--0--0---|


E|-------------------------------------|-------------------------------------|-------------------------------------|
B|-------------------------------------|-------------------------------------|-------------------------------------|
G|-------------------------------------|-------------------------------------|-----------------------------5---5---|
D|-2---2---2--2--2---2--2--2---2---2---|-2--2--2---2---2---2--2--2---2---2---|-2--2--2---2---2---2--2--2---5---5---|
A|-2---2---2--2--2---2--2--2---2---2---|-2--2--2---2---2---2--2--2---2---2---|-2--2--2---2---2---2--2--2---3---3---|
E|-0---0---0--0--0---0--0--0---0---0---|-0--0--0---0---0---0--0--0---0---0---|-0--0--0---0---0---0--0--0-----------|


E|-------------------------------------|-------------------------------------|-------------------------------------|
B|-------------------------------------|-------------------------------------|-------------------------------------|
G|-5--5--5---5---5---5--5--5---4---4---|-4--4--4---4---4---4--4--4-----------|-------------------------------------|
D|-5--5--5---5---5---5--5--5---4---4---|-4--4--4---4---4---4--4--4---2---2---|-2--2--2---2---2---2--2--2---2---2---|
A|-3--3--3---3---3---3--3--3---2---2---|-2--2--2---2---2---2--2--2---2---2---|-2--2--2---2---2---2--2--2---2---2---|
E|-------------------------------------|-----------------------------0---0---|-0--0--0---0---0---0--0--0---0---0---|


E|-------------------------------------|-------------------------------------|---------------------------------------|
B|-------------------------------------|-------------------------------------|---------------------------------------|
G|-----------------------------2---2---|-2--2--2---2---2---2--2--2---2---2---|-2--2--2-------------------------------|
D|-2--2--2---2---2---2--2--2---2---2---|-2--2--2---2---2---2--2--2---2---2---|-2--2--2---5--5--5---4--4--4---2---2---|
A|-2--2--2---2---2---2--2--2---0---0---|-0--0--0---0---0---0--0--0---0---0---|-0--0--0---5--5--5---4--4--4---2---2---|
E|-0--0--0---0---0---0--0--0-----------|-------------------------------------|-----------3--3--3---2--2--2---0---0---|


E|---------------------------------------|-------------------------------------|--------------------------------|
B|---------------------------------------|-------------------------------------|--------------------------------|
G|---------------------------------------|-------------------------------------|--------------------------------|
D|-2--2--2---2---2---2--2--2---2--2--2---|-2---2---2--2--2---2---2---2--2--2---|-2--2--2------------------------|
A|-2--2--2---2---2---2--2--2---2--2--2---|-2---2---2--2--2---2---2---2--2--2---|-2--2--2-----------7------------|
E|-0--0--0---0---0---0--0--0---0--0--0---|-0---0---0--0--0---0---0---0--0--0---|-0--0--0---0---7-------7---8----|


E|-----------------------------------|--------------------------------|-----------------------------------|
B|-----------------------------------|--------------------------------|-----------------------------------|
G|-----------------------------------|--------------------------------|-----------------------------------|
D|-----------------------------------|--------------------------------|-----------------------------------|
A|-----------------------------------|-------------------7------------|-----------------------------------|
E|-8--7--5---5---7---8---5---7---7---|-5--3--2---0---7-------7---8----|-8--7--5---5---7---8---5---7---7---|


E|--------------------------------|-----------------------------------|--------------------------------|
B|--------------------------------|-----------------------------------|--------------------------------|
G|--------------------------------|-----------------------------------|--------------------------------|
D|--------------------------------|-----------------------------------|--------------------------------|
A|-------------------7------------|-----------------------------------|-------------------7------------|
E|-5--3--2---0---7-------7---8----|-8--7--5---5---7---8---5---7---7---|-5--3--2---0---7-------7---8----|


E|-----------------------------------|--------------------------------|-----------------------------------|
B|-----------------------------------|--------------------------------|-----------------------------------|
G|-----------------------------------|--------------------------------|-----------------------------------|
D|-----------------------------------|--------------------------------|-----------------------------------|
A|-----------------------------------|-------------------7------------|-----------------------------------|
E|-8--7--5---5---7---8---5---7---7---|-5--3--2---0---7-------7---8----|-8--7--5---5---7---8---5---7---7---|


E|--------------------------------|-----------------------------------|-------------------------------------|
B|--------------------------------|-----------------------------------|-------------------------------------|
G|--------------------------------|-----------------------------------|-----------------------------12--12--|
D|--------------------------------|-----------------------------------|-----------9---9---9--9--9---12--12--|
A|-------------------7------------|-----------------------------------|-----------9---9---9--9--9---10--10--|
E|-5--3--2---0---7-------7---8----|-8--7--5---5---7---8---5---7---7---|-5--3--2---7---7---7--7--7-----------|


E|-------------------------------------|-------------------------------------|-------------------------------------|
B|-------------------------------------|-------------------------------------|-------------------------------------|
G|-12-12-12--9---9---9--9--9---11--11--|-11-11-11--------------------12--12--|-12-12-12--9---9---9--9--9---11--11--|
D|-12-12-12--9---9---9--9--9---11--11--|-11-11-11--9---9---9--9--9---12--12--|-12-12-12--9---9---9--9--9---11--11--|
A|-10-10-10--7---7---7--7--7---9---9---|-9--9--9---9---9---9--9--9---10--10--|-10-10-10--7---7---7--7--7---9---9---|
E|-------------------------------------|-----------7---7---7--7--7-----------|-------------------------------------|


E|-------------------------------------|-------------------------------------|-------------------------------------|
B|-------------------------------------|-------------------------------------|-------------------------------------|
G|-11-11-11--------------------12--12--|-12-12-12--9---9---9--9--9---11--11--|-11-11-11--------------------12--12--|
D|-11-11-11--9---9---9--9--9---12--12--|-12-12-12--9---9---9--9--9---11--11--|-11-11-11--9---9---9--9--9---12--12--|
A|-9--9--9---9---9---9--9--9---10--10--|-10-10-10--7---7---7--7--7---9---9---|-9--9--9---9---9---9--9--9---10--10--|
E|-----------7---7---7--7--7-----------|-------------------------------------|-----------7---7---7--7--7-----------|


E|-------------------------------------|------------------|---------------------|
B|-------------------------------------|------------------|---------------------|
G|-12-12-12--9---9---9--9--9---11--11--|-11-11-11---------|---------------------|
D|-12-12-12--9---9---9--9--9---11--11--|-11-11-11--9------|------9--------------|
A|-10-10-10--7---7---7--7--7---9---9---|-9--9--9---9------|------9--------------|
E|-------------------------------------|-----------7------|------7--------------|





Track 4: Rhythm Right

E|--------|--------|--------|--------|--------|--------|--------|--------|--------|
B|--------|--------|--------|--------|--------|--------|--------|--------|--------|
G|--------|--------|--------|--------|--------|--------|--------|--------|--------|
D|--------|--------|--------|--------|--------|--------|--------|--------|--------|
A|--------|--------|--------|--------|--------|--------|--------|--------|--------|
E|--------|--------|--------|--------|--------|--------|--------|--------|--------|


E|--------|--------|--------|--------|--------|--------|--------|--------|-------------|
B|--------|--------|--------|--------|--------|--------|--------|--------|-------------|
G|--------|--------|--------|--------|--------|--------|--------|--------|-------5-----|
D|--------|--------|--------|--------|--------|--------|--------|--------|-2-----5-----|
A|--------|--------|--------|--------|--------|--------|--------|--------|-2-----3-----|
E|--------|--------|--------|--------|--------|--------|--------|--------|-0-----------|


E|-------------|-------------|-------------|-------------|-------------|-------------|
B|-------------|-------------|-------------|-------------|-------------|-------------|
G|-2-----4-----|-------5-----|-2-----4-----|-------5-----|-2-----4-----|-------5-----|
D|-2-----4-----|-2-----5-----|-2-----4-----|-2-----5-----|-2-----4-----|-2-----5-----|
A|-0-----2-----|-2-----3-----|-0-----2-----|-2-----3-----|-0-----2-----|-2-----3-----|
E|-------------|-0-----------|-------------|-0-----------|-------------|-0-----------|


E|-------------|--------------------------------|-------------------------------------|
B|-------------|--------------------------------|-------------------------------------|
G|-2-----4-----|-4----------------------5---5---|-5--5--5---2---2---2--2--2---4---4---|
D|-2-----4-----|-4----2---2---2--2--2---5---5---|-5--5--5---2---2---2--2--2---4---4---|
A|-0-----2-----|-2----2---2---2--2--2---3---3---|-3--5--3---0---0---0--0--0---2---2---|
E|-------------|------0---0---0--0--0-----------|-------------------------------------|


E|-------------------------------------|-------------------------------------|-------------------------------------|
B|-------------------------------------|-------------------------------------|-------------------------------------|
G|-----------------------------5---5---|-5--5--5---2---2---2--2--2---4---4---|-----------------------------5---5---|
D|-----------2---2---2--2--2---5---5---|-5--5--5---2---2---2--2--2---4---4---|-----------2---2---2--2--2---5---5---|
A|-----------2---2---2--2--2---3---3---|-3--5--3---0---0---0--0--0---2---2---|-----------2---2---2--2--2---3---3---|
E|-5--3--2---0---0---0--0--0-----------|-------------------------------------|-5--3--2---0---0---0--0--0-----------|


E|-------------------------------------|-------------------------------------|-------------------------------------|
B|-------------------------------------|-------------------------------------|-------------------------------------|
G|-5--5--5---2---2---2--2--2---4---4---|-----------------------------5---5---|-5--5--5---2---2---2--2--2---4---4---|
D|-5--5--5---2---2---2--2--2---4---4---|-----------2---2---2--2--2---5---5---|-5--5--5---2---2---2--2--2---4---4---|
A|-3--5--3---0---0---0--0--0---2---2---|-----------2---2---2--2--2---3---3---|-3--5--3---0---0---0--0--0---2---2---|
E|-------------------------------------|-5--3--2---0---0---0--0--0-----------|-------------------------------------|


E|------------------|--------|--------|--------|--------|--------|--------|--------|
B|------------------|--------|--------|--------|--------|--------|--------|--------|
G|------------------|--------|--------|--------|--------|--------|--------|--------|
D|------------------|--------|--------|--------|--------|--------|--------|--------|
A|------------------|--------|--------|--------|--------|--------|--------|--------|
E|-5--3--2----------|--------|--------|--------|--------|--------|--------|--------|


E|--------|--------|--------|--------|--------|--------|--------|--------|--------|
B|--------|--------|--------|--------|--------|--------|--------|--------|--------|
G|--------|--------|--------|--------|--------|--------|--------|--------|--------|
D|--------|--------|--------|--------|--------|--------|--------|--------|--------|
A|--------|--------|--------|--------|--------|--------|--------|--------|--------|
E|--------|--------|--------|--------|--------|--------|--------|--------|--------|


E|--------|--------|--------|--------|--------|--------|--------|--------|--------|
B|--------|--------|--------|--------|--------|--------|--------|--------|--------|
G|--------|--------|--------|--------|--------|--------|--------|--------|--------|
D|--------|--------|--------|--------|--------|--------|--------|--------|--------|
A|--------|--------|--------|--------|--------|--------|--------|--------|--------|
E|--------|--------|--------|--------|--------|--------|--------|--------|--------|


E|--------|--------|--------|--------|--------|--------|--------|--------|--------|
B|--------|--------|--------|--------|--------|--------|--------|--------|--------|
G|--------|--------|--------|--------|--------|--------|--------|--------|--------|
D|--------|--------|--------|--------|--------|--------|--------|--------|--------|
A|--------|--------|--------|--------|--------|--------|--------|--------|--------|
E|--------|--------|--------|--------|--------|--------|--------|--------|--------|


E|--------|--------|-------------------------|-------------------------------------|
B|--------|--------|-------------------------|-------------------------------------|
G|--------|--------|-------------------------|-5---5---5--5--5---2---2---2--2--2---|
D|--------|--------|-------2---2---2--2--2---|-5---5---5--5--5---2---2---2--2--2---|
A|--------|--------|-------2---2---2--2--2---|-3---3---3--5--3---0---0---0--0--0---|
E|--------|--------|-------0---0---0--0--0---|-------------------------------------|


E|-------------------------------------|-------------------------------------|-------------------------------------|
B|-------------------------------------|-------------------------------------|-------------------------------------|
G|-4---4-------------------------------|-5---5---5--5--5---2---2---2--2--2---|-4---4-------------------------------|
D|-4---4-------------2---2---2--2--2---|-5---5---5--5--5---2---2---2--2--2---|-4---4-------------2---2---2--2--2---|
A|-2---2-------------2---2---2--2--2---|-3---3---3--5--3---0---0---0--0--0---|-2---2-------------2---2---2--2--2---|
E|---------5--3--2---0---0---0--0--0---|-------------------------------------|---------5--3--2---0---0---0--0--0---|


E|-------------------------------------|-------------------------------------|-------------------------------------|
B|-------------------------------------|-------------------------------------|-------------------------------------|
G|-5---5---5--5--5---2---2---2--2--2---|-4---4-------------------------------|-5---5---5--5--5---2---2---2--2--2---|
D|-5---5---5--5--5---2---2---2--2--2---|-4---4-------------2---2---2--2--2---|-5---5---5--5--5---2---2---2--2--2---|
A|-3---3---3--5--3---0---0---0--0--0---|-2---2-------------2---2---2--2--2---|-3---3---3--5--3---0---0---0--0--0---|
E|-------------------------------------|---------5--3--2---0---0---0--0--0---|-------------------------------------|


E|-------------------------------------|-------------------------------------|-------------------------------------|
B|-------------------------------------|-------------------------------------|-------------------------------------|
G|-4---4-------------------------------|-5---5---5--5--5---2---2---2--2--2---|-4---4-------------------------------|
D|-4---4-------------2---2---2--2--2---|-5---5---5--5--5---2---2---2--2--2---|-4---4-------------2---2---2--2--2---|
A|-2---2-------------2---2---2--2--2---|-3---3---3--5--3---0---0---0--0--0---|-2---2-------------2---2---2--2--2---|
E|---------5--3--2---0---0---0--0--0---|-------------------------------------|---------5--3--2---0---0---0--0--0---|


E|-------------------------------------|-------------------------|--------|--------|
B|-------------------------------------|-------------------------|--------|--------|
G|-5---5---5--5--5---2---2---2--2--2---|-4---4-------------------|--------|--------|
D|-5---5---5--5--5---2---2---2--2--2---|-4---4-------------------|--------|--------|
A|-3---3---3--5--3---0---0---0--0--0---|-2---2-------------------|--------|--------|
E|-------------------------------------|---------5--3--2---------|--------|--------|


E|--------|--------|--------|--------|--------|--------|--------|--------|--------|
B|--------|--------|--------|--------|--------|--------|--------|--------|--------|
G|--------|--------|--------|--------|--------|--------|--------|--------|--------|
D|--------|--------|--------|--------|--------|--------|--------|--------|--------|
A|--------|--------|--------|--------|--------|--------|--------|--------|--------|
E|--------|--------|--------|--------|--------|--------|--------|--------|--------|


E|--------|--------|--------|--------|--------|--------|--------|--------|--------|
B|--------|--------|--------|--------|--------|--------|--------|--------|--------|
G|--------|--------|--------|--------|--------|--------|--------|--------|--------|
D|--------|--------|--------|--------|--------|--------|--------|--------|--------|
A|--------|--------|--------|--------|--------|--------|--------|--------|--------|
E|--------|--------|--------|--------|--------|--------|--------|--------|--------|


E|--------|--------|--------|--------|--------|--------|--------|--------|--------|
B|--------|--------|--------|--------|--------|--------|--------|--------|--------|
G|--------|--------|--------|--------|--------|--------|--------|--------|--------|
D|--------|--------|--------|--------|--------|--------|--------|--------|--------|
A|--------|--------|--------|--------|--------|--------|--------|--------|--------|
E|--------|--------|--------|--------|--------|--------|--------|--------|--------|


E|--------|--------------------------------|-------------------------------------|
B|--------|--------------------------------|-------------------------------------|
G|--------|------------------------5---5---|-5--5--5---2---2---2--2--2---4---4---|
D|--------|------2---2---2--2--2---5---5---|-5--5--5---2---2---2--2--2---4---4---|
A|--------|------2---2---2--2--2---3---3---|-3--5--3---0---0---0--0--0---2---2---|
E|--------|------0---0---0--0--0-----------|-------------------------------------|


E|-------------------------------------|-------------------------------------|-------------------------------------|
B|-------------------------------------|-------------------------------------|-------------------------------------|
G|-----------------------------5---5---|-5--5--5---2---2---2--2--2---4---4---|-----------------------------5---5---|
D|-----------2---2---2--2--2---5---5---|-5--5--5---2---2---2--2--2---4---4---|-----------2---2---2--2--2---5---5---|
A|-----------2---2---2--2--2---3---3---|-3--5--3---0---0---0--0--0---2---2---|-----------2---2---2--2--2---3---3---|
E|-5--3--2---0---0---0--0--0-----------|-------------------------------------|-5--3--2---0---0---0--0--0-----------|


E|-------------------------------------|-------------------------------------|-------------------------------------|
B|-------------------------------------|-------------------------------------|-------------------------------------|
G|-5--5--5---2---2---2--2--2---4---4---|-----------------------------5---5---|-5--5--5---2---2---2--2--2---4---4---|
D|-5--5--5---2---2---2--2--2---4---4---|-----------2---2---2--2--2---5---5---|-5--5--5---2---2---2--2--2---4---4---|
A|-3--5--3---0---0---0--0--0---2---2---|-----------2---2---2--2--2---3---3---|-3--5--3---0---0---0--0--0---2---2---|
E|-------------------------------------|-5--3--2---0---0---0--0--0-----------|-------------------------------------|


E|-------------------------------------|-------------------------------------|-------------------------------------|
B|-------------------------------------|-------------------------------------|-------------------------------------|
G|-----------------------------5---5---|-5--5--5---2---2---2--2--2---4---4---|-----------------------------5---5---|
D|-----------2---2---2--2--2---5---5---|-5--5--5---2---2---2--2--2---4---4---|-----------2---2---2--2--2---5---5---|
A|-----------2---2---2--2--2---3---3---|-3--5--3---0---0---0--0--0---2---2---|-----------2---2---2--2--2---3---3---|
E|-5--3--2---0---0---0--0--0-----------|-------------------------------------|-5--3--2---0---0---0--0--0-----------|


E|-------------------------------------|------------------|--------|--------|--------|
B|-------------------------------------|------------------|--------|--------|--------|
G|-5--5--5---2---2---2--2--2---4---4---|------------------|--------|--------|--------|
D|-5--5--5---2---2---2--2--2---4---4---|------------------|--------|--------|--------|
A|-3--5--3---0---0---0--0--0---2---2---|------------------|--------|--------|--------|
E|-------------------------------------|-5--3--2----------|--------|--------|--------|


E|--------|--------|--------|--------|--------|--------|--------|--------|--------|
B|--------|--------|--------|--------|--------|--------|--------|--------|--------|
G|--------|--------|--------|--------|--------|--------|--------|--------|--------|
D|--------|--------|--------|--------|--------|--------|--------|--------|--------|
A|--------|--------|--------|--------|--------|--------|--------|--------|--------|
E|--------|--------|--------|--------|--------|--------|--------|--------|--------|


E|--------|--------|--------|--------|--------|--------|--------|--------|--------|
B|--------|--------|--------|--------|--------|--------|--------|--------|--------|
G|--------|--------|--------|--------|--------|--------|--------|--------|--------|
D|--------|--------|--------|--------|--------|--------|--------|--------|--------|
A|--------|--------|--------|--------|--------|--------|--------|--------|--------|
E|--------|--------|--------|--------|--------|--------|--------|--------|--------|


E|--------|--------|--------|--------|--------|--------|--------|--------|--------|
B|--------|--------|--------|--------|--------|--------|--------|--------|--------|
G|--------|--------|--------|--------|--------|--------|--------|--------|--------|
D|--------|--------|--------|--------|--------|--------|--------|--------|--------|
A|--------|--------|--------|--------|--------|--------|--------|--------|--------|
E|--------|--------|--------|--------|--------|--------|--------|--------|--------|


E|--------|--------|--------|--------|--------|--------|--------|--------|--------|
B|--------|--------|--------|--------|--------|--------|--------|--------|--------|
G|--------|--------|--------|--------|--------|--------|--------|--------|--------|
D|--------|--------|--------|--------|--------|--------|--------|--------|--------|
A|--------|--------|--------|--------|--------|--------|--------|--------|--------|
E|--------|--------|--------|--------|--------|--------|--------|--------|--------|


E|--------|--------|--------|--------|--------|--------|--------|--------|--------|
B|--------|--------|--------|--------|--------|--------|--------|--------|--------|
G|--------|--------|--------|--------|--------|--------|--------|--------|--------|
D|--------|--------|--------|--------|--------|--------|--------|--------|--------|
A|--------|--------|--------|--------|--------|--------|--------|--------|--------|
E|--------|--------|--------|--------|--------|--------|--------|--------|--------|


E|--------|--------|--------|--------|--------|--------|--------|--------|--------------------------------|
B|--------|--------|--------|--------|--------|--------|--------|--------|--------------------------------|
G|--------|--------|--------|--------|--------|--------|--------|--------|------------------------5---5---|
D|--------|--------|--------|--------|--------|--------|--------|--------|------2---2---2--2--2---5---5---|
A|--------|--------|--------|--------|--------|--------|--------|--------|------2---2---2--2--2---3---3---|
E|--------|--------|--------|--------|--------|--------|--------|--------|------0---0---0--0--0-----------|


E|-------------------------------------|-------------------------------------|-------------------------------------|
B|-------------------------------------|-------------------------------------|-------------------------------------|
G|-5--5--5---2---2---2--2--2---4---4---|-----------------------------5---5---|-5--5--5---2---2---2--2--2---4---4---|
D|-5--5--5---2---2---2--2--2---4---4---|-----------2---2---2--2--2---5---5---|-5--5--5---2---2---2--2--2---4---4---|
A|-3--5--3---0---0---0--0--0---2---2---|-----------2---2---2--2--2---3---3---|-3--5--3---0---0---0--0--0---2---2---|
E|-------------------------------------|-5--3--2---0---0---0--0--0-----------|-------------------------------------|


E|-------------------------------------|-------------------------------------|-------------------------------------|
B|-------------------------------------|-------------------------------------|-------------------------------------|
G|-----------------------------5---5---|-5--5--5---2---2---2--2--2---4---4---|-----------------------------5---5---|
D|-----------2---2---2--2--2---5---5---|-5--5--5---2---2---2--2--2---4---4---|-----------2---2---2--2--2---5---5---|
A|-----------2---2---2--2--2---3---3---|-3--5--3---0---0---0--0--0---2---2---|-----------2---2---2--2--2---3---3---|
E|-5--3--2---0---0---0--0--0-----------|-------------------------------------|-5--3--2---0---0---0--0--0-----------|


E|-------------------------------------|-------------------------------------|-------------------------------------|
B|-------------------------------------|-------------------------------------|-------------------------------------|
G|-5--5--5---2---2---2--2--2---4---4---|-----------------------------5---5---|-5--5--5---2---2---2--2--2---4---4---|
D|-5--5--5---2---2---2--2--2---4---4---|-----------2---2---2--2--2---5---5---|-5--5--5---2---2---2--2--2---4---4---|
A|-3--5--3---0---0---0--0--0---2---2---|-----------2---2---2--2--2---3---3---|-3--5--3---0---0---0--0--0---2---2---|
E|-------------------------------------|-5--3--2---0---0---0--0--0-----------|-------------------------------------|


E|-------------------------------------|-------------------------------------|------------------|
B|-------------------------------------|-------------------------------------|------------------|
G|-----------------------------5---5---|-5--5--5---2---2---2--2--2---4---4---|------------------|
D|-----------2---2---2--2--2---5---5---|-5--5--5---2---2---2--2--2---4---4---|------------------|
A|-----------2---2---2--2--2---3---3---|-3--5--3---0---0---0--0--0---2---2---|------------------|
E|-5--3--2---0---0---0--0--0-----------|-------------------------------------|-5--3--2----------|


E|--------|--------|--------|--------|--------|--------|--------|--------|--------|
B|--------|--------|--------|--------|--------|--------|--------|--------|--------|
G|--------|--------|--------|--------|--------|--------|--------|--------|--------|
D|--------|--------|--------|--------|--------|--------|--------|--------|--------|
A|--------|--------|--------|--------|--------|--------|--------|--------|--------|
E|--------|--------|--------|--------|--------|--------|--------|--------|--------|





Track 5: Lead

E|--------|--------|--------|--------|--------|--------|--------|--------|--------|
B|--------|--------|--------|--------|--------|--------|--------|--------|--------|
G|--------|--------|--------|--------|--------|--------|--------|--------|--------|
D|--------|--------|--------|--------|--------|--------|--------|--------|--------|
A|--------|--------|--------|--------|--------|--------|--------|--------|--------|
E|--------|--------|--------|--------|--------|--------|--------|--------|--------|


E|--------|--------|--------|--------|--------|--------|--------|--------|--------|
B|--------|--------|--------|--------|--------|--------|--------|--------|--------|
G|--------|--------|--------|--------|--------|--------|--------|--------|--------|
D|--------|--------|--------|--------|--------|--------|--------|--------|--------|
A|--------|--------|--------|--------|--------|--------|--------|--------|--------|
E|--------|--------|--------|--------|--------|--------|--------|--------|--------|


E|--------|--------|--------|--------|--------|--------|--------|--------|--------|
B|--------|--------|--------|--------|--------|--------|--------|--------|--------|
G|--------|--------|--------|--------|--------|--------|--------|--------|--------|
D|--------|--------|--------|--------|--------|--------|--------|--------|--------|
A|--------|--------|--------|--------|--------|--------|--------|--------|--------|
E|--------|--------|--------|--------|--------|--------|--------|--------|--------|


E|--------|--------|--------|--------|--------|--------|--------|--------|--------|
B|--------|--------|--------|--------|--------|--------|--------|--------|--------|
G|--------|--------|--------|--------|--------|--------|--------|--------|--------|
D|--------|--------|--------|--------|--------|--------|--------|--------|--------|
A|--------|--------|--------|--------|--------|--------|--------|--------|--------|
E|--------|--------|--------|--------|--------|--------|--------|--------|--------|


E|--------|---------------------|------14---14---14---|-14--14------17--------------------|
B|--------|------15---15---15---|-15------------------|---------17------17--17--15-17-15--|
G|--------|---------------------|---------------------|-----------------------------------|
D|--------|---------------------|---------------------|-----------------------------------|
A|--------|---------------------|---------------------|-----------------------------------|
E|--------|---------------------|---------------------|-----------------------------------|


E|---------------------------------------|--------------------------------------|------------------15------------15------|
B|-14-15-14-----12-----12-----12-----12--|-15--15-------------------------------|-12------12--13--------13---13------13--|
G|-----------14-----14-----14-----14-----|----------------------12--14--12--14--|-----14---------------------------------|
D|---------------------------------------|---------14---12--14------------------|----------------------------------------|
A|---------------------------------------|--------------------------------------|----------------------------------------|
E|---------------------------------------|--------------------------------------|----------------------------------------|


E|-----15------15-----|-15--14--15-14-12-14-12----12----------------------------------|
B|-13------13---------|------------------------15----15-13-15-13-12-13-12----12-------|
G|--------------------|---------------------------------------------------14----14-12-|
D|--------------------|---------------------------------------------------------------|
A|--------------------|---------------------------------------------------------------|
E|--------------------|---------------------------------------------------------------|


E|----------------------------------|-------------|-------------|-------------|--------|
B|----------------------------------|-------------|-------------|-------------|--------|
G|-14-12----------------------------|-------------|-------------|-------------|--------|
D|-------14-12-11-------------------|-------------|-------------|-------------|--------|
A|----------------14----------------|-------------|-------------|-------------|--------|
E|-------------------12-------------|-------------|-------------|-------------|--------|


E|--------|--------|--------|--------|--------|--------|--------|--------|--------|
B|--------|--------|--------|--------|--------|--------|--------|--------|--------|
G|--------|--------|--------|--------|--------|--------|--------|--------|--------|
D|--------|--------|--------|--------|--------|--------|--------|--------|--------|
A|--------|--------|--------|--------|--------|--------|--------|--------|--------|
E|--------|--------|--------|--------|--------|--------|--------|--------|--------|


E|--------|--------|--------|--------|--------|--------|--------|--------|--------|
B|--------|--------|--------|--------|--------|--------|--------|--------|--------|
G|--------|--------|--------|--------|--------|--------|--------|--------|--------|
D|--------|--------|--------|--------|--------|--------|--------|--------|--------|
A|--------|--------|--------|--------|--------|--------|--------|--------|--------|
E|--------|--------|--------|--------|--------|--------|--------|--------|--------|


E|--------|--------|--------|--------|--------|--------|--------|--------|--------|
B|--------|--------|--------|--------|--------|--------|--------|--------|--------|
G|--------|--------|--------|--------|--------|--------|--------|--------|--------|
D|--------|--------|--------|--------|--------|--------|--------|--------|--------|
A|--------|--------|--------|--------|--------|--------|--------|--------|--------|
E|--------|--------|--------|--------|--------|--------|--------|--------|--------|


E|--------|--------|--------|--------|--------|--------|--------|-----15------------------------------|
B|--------|--------|--------|--------|--------|--------|--------|-15------15--15--12--15--12------12--|
G|--------|--------|--------|--------|--------|--------|--------|-----------------------------14------|
D|--------|--------|--------|--------|--------|--------|--------|-------------------------------------|
A|--------|--------|--------|--------|--------|--------|--------|-------------------------------------|
E|--------|--------|--------|--------|--------|--------|--------|-------------------------------------|


E|-------------------------------|---------------------------|-------------------14--17--|
B|-12-13-12----12----------------|---------------------------|---------------------------|
G|----------14----14-12----------|---------------------------|------17------14-----------|
D|----------------------14-14----|---------------------------|-14-------14---------------|
A|-------------------------------|--------------12---14--15--|---------------------------|
E|-------------------------------|-12---14--15---------------|---------------------------|


E|-22---22--19--20-15-12-20-15-12-20-15-12-20-15-12-|-17-19-17--15-17-15--14-15-14--12-14-12--|
B|--------------------------------------------------|-----------------------------------------|
G|--------------------------------------------------|-----------------------------------------|
D|--------------------------------------------------|-----------------------------------------|
A|--------------------------------------------------|-----------------------------------------|
E|--------------------------------------------------|-----------------------------------------|


E|----12-15-12-------------------------------------|-------------------------------------------------|
B|-15----------15-13-12----13-12-------12----------|-------------------------------------------------|
G|----------------------14-------14-12----14-12----|-14-12-------12----------------------------------|
D|----------------------------------------------14-|-------14-12----14-12----14-12-------12----------|
A|-------------------------------------------------|----------------------14-------14-12----14-12----|
E|-------------------------------------------------|----------------------------------------------14-|


E|-----------------|-------------|--------|--------|--------|--------|--------|--------|
B|-----------------|-------------|--------|--------|--------|--------|--------|--------|
G|-----------------|-------------|--------|--------|--------|--------|--------|--------|
D|-----------------|-------------|--------|--------|--------|--------|--------|--------|
A|-----------------|-------------|--------|--------|--------|--------|--------|--------|
E|-12--------------|-------------|--------|--------|--------|--------|--------|--------|


E|--------|--------|--------|--------|--------|--------|--------|--------|--------|
B|--------|--------|--------|--------|--------|--------|--------|--------|--------|
G|--------|--------|--------|--------|--------|--------|--------|--------|--------|
D|--------|--------|--------|--------|--------|--------|--------|--------|--------|
A|--------|--------|--------|--------|--------|--------|--------|--------|--------|
E|--------|--------|--------|--------|--------|--------|--------|--------|--------|


E|--------|--------|--------|--------|--------|--------|--------|--------|--------|
B|--------|--------|--------|--------|--------|--------|--------|--------|--------|
G|--------|--------|--------|--------|--------|--------|--------|--------|--------|
D|--------|--------|--------|--------|--------|--------|--------|--------|--------|
A|--------|--------|--------|--------|--------|--------|--------|--------|--------|
E|--------|--------|--------|--------|--------|--------|--------|--------|--------|


E|--------|--------|--------|--------|--------|--------|--------|---------------------------|
B|--------|--------|--------|--------|--------|--------|--------|---------------------------|
G|--------|--------|--------|--------|--------|--------|--------|--------------9------------|
D|--------|--------|--------|--------|--------|--------|--------|----------9-------9---10---|
A|--------|--------|--------|--------|--------|--------|--------|------7--------------------|
E|--------|--------|--------|--------|--------|--------|--------|---------------------------|


E|-----------------------------------|--------------------------------|-----------------------------------|
B|-----------------------------------|--------------------------------|-----------------------------------|
G|-----------------------------------|-------------------9------------|-----------------------------------|
D|-10-9--7---7---9---10--7---9---9---|-7-------------9-------9---10---|-10-9--7---7---9---10--7---9---9---|
A|-----------------------------------|----10-9---7--------------------|-----------------------------------|
E|-----------------------------------|--------------------------------|-----------------------------------|


E|--------------------------------|-----------------------------------|--------------------------------|
B|--------------------------------|-----------------------------------|--------------------------------|
G|-------------------9------------|-----------------------------------|-------------------9------------|
D|-7-------------9-------9---10---|-10-9--7---7---9---10--7---9---9---|-7-------------9-------9---10---|
A|----10-9---7--------------------|-----------------------------------|----10-9---7--------------------|
E|--------------------------------|-----------------------------------|--------------------------------|


E|-----------------------------------|---------------------------------|---------------------------------------|
B|-----------------------------------|-----------15---15---15-15-12-15-|-12---12-13-12----12-------------------|
G|-----------------------------------|---------------------------------|---------------14-----14-11-12---------|
D|-10-9--7---7---9---10--7---9---9---|-7-------------------------------|-------------------------------12--14--|
A|-----------------------------------|----10-9-------------------------|---------------------------------------|
E|-----------------------------------|---------------------------------|---------------------------------------|


E|--------------------------------------|-------------------17--------19--20-22-|-22---19----22-19-20---|
B|-----------------------------------12-|-13-12-----15--15------15-15-----------|-----------------------|
G|------11-12-----11-12-----11-14-12----|-------14------------------------------|-----------------------|
D|------------12--------14--------------|---------------------------------------|-----------------------|
A|--------------------------------------|---------------------------------------|-----------------------|
E|--------------------------------------|---------------------------------------|-----------------------|


E|-----20-19-17----20-17-19---|-----19-17-15---15-17-19-15-17-15----15-|----------------------15-------15-17----15-17-19-|
B|----------------------------|----------------------------------19----|-19-17-15-17-15-17-19----17-19-------19----------|
G|----------------------------|----------------------------------------|-------------------------------------------------|
D|----------------------------|----------------------------------------|-------------------------------------------------|
A|----------------------------|----------------------------------------|-------------------------------------------------|
E|----------------------------|----------------------------------------|-------------------------------------------------|


E|-15-17-19-20-22--22--22--22-22------|---------------------|------------------------------------------|
B|------------------------------------|------14---14---14---|-14---------------------12-13-------12-13-|
G|------------------------------------|------14---14---14---|-14---12-14-12----12-14-------12-14-------|
D|------------------------------------|---------------------|---------------14-------------------------|
A|------------------------------------|---------------------|------------------------------------------|
E|------------------------------------|---------------------|------------------------------------------|


E|-12-15-12----12-------------------|--------------------14-15-14--13-14-|-12---------------------|
B|----------15------13--12--13--12--|-----------12-15-12-----------------|------------------------|
G|----------------------------------|-12---14----------------------------|------------------------|
D|----------------------------------|------------------------------------|------------------------|
A|----------------------------------|------------------------------------|------------------------|
E|----------------------------------|------------------------------------|------0-----3---2---3---|


E|-------------------------------------------------|-------------0-----------0-----------0-----------|
B|-------------------------------------------------|-----------------3---3-------3---3-------3---3---|
G|-------------------------------------------------|-------------------------------------------------|
D|-------------------------------------------------|-------------------------------------------------|
A|-------------2---0---2---3---2---3---5---3---5---|-7---5---7---------------------------------------|
E|-5---3---5---------------------------------------|-------------------------------------------------|


E|-0-----------3---2-------------------------------|---------------------------|-----------------------------------|
B|-----3---3-----------5---3---1-------------------|---------------------------|-----------------------------------|
G|---------------------------------4---2-----------|---------------------------|-----------------------------------|
D|-----------------------------------------5---4---|--------------9------------|-----------------------------------|
A|-------------------------------------------------|----------9-------9---10---|-10-9--7---7---9---10--7---9---9---|
E|-------------------------------------------------|-0----7--------------------|-----------------------------------|


E|--------------------------------|-----------------------------------|------------------|
B|--------------------------------|-----------------------------------|------------------|
G|--------------------------------|-----------------------------------|------------------|
D|-------------------9------------|-----------------------------------|------------------|
A|-7-------------9-------9---10---|-10-9--7---7---9---10--7---9---9---|-7----------------|
E|----10-9---7--------------------|-----------------------------------|----10-9----------|


E|------19-22-19-----19----------------|-----------------------------------|----------------------------------------------------|
B|---------------22------22-19---------|-----------------------------------|-----------------------------19-20-19-----19--20-22-|
G|-----------------------------21--19--|-----16-19-21---19--18-19--18------|------18-19-18-----18--19-21----------21------------|
D|-------------------------------------|-------------------------------19--|-21------------21-----------------------------------|
A|-------------------------------------|-----------------------------------|----------------------------------------------------|
E|-------------------------------------|-----------------------------------|----------------------------------------------------|


E|-19-20-19-22-21-22-20-19-17-20-19-17-15-19-17-15-14-|-17-15-14-12-15-12-14-12-15-12-14-12-15-12-14-12-15-12-14-|
B|----------------------------------------------------|----------------------------------------------------------|
G|----------------------------------------------------|----------------------------------------------------------|
D|----------------------------------------------------|----------------------------------------------------------|
A|----------------------------------------------------|----------------------------------------------------------|
E|----------------------------------------------------|----------------------------------------------------------|


E|-12-15-12-14-12-15-12-14-12-15-12-14-12-15-12------|--------|--------|--------|--------|
B|----------------------------------------------15---|--------|--------|--------|--------|
G|---------------------------------------------------|--------|--------|--------|--------|
D|---------------------------------------------------|--------|--------|--------|--------|
A|---------------------------------------------------|--------|--------|--------|--------|
E|---------------------------------------------------|--------|--------|--------|--------|


E|--------|--------|--------|--------|--------|--------|--------|--------|--------|
B|--------|--------|--------|--------|--------|--------|--------|--------|--------|
G|--------|--------|--------|--------|--------|--------|--------|--------|--------|
D|--------|--------|--------|--------|--------|--------|--------|--------|--------|
A|--------|--------|--------|--------|--------|--------|--------|--------|--------|
E|--------|--------|--------|--------|--------|--------|--------|--------|--------|


E|--------|--------|--------|--------|--------|--------|--------|--------|--------|
B|--------|--------|--------|--------|--------|--------|--------|--------|--------|
G|--------|--------|--------|--------|--------|--------|--------|--------|--------|
D|--------|--------|--------|--------|--------|--------|--------|--------|--------|
A|--------|--------|--------|--------|--------|--------|--------|--------|--------|
E|--------|--------|--------|--------|--------|--------|--------|--------|--------|


E|--------|--------|--------|--------|--------|--------|--------|--------|--------|
B|--------|--------|--------|--------|--------|--------|--------|--------|--------|
G|--------|--------|--------|--------|--------|--------|--------|--------|--------|
D|--------|--------|--------|--------|--------|--------|--------|--------|--------|
A|--------|--------|--------|--------|--------|--------|--------|--------|--------|
E|--------|--------|--------|--------|--------|--------|--------|--------|--------|


E|--------|--------|--------|--------|--------|--------|--------|--------|--------|
B|--------|--------|--------|--------|--------|--------|--------|--------|--------|
G|--------|--------|--------|--------|--------|--------|--------|--------|--------|
D|--------|--------|--------|--------|--------|--------|--------|--------|--------|
A|--------|--------|--------|--------|--------|--------|--------|--------|--------|
E|--------|--------|--------|--------|--------|--------|--------|--------|--------|


E|--------|--------|--------|
B|--------|--------|--------|
G|--------|--------|--------|
D|--------|--------|--------|
A|--------|--------|--------|
E|--------|--------|--------|





Track 6: Bass

G|--------|--------|--------|--------|--------|--------|--------|--------|--------|
D|--------|--------|--------|--------|--------|--------|--------|--------|--------|
A|--------|--------|--------|--------|--------|--------|--------|--------|--------|
E|--------|--------|--------|--------|--------|--------|--------|--------|--------|


G|--------|--------|--------|--------|--------|--------|--------|-----------------|
D|--------|--------|--------|--------|--------|--------|--------|-----------------|
A|--------|--------|--------|--------|--------|--------|--------|-----------------|
E|--------|--------|--------|--------|--------|--------|--------|------------12---|


G|-------------|-------------|-------------|-------------|-------------|-------------|
D|-------------|-------------|-------------|-------------|-------------|-------------|
A|-7-----------|-------------|-7-----------|-------------|-7-----------|-------------|
E|-------8-----|-5-----7-----|-------8-----|-5-----7-----|-------8-----|-5-----7-----|


G|-------------|-------------|------------------------------|---------------------------------|
D|-------------|-------------|------------------------------|---------------------------------|
A|-7-----------|-------------|----------7-------7-------7---|-----7-------7-------7-------9---|
E|-------8-----|-5-----7-----|------0-------0-------8-------|-8-------5-------5-------7-------|


G|---------------------------------|---------------------------------|---------------------------------|
D|---------------------------------|---------------------------------|---------------------------------|
A|-----9-------7-------7-------7---|-----7-------7-------7-------9---|-----9-------7-------7-------7---|
E|-7-------0-------0-------8-------|-8-------5-------5-------7-------|-7-------0-------0-------8-------|


G|---------------------------------|---------------------------------|---------------------------------|
D|---------------------------------|---------------------------------|---------------------------------|
A|-----7-------7-------7-------9---|-----9-------7-------7-------7---|-----7-------7-------7-------9---|
E|-8-------5-------5-------7-------|-7-------0-------0-------8-------|-8-------5-------5-------7-------|


G|---------------------------------|---------------------------------|---------------------------------|
D|---------------------------------|---------------------------------|---------------------------------|
A|-----9-------7-------7-------7---|-----7-------7-------7-------7---|-----7-------7-------7-------7---|
E|-7-------0-------0-------0-------|-0-------0-------0-------0-------|-0-------0-------0-------0-------|


G|---------------------------------|---------------------------------|---------------------------------|
D|---------------------------------|---------------------------------|---------------------------------|
A|-----7-------7-------7-------7---|-----7-------7-------7-------7---|-----7-------7-------7-------9---|
E|-0-------0-------0-------0-------|-0-------0-------0-------8-------|-8-------5-------5-------7-------|


G|---------------------------------|---------------------------------|---------------------------------|
D|---------------------------------|---------------------------------|---------------------------------|
A|-----9-------7-------7-------7---|-----7-------7-------7-------9---|-----9-------7-------7-------7---|
E|-7-------0-------0-------8-------|-8-------5-------5-------7-------|-7-------0-------0-------8-------|


G|---------------------------------|---------------------------------|---------------------------------|
D|---------------------------------|---------------------------------|---------------------------------|
A|-----7-------7-------7-------9---|-----9-------7-------7-------7---|-----7-------7-------7-------9---|
E|-8-------5-------5-------7-------|-7-------0-------0-------8-------|-8-------5-------5-------7-------|


G|---------------------------------|---------------------------------|---------------------------------|
D|---------------------------------|---------------------------------|---------------------------------|
A|-----9-------7-------7-------7---|-----7-------7-------7-------7---|-----7-------7-------7-------7---|
E|-7-------0-------0-------0-------|-0-------0-------0-------0-------|-0-------0-------0-------0-------|


G|---------------------------------|------------------------------|---------------------------------|
D|---------------------------------|------------------------------|---------------------------------|
A|-----7-------7-------7-------7---|-----7------------7-------7---|-----7-------7-------7-------7---|
E|-0-------0-------0-------0-------|-0-------7----0-------0-------|-0-------0-------0-------0-------|


G|---------------------------------|---------------------------------|---------------------------------|
D|---------------------------------|---------------------------------|---------------------------------|
A|-----7-------7-------7-------7---|-----7-------7-------6-------6---|-----6-------6-------7-------7---|
E|-0-------0-------8-------8-------|-8-------8-------7-------7-------|-7-------7-------0-------0-------|


G|---------------------------------|---------------------------------|---------------------------------|
D|---------------------------------|---------------------------------|---------------------------------|
A|-----7-------7-------7-------7---|-----7-------7-------7-------7---|-----7-------7-------7-------7---|
E|-0-------0-------0-------0-------|-0-------0-------5-------5-------|-5-------5-------5-------5-------|


G|---------------------------------|---------------------------------|---------------------------------|
D|---------------------------------|---------------------------------|---------------------------------|
A|-----5-------4-------7-------7---|-----7-------7-------7-------7---|-----7-------7-------7-------7---|
E|-3-------2-------0-------0-------|-0-------0-------0-------0-------|-0-------0-------0-------0-------|


G|---------------------------------|---------------------------------|---------------------------------|
D|---------------------------------|---------------------------------|---------------------------------|
A|-----7-------7-------7-------7---|-----7-------7-------7-------7---|-----7-------7-------7-------7---|
E|-0-------0-------0-------0-------|-0-------0-------0-------0-------|-8-------8-------8-------8-------|


G|---------------------------------|---------------------------------|---------------------------------|
D|---------------------------------|---------------------------------|---------------------------------|
A|-----6-------6-------6-------6---|-----7-------7-------7-------7---|-----7-------7-------7-------7---|
E|-7-------7-------7-------7-------|-0-------0-------0-------0-------|-0-------0-------0-------0-------|


G|---------------------------------|---------------------------------|---------------------------------|
D|---------------------------------|---------------------------------|---------------------------------|
A|-----7-------7-------7-------7---|-----7-------7-------5-------4---|-----7-------7-------7-------7---|
E|-5-------5-------5-------5-------|-5-------5-------3-------2-------|-0-------0-------0-------0-------|


G|---------------------------------|---------------------------------|---------------------------------|
D|---------------------------------|---------------------------------|---------------------------------|
A|-----7-------7-------7-------7---|-----7-------7-------7-------7---|-----7-------7-------7-------7---|
E|-0-------0-------0-------0-------|-0-------0-------0-------0-------|-8-------8-------5-------5-------|


G|---------------------------------|---------------------------------|---------------------------------|
D|---------------------------------|---------------------------------|---------------------------------|
A|-----9-------9-------7-------7---|-----7-------7-------7-------7---|-----9-------9-------7-------7---|
E|-7-------7-------0-------0-------|-8-------8-------5-------5-------|-7-------7-------0-------0-------|


G|---------------------------------|---------------------------------|---------------------------------|
D|---------------------------------|---------------------------------|---------------------------------|
A|-----7-------7-------7-------7---|-----9-------9-------7-------7---|-----7-------7-------7-------7---|
E|-8-------8-------5-------5-------|-7-------7-------0-------0-------|-8-------8-------5-------5-------|


G|---------------------------------|---------------------------------|---------------------------------|
D|---------------------------------|---------------------------------|---------------------------------|
A|-----9-------9-------7-------7---|-----7-------7-------7-------7---|-----9-------9-------7-------7---|
E|-7-------7-------0-------0-------|-8-------8-------5-------5-------|-7-------7-------0-------0-------|


G|---------------------------------|---------------------------------|---------------------------------|
D|---------------------------------|---------------------------------|---------------------------------|
A|-----7-------7-------7-------7---|-----9-------9-------------------|---------------------------------|
E|-8-------8-------5-------5-------|-7-------7-------3---3---3---3---|-3---3---2---2---2---2---2---2---|


G|---------------------------------|---------------------------------|---------------------------------|
D|---------------------------------|---------------------------------|---------------------------------|
A|-----7-------7-------7-------7---|-----7-------7-------9-------9---|-----7-------7-------7-------7---|
E|-0-------0-------8-------8-------|-5-------5-------7-------7-------|-0-------0-------8-------8-------|


G|---------------------------------|---------------------------------|---------------------------------|
D|---------------------------------|---------------------------------|---------------------------------|
A|-----7-------7-------9-------9---|-----7-------7-------7-------7---|-----7-------7-------9-------9---|
E|-5-------5-------7-------7-------|-0-------0-------8-------8-------|-5-------5-------7-------7-------|


G|---------------------------------|---------------------------------|---------------------------------|
D|---------------------------------|---------------------------------|---------------------------------|
A|-----7-------7-------7-------7---|-----7-------7-------9-------9---|-----7-------7-------7-------7---|
E|-0-------0-------8-------8-------|-5-------5-------7-------7-------|-0-------0-------0-------0-------|


G|---------------------------------|------------------------------|---------------------------------|
D|---------------------------------|------------------------------|---------------------------------|
A|-----7-------7-------7-------7---|-----7------------7-------7---|-----7-------7-------7-------7---|
E|-0-------0-------0-------0-------|-0-------7----0-------0-------|-0-------0-------0-------0-------|


G|---------------------------------|---------------------------------|---------------------------------|
D|---------------------------------|---------------------------------|---------------------------------|
A|-----7-------7-------7-------7---|-----7-------7-------6-------6---|-----6-------6-------7-------7---|
E|-0-------0-------8-------8-------|-8-------8-------7-------7-------|-7-------7-------0-------0-------|


G|---------------------------------|---------------------------------|---------------------------------|
D|---------------------------------|---------------------------------|---------------------------------|
A|-----7-------7-------7-------7---|-----7-------7-------7-------7---|-----7-------7-------7-------7---|
E|-0-------0-------0-------0-------|-0-------0-------5-------5-------|-5-------5-------5-------5-------|


G|---------------------------------|---------------------------------|---------------------------------|
D|---------------------------------|---------------------------------|---------------------------------|
A|-----5-------4-------7-------7---|---------5-----------4-------7---|-----7-------7-------7-------7---|
E|-3-------2-------0-------0-------|-0---3-------3---2-------0-------|-0-------0-------0-------0-------|


G|---------------------------------|---------------------------------|---------------------------------|
D|---------------------------------|---------------------------------|---------------------------------|
A|-----7-------7-------7-------7---|-----7-------7-------7-------6---|-----6-------6-------6-------7---|
E|-0-------0-------0-------8-------|-8-------8-------8-------7-------|-7-------7-------7-------0-------|


G|---------------------------------|---------------------------------|---------------------------------|
D|---------------------------------|---------------------------------|---------------------------------|
A|-----7-------7-------7-------7---|-----7-------7-------7-------7---|-----7-------7-------7-------7---|
E|-0-------0-------0-------0-------|-0-------0-------0-------5-------|-5-------5-------5-------5-------|


G|---------------------------------|---------------------------------|-----------------------------------|
D|---------------------------------|---------------------------------|-----------------------------------|
A|-----7-------5-------4-------5---|-----4-----------3-------3-------|-3------3------7-------7-------7---|
E|-5-------3-------2-------3-------|-2-------2---1-------1-------1---|-----1-----0-------0-------8-------|


G|---------------------------------|---------------------------------|---------------------------------|
D|---------------------------------|---------------------------------|---------------------------------|
A|-----7-------7-------7-------9---|-----9-------7-------7-------7---|-----7-------7-------7-------9---|
E|-8-------5-------5-------7-------|-7-------0-------0-------8-------|-8-------5-------5-------7-------|


G|---------------------------------|---------------------------------|---------------------------------|
D|---------------------------------|---------------------------------|---------------------------------|
A|-----9-------7-------7-------7---|-----7-------7-------7-------9---|-----9-------7-------7-------7---|
E|-7-------0-------0-------8-------|-8-------5-------5-------7-------|-7-------0-------0-------8-------|


G|---------------------------------|---------------------------------|---------------------------------|
D|---------------------------------|---------------------------------|---------------------------------|
A|-----7-------7-------7-------9---|-----9-------7-------7-------7---|-----7-------7-------7-------9---|
E|-8-------5-------5-------7-------|-7-------0-------0-------8-------|-8-------5-------5-------7-------|


G|---------------------------------|---------------------------------|-------------------------------------|
D|---------------------------------|---------------------------------|-------------------------------------|
A|-----9-------7-------7-------7---|-----7-------7-------7-------9---|-----9---7---7---7--7--7--7----------|
E|-7-------0-------0-------8-------|-8-------5-------5-------7-------|-7---------------------------8---8---|


G|-----------------------------------------|-----------------------------------------|
D|-----------------------------------------|-----------------------------------------|
A|-----------------------------------------|-------------7---7---7--7--7--7----------|
E|-8--8--8--8--5---5---5--5--5--5--7---7---|-7--7--7--7----------------------8---8---|


G|-----------------------------------------|-----------------------------------------|
D|-----------------------------------------|-----------------------------------------|
A|-----------------------------------------|-------------7---7---7--7--7--7----------|
E|-8--8--8--8--5---5---5--5--5--5--7---7---|-7--7--7--7----------------------8---8---|


G|-----------------------------------------|-----------------------------------------|
D|-----------------------------------------|-----------------------------------------|
A|-----------------------------------------|-------------7---7---7--7--7--7----------|
E|-8--8--8--8--5---5---5--5--5--5--7---7---|-7--7--7--7----------------------8---8---|


G|-----------------------------------------|-----------------------------------------|
D|-----------------------------------------|-----------------------------------------|
A|-----------------------------------------|-------------7---7---7--7--7--7----------|
E|-8--8--8--8--5---5---5--5--5--5--7---7---|-7--7--7--7----------------------8---8---|


G|-----------------------------------------|-----------------------------------------|
D|-----------------------------------------|-----------------------------------------|
A|-----------------------------------------|-------------7---7---7--7--7--7----------|
E|-8--8--8--8--5---5---5--5--5--5--7---7---|-7--7--7--7----------------------8---8---|


G|-----------------------------------------|-----------------------------------------|
D|-----------------------------------------|-----------------------------------------|
A|-----------------------------------------|-------------7---7---7--7--7--7----------|
E|-8--8--8--8--5---5---5--5--5--5--7---7---|-7--7--7--7----------------------8---8---|


G|-----------------------------------------|-----------------------------------------|
D|-----------------------------------------|-----------------------------------------|
A|-----------------------------------------|-------------7---7---7--7--7--7----------|
E|-8--8--8--8--5---5---5--5--5--5--7---7---|-7--7--7--7----------------------8---8---|


G|-----------------------------------------|----------------------------------------|
D|-----------------------------------------|----------------------------------------|
A|-----------------------------------------|-------------7-----7--109-7-5-7-5-3-5-3-|
E|-8--8--8--8--5---5---5--5--5--5--7---7---|-7--7--7--7-----------------------------|


G|-----------------------------------------|---------------------------------|---------------------------------|
D|-----------------------------------------|---------------------------------|---------------------------------|
A|-2-3-2-0-2-0---------7-------7-------7---|-----7-------7-------7-------7---|-----7-------7-------7-------7---|
E|-------------3-2-0-------0-------0-------|-0-------0-------0-------0-------|-0-------8-------8-------8-------|


G|---------------------------------|---------------------------------|---------------------------------|
D|---------------------------------|---------------------------------|---------------------------------|
A|-----7-------6-------6-------6---|-----6-------7-------7-------7---|-----7-------7-------7-------7---|
E|-8-------7-------7-------7-------|-7-------0-------0-------0-------|-0-------0-------0-------0-------|


G|---------------------------------|---------------------------------|---------------------------------|
D|---------------------------------|---------------------------------|-----------------------------12--|
A|-----7-------7-------7-------7---|-----7-------7-------7-------5---|-----4-------9-------9---10------|
E|-0-------5-------5-------5-------|-5-------5-------5-------3-------|-2-------7-------7---------------|


G|---------------------------------|---------------------------------|---------------------------------|
D|-----12------9-------9-------11--|-----11----------------------12--|-----12------9-------9-------11--|
A|-10------7-------7-------9-------|-9-----------9-------9---10------|-10------7-------7-------9-------|
E|---------------------------------|---------7-------7---------------|---------------------------------|


G|------------------------------|---------------------------------|---------------------------------|
D|-----11------11---------------|-----11----------------------12--|-----12------9-------9-------11--|
A|-9-------9------------9-------|-------------9-------9---10------|-10------7-------7-------9-------|
E|------------------------------|---------7-------7---------------|---------------------------------|


G|---------------------------------|---------------------------------|---------------------------------|
D|-----11----------------------12--|-----12------9-------9-------11--|-----11--------------------------|
A|-9-----------9-------9---10------|-10------7-------7-------9-------|-9-----------9-------9-------9---|
E|---------7-------7---------------|---------------------------------|---------7-------7-------7-------|


G|---------------------------------|---------------------------------|---------------------------------|
D|---------------------------------|---------------------------------|---------------------------------|
A|-----9-------9-------7-------5---|-----4-------7-------7-------7---|-----7-------7-------7-------7---|
E|-7-------7-------5-------3-------|-2-------0-------0-------0-------|-0-------0-------0-------0-------|


G|---------------------------------|---------------------------------|---------------------------------|
D|---------------------------------|---------------------------------|---------------------------------|
A|-----7-------7-------7-------7---|-----7-------6-------6-------6---|-----6-------7-------7-------7---|
E|-0-------8-------8-------8-------|-8-------7-------7-------7-------|-7-------0-------0-------0-------|


G|---------------------------------|---------------------------------|---------------------------------|
D|---------------------------------|---------------------------------|---------------------------------|
A|-----7-------7-------7-------7---|-----7-------7-------7-------7---|-----7-------7-------7-------5---|
E|-0-------0-------0-------0-------|-0-------5-------5-------5-------|-5-------5-------5-------3-------|


G|---------------------------------|---------------------------------|---------------------------------|
D|---------------------------------|---------------------------------|---------------------------------|
A|-----4-------7-------7-------7---|-----7-------7-------7-------7---|-----7-------7-------7-------7---|
E|-2-------0-------0-------0-------|-0-------0-------0-------0-------|-0-------0-------0-------0-------|


G|---------------------------------|---------------------------------|---------------------------------|
D|---------------------------------|---------------------------------|---------------------------------|
A|-----7-------7-------7-------7---|-----7-------7-------7-------7---|-----7-------7-------7-------6---|
E|-0-------0-------0-------0-------|-0-------0-------0-------8-------|-8-------8-------8-------7-------|


G|---------------------------------|---------------------------------|---------------------------------|
D|---------------------------------|---------------------------------|---------------------------------|
A|-----6-------6-------6-------7---|-----7-------7-------7-------7---|-----7-------7-------7-------7---|
E|-7-------7-------7-------0-------|-0-------0-------0-------0-------|-0-------0-------0-------5-------|


G|---------------------------------|---------------------------------|---------------------------------|
D|---------------------------------|---------------------------------|---------------------------------|
A|-----7-------7-------7-------7---|-----7-------5-------4-------7---|-----7-------7-------7-------7---|
E|-5-------5-------5-------5-------|-5-------3-------2-------0-------|-0-------0-------0-------0-------|


G|---------------------------------|---------------------------------|---------------------------------|
D|---------------------------------|---------------------------------|---------------------------------|
A|-----7-------7-------7-------7---|-----7-------7-------7-------7---|-----7-------7-------7-------9---|
E|-0-------0-------0-------0-------|-0-------0-------0-------8-------|-8-------5-------5-------7-------|


G|---------------------------------|---------------------------------|---------------------------------|
D|---------------------------------|---------------------------------|---------------------------------|
A|-----9-------7-------7-------7---|-----7-------7-------7-------9---|-----9-------7-------7-------7---|
E|-7-------0-------0-------8-------|-8-------5-------5-------7-------|-7-------0-------0-------8-------|


G|---------------------------------|---------------------------------|---------------------------------|
D|---------------------------------|---------------------------------|---------------------------------|
A|-----7-------7-------7-------9---|-----9-------7-------7-------7---|-----7-------7-------7-------9---|
E|-8-------5-------5-------7-------|-7-------0-------0-------8-------|-8-------5-------5-------7-------|


G|---------------------------------|---------------------------------|---------------------------------|
D|---------------------------------|---------------------------------|---------------------------------|
A|-----9-------7-------7-------7---|-----7-------7-------7-------9---|-----9-------7-------7-------7---|
E|-7-------0-------0-------8-------|-8-------5-------5-------7-------|-7-------0-------0-------8-------|


G|---------------------------------|---------------------------------|---------------------------------|
D|---------------------------------|-----------------------------12--|-----12------9-------9-------11--|
A|-----7-------7-------7-------9---|-----9-------9-------9---10------|-10------7-------7-------9-------|
E|-8-------5-------5-------7-------|-7-------7-------7---------------|---------------------------------|


G|---------------------------------|---------------------------------|---------------------------------|
D|-----11----------------------12--|-----12------9-------9-------11--|-----11----------------------12--|
A|-9-----------9-------9---10------|-10------7-------7-------9-------|-9-----------9-------9---10------|
E|---------7-------7---------------|---------------------------------|---------7-------7---------------|


G|---------------------------------|---------------------------------|---------------------------------|
D|-----12------9-------9-------11--|-----11----------------------12--|-----12------9-------9-------11--|
A|-10------7-------7-------9-------|-9-----------9-------9---10------|-10------7-------7-------9-------|
E|---------------------------------|---------7-------7---------------|---------------------------------|


G|----------------|-----------------|
D|-----11---------|-----------------|
A|-9--------------|-----------------|
E|---------7------|------7----------|