Menu:

 

Search:

 

nuno bettencourt - spaceman:

 



Title: Spaceman
Artist: 
Album: Population 1
Author: Nuno Bettencourt


Track 1: Solo Guitar

D#|---------------------------------------|-----------------------------------------|
A#|---------------------------------------|-----------------------------------------|
F#|---------------------------------------|-----------------------------------------|
C#|-10--10--10--10--10-10-10--12--14--10--|-10--10--10--10--10-10-10--12--14--11-11-|
G#|---------------------------------------|-----------------------------------------|
D#|---------------------------------------|-----------------------------------------|


D#|---------------------------------------|-----------------------------------------|
A#|---------------------------------------|-----------------------------------------|
F#|---------------------------------------|-----------------------------------------|
C#|-11-11-11-11-11--11-11-11--12--14--10--|-10--10--10--10--10-9---9----------------|
G#|---------------------------------------|---------------------------12--10--12-12-|
D#|---------------------------------------|-----------------------------------------|


D#|-------------------------------------|---------------------------------------|---------------------------------------|
A#|-------------------------------------|---------------------------------------|---------------------------------------|
F#|-------------------------------------|---------------------------------------|---------------------------------------|
C#|-----10--10-10-10-10-10--12--14--10--|-10--10-10-10--10-10-10--12--14--11-11-|-11-11-11-11-11--11-11-11--12--14--10--|
G#|-12----------------------------------|---------------------------------------|---------------------------------------|
D#|-------------------------------------|---------------------------------------|---------------------------------------|


D#|----------------------------------|-------------|--------|--------|--------|--------|
A#|----------------------------------|-------------|--------|--------|--------|--------|
F#|----------------------------------|-------------|--------|--------|--------|--------|
C#|-10---10--10-9---9----------------|-------------|--------|--------|--------|--------|
G#|--------------------12--10--12-12-|-12----------|--------|--------|--------|--------|
D#|----------------------------------|-------------|--------|--------|--------|--------|


D#|--------|--------|--------|-----------------------------------|-----------------------------------------|
A#|--------|--------|--------|-----------------------------------|-----------------------------------------|
F#|--------|--------|--------|-----------------------------------|-----------------------------------------|
C#|--------|--------|--------|-10--10--10--10-10-10--12--14--10--|-10--10--10--10--10-10-10--12--14--11-11-|
G#|--------|--------|--------|-----------------------------------|-----------------------------------------|
D#|--------|--------|--------|-----------------------------------|-----------------------------------------|


D#|---------------------------------------|-----------------------------------------|
A#|---------------------------------------|-----------------------------------------|
F#|---------------------------------------|-----------------------------------------|
C#|-11-11-11-11-11--11-11-11--12--14--10--|-10--10--10--10--10-9---9----------------|
G#|---------------------------------------|---------------------------12--10--12-12-|
D#|---------------------------------------|-----------------------------------------|


D#|-------------|--------|--------|--------|--------|--------|--------|--------|-----------------------------------|
A#|-------------|--------|--------|--------|--------|--------|--------|--------|-----------------------------------|
F#|-------------|--------|--------|--------|--------|--------|--------|--------|-----------------------------------|
C#|-------------|--------|--------|--------|--------|--------|--------|--------|-10--10--10--10-10-10--12--14--10--|
G#|-12----------|--------|--------|--------|--------|--------|--------|--------|-----------------------------------|
D#|-------------|--------|--------|--------|--------|--------|--------|--------|-----------------------------------|


D#|-----------------------------------------|---------------------------------------|
A#|-----------------------------------------|---------------------------------------|
F#|-----------------------------------------|---------------------------------------|
C#|-10--10--10--10--10-10-10--12--14--11-11-|-11-11-11-11-11--11-11-11--12--14--10--|
G#|-----------------------------------------|---------------------------------------|
D#|-----------------------------------------|---------------------------------------|


D#|---------------------------------------|-------------------------------------|---------------------------------------|
A#|---------------------------------------|-------------------------------------|---------------------------------------|
F#|---------------------------------------|-------------------------------------|---------------------------------------|
C#|-10--10--10--10--10-10-----------------|-----10--10-10-10-10-10--12--14--10--|-10--10-10-10--10-10-10--12--14--11-11-|
G#|-------------------------12--12--12-10-|-12----------------------------------|---------------------------------------|
D#|---------------------------------------|-------------------------------------|---------------------------------------|


D#|---------------------------------------|-----------------------------------------|
A#|---------------------------------------|-----------------------------------------|
F#|---------------------------------------|-----------------------------------------|
C#|-11-11-11-11-11--11-11-11--12--14--10--|-10--10--10--10--10-10--10---------------|
G#|---------------------------------------|---------------------------10--10--9--7--|
D#|---------------------------------------|-----------------------------------------|


D#|------------------------|--------|--------|--------|--------|--------|--------|
A#|------------------------|--------|--------|--------|--------|--------|--------|
F#|------------------------|--------|--------|--------|--------|--------|--------|
C#|------------------------|--------|--------|--------|--------|--------|--------|
G#|-1210121012--12---------|--------|--------|--------|--------|--------|--------|
D#|------------------------|--------|--------|--------|--------|--------|--------|


D#|--------|-----------------------------------|-----------------------------------------|
A#|--------|-----------------------------------|-----------------------------------------|
F#|--------|-----------------------------------|-----------------------------------------|
C#|--------|-10--10--10--10-10-10--12--14--10--|-10--10--10--10--10-10-10--12--14--11-11-|
G#|--------|-----------------------------------|-----------------------------------------|
D#|--------|-----------------------------------|-----------------------------------------|


D#|---------------------------------------|-----------------------------------------|
A#|---------------------------------------|-----------------------------------------|
F#|---------------------------------------|-----------------------------------------|
C#|-11-11-11-11-11--11-11-11--12--14--10--|-10--10--10--10--10-9---9----------------|
G#|---------------------------------------|---------------------------12--10--12-12-|
D#|---------------------------------------|-----------------------------------------|


D#|-------------|--------|--------|--------|--------|--------|--------|--------|-----------------------------------|
A#|-------------|--------|--------|--------|--------|--------|--------|--------|-----------------------------------|
F#|-------------|--------|--------|--------|--------|--------|--------|--------|-----------------------------------|
C#|-------------|--------|--------|--------|--------|--------|--------|--------|-10--10--10--10-10-10--12--14--10--|
G#|-12----------|--------|--------|--------|--------|--------|--------|--------|-----------------------------------|
D#|-------------|--------|--------|--------|--------|--------|--------|--------|-----------------------------------|


D#|-----------------------------------------|---------------------------------------|
A#|-----------------------------------------|---------------------------------------|
F#|-----------------------------------------|---------------------------------------|
C#|-10--10--10--10--10-10-10--12--14--11-11-|-11-11-11-11-11--11-11-11--12--14--10--|
G#|-----------------------------------------|---------------------------------------|
D#|-----------------------------------------|---------------------------------------|


D#|-----------------------------------------|---------------------------------------|
A#|-----------------------------------------|---------------------------------------|
F#|-----------------------------------------|---------------------------------------|
C#|-10--10--10--10--10-10--10---------------|-------------10--10-10-10--12--14--10--|
G#|---------------------------10--10--9--7--|-1210121012----------------------------|
D#|-----------------------------------------|---------------------------------------|


D#|-----------------------------------------|---------------------------------------|
A#|-----------------------------------------|---------------------------------------|
F#|-----------------------------------------|---------------------------------------|
C#|-10--10--10--10--10-10-10--12--14--11-11-|-11-11-11-11-11--11-11-11--12--14--10--|
G#|-----------------------------------------|---------------------------------------|
D#|-----------------------------------------|---------------------------------------|


D#|---------------------------------------|--------|--------|--------|--------|-----------------------|
A#|---------------------------------------|--------|--------|--------|--------|---------------14------|
F#|---------------------------------------|--------|--------|--------|--------|-------13--14------13--|
C#|-10--10--10--10--10-10-----------------|--------|--------|--------|--------|-----------------------|
G#|-------------------------10--10--9--7--|--------|--------|--------|--------|-----------------------|
D#|---------------------------------------|--------|--------|--------|--------|-----------------------|


D#|--------------------------------|------------------------|-------------|---------------------------|
A#|--------------------------------|----------12------------|-------------|-----10----10--10--10--10--|
F#|-13--14-------14-14-13--14--13--|-13---13-------14-------|-------------|-----7---------7---7---7---|
C#|--------------------------------|--------------------14--|-14----------|---------------------------|
G#|--------------------------------|------------------------|-------------|---------------------------|
D#|--------------------------------|------------------------|-------------|---------------------------|


D#|----------------------------------|-----------------------------------------------------------|
A#|--------------10------------10----|-10-10----------7--7--5--5---------------------------------|
F#|-7----7----7--8--7---7---7--8--7--|-9--9--8--7--5--7--7--5--5--7--5-----7--5--5---------------|
C#|----------------------------------|----------------------------------7-----------7--5--7--5-7-|
G#|----------------------------------|-----------------------------------------------------------|
D#|----------------------------------|-----------------------------------------------------------|


D#|-------------------------5--------------------------------------|------------------------------------------------|
A#|-------------------5--------8--5--------------------------------|---------14-15-14-15-15-15-14-15-13----15-13----|
F#|----7--------5--7-----8-----------5-7--6-7----------------------|------------------------------------14-------14-|
C#|-7--7--5--7---------------------------------7-5-7-5-7-107-5-7-10|-7----------------------------------------------|
G#|----------------------------------------------------------------|------------------------------------------------|
D#|----------------------------------------------------------------|------------------------------------------------|


D#|--------------------------------------------------------------|-----------------------------------------------------------------|
A#|--------------------------------------------------------------|-----------------------------------------------------------------|
F#|-12----12-----------------------------------------------------|-----------------------------------------------------------------|
C#|---1412--1412-1210--10121210--10121210------------------------|-----------------------------------------------------------------|
G#|------------------12--------12--------120-3-5--5--5-3-5-3-0-3-|-5-3-0-3-5-6-5-3-0-3-5-3-0-3-0-5-7-5-3---3-0-----3-0-3-5-6-5-3-0-|
D#|--------------------------------------------------------------|---------------------------------------0-----3-0-----------------|


D#|------------------------------------------------5----8-----8--9--10|-10---10-10--10--10--10-10--10-108---8---|
A#|-------------------------------------------5--8----5----5----------|-----------------------------------------|
F#|-----------------------------5----7--5--7--------------------------|-----------------------------------------|
C#|---------------5----7--5--7-----7----------------------------------|-----------------------------------------|
G#|-5-6-5-3-5--7-----7------------------------------------------------|-----------------------------------------|
D#|-------------------------------------------------------------------|-----------------------------------------|


D#|-------------------------------------------------|--------------------------------------------------|
A#|-10----------------------------------------------|--------------------------------------------------|
F#|-9-----------------------------------------------|--------------------17-21----21----21-------------|
C#|-------------------------------------------------|-----------19-------------21----19----18-19-21-18-|
G#|----------12-16-15-------15-14----------15-------|--------17----17-19-------------------------------|
D#|-----1215----------16-17-------15-14-15----14-15-|-15--15-------------------------------------------|


D#|-------------------------------------------------------|-------------------------------|
A#|-------------------------------------------------------|-------------------------------|
F#|----------------------------------------------------17-|-19---17--17--17-17-17---17----|
C#|-19-------------------------------------17---191719----|------16--16--16-16-16---16----|
G#|----18-19-------19----18-17----15-17-19----19----------|-------------------------------|
D#|----------16-17----19-------18-------------------------|-------------------------------|


D#|-------------------------------------|------------------------------------------------------------------|
A#|-------------------------------------|------------------------------------------------------------------|
F#|-17--17--17-----17----17-17--17--17--|-14-15-16-1415141314131415141314131213121112111213121112111011109-|
C#|-16--16-----16-----16----16--16--16--|------------------------------------------------------------------|
G#|-------------------------------------|------------------------------------------------------------------|
D#|-------------------------------------|------------------------------------------------------------------|


D#|-------------------------------------------------------|-------------------------------------------|
A#|-------------------------------------------------------|-----14-14-14--14-14-14-14-14--14-14-14-14-|
F#|-109-1011109--9-8-9-8--107-9-7-------------5--5--------|-----12-12-12--12-12-12-12-12--12-12-12-12-|
C#|-------------------------------5--5--7--7--5--5--7--10-|-7---11-11-11--11-11-11-11-11--11-11-11-11-|
G#|-------------------------------5--5--7--7--------------|-------------------------------------------|
D#|-------------------------------------------------------|-------------------------------------------|


D#|-----------------------------------------|-----------------------------------------|
A#|-13-13-13--13--13-13-12-15-15--15--15-15-|-15-14-14--14--14-14----14-14--14--14-14-|
F#|-12-12-12--12--12-12-12-14-14--14--14-14-|-14-12-12--12--12-12----12-12--12--12-12-|
C#|-10-10-10--10--10-10-10-12-12--12--12-12-|-12-11-11--11--11-11-14-11-11--11--11-11-|
G#|-----------------------------------------|-----------------------------------------|
D#|-----------------------------------------|-----------------------------------------|


D#|-----------------------------------------|-------------------------------------------|
A#|----12--13-13--13-13-12-15-15--15--15-15-|-12-14-14--14--14-14-14-14-14--14-14-14-14-|
F#|----12--12-12--12-12-12-14-14--14--14-14-|-12-12-12--12--12-12-12-12-12--12-12-12-12-|
C#|-14--------10--10-10-10-12-12--12--12-12-|-12-11-11--11--11-11-11-11-11--11-11-11-11-|
G#|-----------------------------------------|-------------------------------------------|
D#|-----------------------------------------|-------------------------------------------|


D#|-----------------------------------------|-----------------------------------------|
A#|-13-13-13--13--13-13-12-15-15--15--15-15-|-15-14-14--14--14-14----14-14--14--14-14-|
F#|-12-12-12--12--12-12-12-14-14--14--14-14-|-14-12-12--12--12-12----12-12--12--12-12-|
C#|-10-10-10--10--10-10-10-12-12--12--12-12-|-12-11-11--11--11-11-14-11-11--11--11-11-|
G#|-----------------------------------------|-----------------------------------------|
D#|-----------------------------------------|-----------------------------------------|


D#|---------------------------------------------|-----------------------5---|-5---------------------5---|
A#|----12-12-12-12-12-13-13-12-15-15--15--15-15-|----------8----------------|-----8-------------8-------|
F#|----12-12-12-12-12-12-12-12-14-14--14--14-14-|------5--------5-----------|---------------5-----------|
C#|-14----------------10-10-10-12-12--12--12-12-|-------------------7-------|---------------------------|
G#|---------------------------------------------|---------------------------|---------------------------|
D#|---------------------------------------------|---------------------------|---------------------------|


D#|-5-----------7------------8---|-8-----------7-------------|-----------------------5---|
A#|-----8------------5-----------|-----5------------5--------|----------8----------------|
F#|----------------------5-------|---------5------------5----|------5--------5-----------|
C#|---------7--------------------|---------------------------|-------------------7-------|
G#|------------------------------|---------------------------|---------------------------|
D#|------------------------------|---------------------------|---------------------------|


D#|-5---------------------5---|-5-----------7------------8---|-8-----------7------------------|
A#|-----8-------------8-------|-----8------------5-----------|-----5------------5-------------|
F#|---------------5-----------|----------------------5-------|---------5------------5--7--5---|
C#|---------------------------|---------7--------------------|--------------------------------|
G#|---------------------------|------------------------------|--------------------------------|
D#|---------------------------|------------------------------|--------------------------------|


D#|-----------------|
A#|-----------------|
F#|-----------------|
C#|-7---------------|
G#|-----------------|
D#|-----------------|





Track 2: Rhytm Guitar

D#|------------------------------------|------------------------------------|------5---5--5----------------------|
A#|------------------------------------|------------------------------------|------5---5--5----------------------|
F#|-2----2---2--2--2--2--2---2---2--2--|-5----5---5--5--5--5--7---7---7--7--|-2----2---2-----2--2--2---2---2--2--|
C#|-2----2---2--2--2--2--2---2---2--2--|-5----5---5--5--5--5--7---7---7--7--|-2----2---2-----2--2--2---2---2--2--|
G#|-0----0---0--0--0--0--0---0---0--0--|-3----3---3--3--3--3--5---5---5--5--|-0----0---0-----0--0--0---0---0--0--|
D#|------------------------------------|------------------------------------|------------------------------------|


D#|------------------------------------|------------------------------------|------------------------------------|
A#|------------------------------------|------------------------------------|------------------------------------|
F#|-5----5---5--5--5--5----------------|-2----2---2--2--2--2--2---2---2--2--|-5----5---5--5--5--5--7---7---7--7--|
C#|-5----5---5--5--5--5--5---5---5--5--|-2----2---2--2--2--2--2---2---2--2--|-5----5---5--5--5--5--7---7---7--7--|
G#|-3----3---3--3--3--3--5---5---5--5--|-0----0---0--0--0--0--0---0---0--0--|-3----3---3--3--3--3--5---5---5--5--|
D#|----------------------3---3---3--3--|------------------------------------|------------------------------------|


D#|------5---5--5----------------------|------------------------------------|------------------------------------|
A#|------5---5--5----------------------|------------------------------------|------------------------------------|
F#|-2----2---2-----2--2--2---2---2--2--|-5----5---5--5--5--5----------------|-2----2---2--2--2--2--2---2---2--2--|
C#|-2----2---2-----2--2--2---2---2--2--|-5----5---5--5--5--5--5---5---5--5--|-2----2---2--2--2--2--2---2---2--2--|
G#|-0----0---0-----0--0--0---0---0--0--|-3----3---3--3--3--3--5---5---5--5--|-0----0---0--0--0--0--0---0---0--0--|
D#|------------------------------------|----------------------3---3---3--3--|------------------------------------|


D#|------------------------------------|------5---5--5----------------------|------------------------------------|
A#|------------------------------------|------5---5--5----------------------|------------------------------------|
F#|-5----5---5--5--5--5--7---7---7--7--|-2----2---2-----2--2--2---2---2--2--|-5----5---5--5--5--5----------------|
C#|-5----5---5--5--5--5--7---7---7--7--|-2----2---2-----2--2--2---2---2--2--|-5----5---5--5--5--5--5---5---5--5--|
G#|-3----3---3--3--3--3--5---5---5--5--|-0----0---0-----0--0--0---0---0--0--|-3----3---3--3--3--3--5---5---5--5--|
D#|------------------------------------|------------------------------------|----------------------3---3---3--3--|


D#|------------------------------------|------------------------------------|------5---5--5----------------------|
A#|------------------------------------|------------------------------------|------5---5--5----------------------|
F#|-2----2---2--2--2--2--2---2---2--2--|-5----5---5--5--5--5--7---7---7--7--|-2----2---2-----2--2--2---2---2--2--|
C#|-2----2---2--2--2--2--2---2---2--2--|-5----5---5--5--5--5--7---7---7--7--|-2----2---2-----2--2--2---2---2--2--|
G#|-0----0---0--0--0--0--0---0---0--0--|-3----3---3--3--3--3--5---5---5--5--|-0----0---0-----0--0--0---0---0--0--|
D#|------------------------------------|------------------------------------|------------------------------------|


D#|------------------------------------|------------------------------------|------------------------------------|
A#|------------------------------------|------------------------------------|------------------------------------|
F#|-5----5---5--5--5--5----------------|-2----2---2--2--2--2--2---2---2--2--|-5----5---5--5--5--5--7---7---7--7--|
C#|-5----5---5--5--5--5--5---5---5--5--|-2----2---2--2--2--2--2---2---2--2--|-5----5---5--5--5--5--7---7---7--7--|
G#|-3----3---3--3--3--3--5---5---5--5--|-0----0---0--0--0--0--0---0---0--0--|-3----3---3--3--3--3--5---5---5--5--|
D#|----------------------3---3---3--3--|------------------------------------|------------------------------------|


D#|------5---5--5----------------------|------------------------------------|------------------------------------|
A#|------5---5--5----------------------|------------------------------------|------------------------------------|
F#|-2----2---2-----2--2--2---2---2--2--|-5----5---5--5--5--5----------------|-2----2---2--2--2--2--2---2---2--2--|
C#|-2----2---2-----2--2--2---2---2--2--|-5----5---5--5--5--5--5---5---5--5--|-2----2---2--2--2--2--2---2---2--2--|
G#|-0----0---0-----0--0--0---0---0--0--|-3----3---3--3--3--3--5---5---5--5--|-0----0---0--0--0--0--0---0---0--0--|
D#|------------------------------------|----------------------3---3---3--3--|------------------------------------|


D#|------------------------------------|------5---5--5----------------------|------------------------------------|
A#|------------------------------------|------5---5--5----------------------|------------------------------------|
F#|-5----5---5--5--5--5--7---7---7--7--|-2----2---2-----2--2--2---2---2--2--|-5----5---5--5--5--5----------------|
C#|-5----5---5--5--5--5--7---7---7--7--|-2----2---2-----2--2--2---2---2--2--|-5----5---5--5--5--5--5---5---5--5--|
G#|-3----3---3--3--3--3--5---5---5--5--|-0----0---0-----0--0--0---0---0--0--|-3----3---3--3--3--3--5---5---5--5--|
D#|------------------------------------|------------------------------------|----------------------3---3---3--3--|


D#|------------------------------------|------------------------------------|------5---5--5----------------------|
A#|------------------------------------|------------------------------------|------5---5--5----------------------|
F#|-2----2---2--2--2--2--2---2---2--2--|-5----5---5--5--5--5--7---7---7--7--|-2----2---2-----2--2--2---2---2--2--|
C#|-2----2---2--2--2--2--2---2---2--2--|-5----5---5--5--5--5--7---7---7--7--|-2----2---2-----2--2--2---2---2--2--|
G#|-0----0---0--0--0--0--0---0---0--0--|-3----3---3--3--3--3--5---5---5--5--|-0----0---0-----0--0--0---0---0--0--|
D#|------------------------------------|------------------------------------|------------------------------------|


D#|--------------------|-0----0---0--0----------------------|------------------------------------|
A#|--------------------|-1----1---1--1----------------------|------------------------------------|
F#|--------------------|-2----2---2--2--2--2--2---2---2--2--|-5----5---5--5--5--5--7---7---7--7--|
C#|-----------19---0---|-2----2---2--2--2--2--2---2---2--2--|-5----5---5--5--5--5--7---7---7--7--|
G#|--------------------|-0----0---0--0--0--0--0---0---0--0--|-3----3---3--3--3--3--5---5---5--5--|
D#|--------------------|------------------------------------|------------------------------------|


D#|------5---5--5----------------------|------------------------------------|------------------------------------|
A#|------5---5--5----------------------|------------------------------------|------------------------------------|
F#|-2----2---2-----2--2--2---2---2--2--|-5----5---5--5--5--5----------------|-2----2---2--2--2--2--2---2---2--2--|
C#|-2----2---2-----2--2--2---2---2--2--|-5----5---5--5--5--5--5---5---5--5--|-2----2---2--2--2--2--2---2---2--2--|
G#|-0----0---0-----0--0--0---0---0--0--|-3----3---3--3--3--3--5---5---5--5--|-0----0---0--0--0--0--0---0---0--0--|
D#|------------------------------------|----------------------3---3---3--3--|------------------------------------|


D#|------------------------------------|------5---5--5----------------------|------------------------------------|
A#|------------------------------------|------5---5--5----------------------|------------------------------------|
F#|-5----5---5--5--5--5--7---7---7--7--|-2----2---2-----2--2--2---2---2--2--|-5----5---5--5--5--5----------------|
C#|-5----5---5--5--5--5--7---7---7--7--|-2----2---2-----2--2--2---2---2--2--|-5----5---5--5--5--5--5---5---5--5--|
G#|-3----3---3--3--3--3--5---5---5--5--|-0----0---0-----0--0--0---0---0--0--|-3----3---3--3--3--3--5---5---5--5--|
D#|------------------------------------|------------------------------------|----------------------3---3---3--3--|


D#|------------------------------------|------------------------------------|------5---5--5----------------------|
A#|------------------------------------|------------------------------------|------5---5--5----------------------|
F#|-2----2---2--2--2--2--2---2---2--2--|-5----5---5--5--5--5--7---7---7--7--|-2----2---2-----2--2--2---2---2--2--|
C#|-2----2---2--2--2--2--2---2---2--2--|-5----5---5--5--5--5--7---7---7--7--|-2----2---2-----2--2--2---2---2--2--|
G#|-0----0---0--0--0--0--0---0---0--0--|-3----3---3--3--3--3--5---5---5--5--|-0----0---0-----0--0--0---0---0--0--|
D#|------------------------------------|------------------------------------|------------------------------------|


D#|----------------------------------|-------------------5---5--5----------------------|
A#|----------------------------------|-------------------5---5--5----------------------|
F#|-5----5---5--5--5--5--------------|-------------------2---2-----2--2--2---2---2--2--|
C#|-5----5---5--5--5--5--5---5---6---|-7--6--5--4--3--2--2---2-----2--2--2---2---2--2--|
G#|-3----3---3--3--3--3--5---5---6---|-7--6--5--4--3--2--0---0-----0--0--0---0---0--0--|
D#|----------------------3---3---4---|-5--4--3--2--1--0--------------------------------|


D#|------------------------------------|------------------------------------|----------------------------------|
A#|------------------------------------|------------------------------------|----------------------------------|
F#|-5----5---5--5--5--5--7---7---7--7--|-2----2---2--2--2--2--2---2---2--2--|-5----5---5--5--5--5--------------|
C#|-5----5---5--5--5--5--7---7---7--7--|-2----2---2--2--2--2--2---2---2--2--|-5----5---5--5--5--5--5---5---6---|
G#|-3----3---3--3--3--3--5---5---5--5--|-0----0---0--0--0--0--0---0---0--0--|-3----3---3--3--3--3--5---5---6---|
D#|------------------------------------|------------------------------------|----------------------3---3---4---|


D#|------------------------------------|------------------------------------|------5---5--5----------------------|
A#|------------------------------------|------------------------------------|------5---5--5----------------------|
F#|-2----2---2--2--2--2--2---2---2--2--|-5----5---5--5--5--5--7---7---7--7--|-2----2---2-----2--2--2---2---2--2--|
C#|-2----2---2--2--2--2--2---2---2--2--|-5----5---5--5--5--5--7---7---7--7--|-2----2---2-----2--2--2---2---2--2--|
G#|-0----0---0--0--0--0--0---0---0--0--|-3----3---3--3--3--3--5---5---5--5--|-0----0---0-----0--0--0---0---0--0--|
D#|------------------------------------|------------------------------------|------------------------------------|


D#|------------------------------------|--------|-----------------|--------|-----------------|
A#|------------------------------------|--------|-----------------|--------|-----------------|
F#|-5----5---5--5--5--5----------------|-2------|-5-----5----7----|-2------|-5-----5---------|
C#|-5----5---5--5--5--5--5---5---5--5--|-2------|-5-----5----7----|-2------|-5-----5----5----|
G#|-3----3---3--3--3--3--5---5---5--5--|--------|-----------------|--------|------------5----|
D#|----------------------3---3---3--3--|--------|-----------------|--------|-----------------|


D#|-----------------|-----------------|--------|--------|------------------------------------|
A#|-----------------|-----------------|--------|--------|------------------------------------|
F#|-----2-----2-----|-5-----5----7----|--------|--------|-2----2---2--2--2--2--2---2---2--2--|
C#|-----2-----2-----|-5-----5----7----|--------|--------|-2----2---2--2--2--2--2---2---2--2--|
G#|-----------------|-----------------|--------|--------|-0----0---0--0--0--0--0---0---0--0--|
D#|-----------------|-----------------|--------|--------|------------------------------------|


D#|------------------------------------|------5---5--5----------------------|------------------------------------|
A#|------------------------------------|------5---5--5----------------------|------------------------------------|
F#|-5----5---5--5--5--5--7---7---7--7--|-2----2---2-----2--2--2---2---2--2--|-5----5---5--5--5--5----------------|
C#|-5----5---5--5--5--5--7---7---7--7--|-2----2---2-----2--2--2---2---2--2--|-5----5---5--5--5--5--5---5---5--5--|
G#|-3----3---3--3--3--3--5---5---5--5--|-0----0---0-----0--0--0---0---0--0--|-3----3---3--3--3--3--5---5---5--5--|
D#|------------------------------------|------------------------------------|----------------------3---3---3--3--|


D#|------------------------------------|------------------------------------|------5---5--5----------------------|
A#|------------------------------------|------------------------------------|------5---5--5----------------------|
F#|-2----2---2--2--2--2--2---2---2--2--|-5----5---5--5--5--5--7---7---7--7--|-2----2---2-----2--2--2---2---2--2--|
C#|-2----2---2--2--2--2--2---2---2--2--|-5----5---5--5--5--5--7---7---7--7--|-2----2---2-----2--2--2---2---2--2--|
G#|-0----0---0--0--0--0--0---0---0--0--|-3----3---3--3--3--3--5---5---5--5--|-0----0---0-----0--0--0---0---0--0--|
D#|------------------------------------|------------------------------------|------------------------------------|


D#|------------------------------------|----------------------------------|----------------------------------|
A#|------------------------------------|----------------------------------|----------------------------------|
F#|-5----5---5--5--5--5----------------|----------------------------------|----------------------------------|
C#|-5----5---5--5--5--5--5---5---5--5--|-4----4---4--4--4--4--4---4---4---|-2----2---2--2--2--2--2---2---2---|
G#|-3----3---3--3--3--3--5---5---5--5--|-4----4---4--4--4--4--4---4---4---|-2----2---2--2--2--2--2---2---2---|
D#|----------------------3---3---3--3--|-2----2---2--2--2--2--2---2---2---|-0----0---0--0--0--0--0---0---0---|


D#|----------------------------------|----------------------------------|----------------------------------|
A#|----------------------------------|----------------------------------|----------------------------------|
F#|----------------------------------|----------------------------------|----------------------------------|
C#|-5----5---5--5--5--5--5---5---5---|-0----0---0--0--0--0--0---0---0---|-4----4---4--4--4--4--4---4---4---|
G#|-5----5---5--5--5--5--5---5---5---|-0----0---0--0--0--0--0---0---0---|-4----4---4--4--4--4--4---4---4---|
D#|-3----3---3--3--3--3--3---3---3---|----------------------------------|-2----2---2--2--2--2--2---2---2---|


D#|----------------------------------|----------------------------------|----------------------------------------|
A#|----------------------------------|----------------------------------|----------------------------------------|
F#|----------------------------------|----------------------------------|----------------------------------------|
C#|-2----2---2--2--2--2--2---2---2---|-5----5---5--5--5--5--5---5---5---|-0----0---0--0--0--0--0--0--0--0--0--0--|
G#|-2----2---2--2--2--2--2---2---2---|-5----5---5--5--5--5--5---5---5---|-0----0---0--0--3--5--5--3--5--3--3--5--|
D#|-0----0---0--0--0--0--0---0---0---|-3----3---3--3--3--3--3---3---3---|----------------------------------------|


D#|------------------------------------|------------------------------------|------5---5--5----------------------|
A#|------------------------------------|------------------------------------|------5---5--5----------------------|
F#|------2---2--2--2--2--2---2---2--2--|-5----5---5--5--5--5--7---7---7--7--|-2----2---2-----2--2--2---2---2--2--|
C#|------2---2--2--2--2--2---2---2--2--|-5----5---5--5--5--5--7---7---7--7--|-2----2---2-----2--2--2---2---2--2--|
G#|------0---0--0--0--0--0---0---0--0--|-3----3---3--3--3--3--5---5---5--5--|-0----0---0-----0--0--0---0---0--0--|
D#|-5----------------------------------|------------------------------------|------------------------------------|


D#|------------------------------------|------------------------------------|------------------------------------|
A#|------------------------------------|------------------------------------|------------------------------------|
F#|-5----5---5--5--5--5----------------|-2----2---2--2--2--2--2---2---2--2--|-5----5---5--5--5--5--7---7---7--7--|
C#|-5----5---5--5--5--5--5---5---5--5--|-2----2---2--2--2--2--2---2---2--2--|-5----5---5--5--5--5--7---7---7--7--|
G#|-3----3---3--3--3--3--5---5---5--5--|-0----0---0--0--0--0--0---0---0--0--|-3----3---3--3--3--3--5---5---5--5--|
D#|----------------------3---3---3--3--|------------------------------------|------------------------------------|


D#|------5---5--5----------------------|------------------------------------|------------------------------------|
A#|------5---5--5----------------------|------------------------------------|------------------------------------|
F#|-2----2---2-----2--2--2---2---2--2--|-5----5---5--5--5--5----------------|-2----2---2--2--2--2--2---2---2--2--|
C#|-2----2---2-----2--2--2---2---2--2--|-5----5---5--5--5--5--5---5---5--5--|-2----2---2--2--2--2--2---2---2--2--|
G#|-0----0---0-----0--0--0---0---0--0--|-3----3---3--3--3--3--5---5---5--5--|-0----0---0--0--0--0--0---0---0--0--|
D#|------------------------------------|----------------------3---3---3--3--|------------------------------------|


D#|------------------------------------|------5---5--5----------------------|------------------------------------|
A#|------------------------------------|------5---5--5----------------------|------------------------------------|
F#|-5----5---5--5--5--5--7---7---7--7--|-2----2---2-----2--2--2---2---2--2--|-5----5---5--5--5--5----------------|
C#|-5----5---5--5--5--5--7---7---7--7--|-2----2---2-----2--2--2---2---2--2--|-5----5---5--5--5--5--5---5---5--5--|
G#|-3----3---3--3--3--3--5---5---5--5--|-0----0---0-----0--0--0---0---0--0--|-3----3---3--3--3--3--5---5---5--5--|
D#|------------------------------------|------------------------------------|----------------------3---3---3--3--|


D#|------------------------------------|------------------------------------|------5---5--5----------------------|
A#|------------------------------------|------------------------------------|------5---5--5----------------------|
F#|-2----2---2--2--2--2--2---2---2--2--|-5----5---5--5--5--5--7---7---7--7--|-2----2---2-----2--2--2---2---2--2--|
C#|-2----2---2--2--2--2--2---2---2--2--|-5----5---5--5--5--5--7---7---7--7--|-2----2---2-----2--2--2---2---2--2--|
G#|-0----0---0--0--0--0--0---0---0--0--|-3----3---3--3--3--3--5---5---5--5--|-0----0---0-----0--0--0---0---0--0--|
D#|------------------------------------|------------------------------------|------------------------------------|


D#|------------------------------------|------------------------------------|------------------------------------|
A#|------------------------------------|------------------------------------|------------------------------------|
F#|-5----5---5--5--5--5----------------|-2----2---2--2--2--2--2---2---2--2--|-5----5---5--5--5--5--7---7---7--7--|
C#|-5----5---5--5--5--5--5---5---5--5--|-2----2---2--2--2--2--2---2---2--2--|-5----5---5--5--5--5--7---7---7--7--|
G#|-3----3---3--3--3--3--5---5---5--5--|-0----0---0--0--0--0--0---0---0--0--|-3----3---3--3--3--3--5---5---5--5--|
D#|----------------------3---3---3--3--|------------------------------------|------------------------------------|


D#|------5---5--5----------------------|------------------------------------|------------------------------------|
A#|------5---5--5----------------------|------------------------------------|------------------------------------|
F#|-2----2---2-----2--2--2---2---2--2--|-5----5---5--5--5--5----------------|-2----2---2--2--2--2--2---2---2--2--|
C#|-2----2---2-----2--2--2---2---2--2--|-5----5---5--5--5--5--5---5---5--5--|-2----2---2--2--2--2--2---2---2--2--|
G#|-0----0---0-----0--0--0---0---0--0--|-3----3---3--3--3--3--5---5---5--5--|-0----0---0--0--0--0--0---0---0--0--|
D#|------------------------------------|----------------------3---3---3--3--|------------------------------------|


D#|------------------------------------|------5---5--5----------------------|------------------------------------|
A#|------------------------------------|------5---5--5----------------------|------------------------------------|
F#|-5----5---5--5--5--5--7---7---7--7--|-2----2---2-----2--2--2---2---2--2--|-5----5---5--5--5--5----------------|
C#|-5----5---5--5--5--5--7---7---7--7--|-2----2---2-----2--2--2---2---2--2--|-5----5---5--5--5--5--5---5---5--5--|
G#|-3----3---3--3--3--3--5---5---5--5--|-0----0---0-----0--0--0---0---0--0--|-3----3---3--3--3--3--5---5---5--5--|
D#|------------------------------------|------------------------------------|----------------------3---3---3--3--|


D#|------------------------------------|------------------------------------|------5---5--5----------------------|
A#|------------------------------------|------------------------------------|------5---5--5----------------------|
F#|-2----2---2--2--2--2--2---2---2--2--|-5----5---5--5--5--5--7---7---7--7--|-2----2---2-----2--2--2---2---2--2--|
C#|-2----2---2--2--2--2--2---2---2--2--|-5----5---5--5--5--5--7---7---7--7--|-2----2---2-----2--2--2---2---2--2--|
G#|-0----0---0--0--0--0--0---0---0--0--|-3----3---3--3--3--3--5---5---5--5--|-0----0---0-----0--0--0---0---0--0--|
D#|------------------------------------|------------------------------------|------------------------------------|


D#|------------------------------------|------------------------------------|------------------------------------|
A#|------------------------------------|------------------------------------|------------------------------------|
F#|-5----5---5--5--5--5----------------|-2----2---2--2--2--2--2---2---2--2--|-5----5---5--5--5--5--7---7---7--7--|
C#|-5----5---5--5--5--5--5---5---5--5--|-2----2---2--2--2--2--2---2---2--2--|-5----5---5--5--5--5--7---7---7--7--|
G#|-3----3---3--3--3--3--5---5---5--5--|-0----0---0--0--0--0--0---0---0--0--|-3----3---3--3--3--3--5---5---5--5--|
D#|----------------------3---3---3--3--|------------------------------------|------------------------------------|


D#|------5---5--5----------------------|------------------------------------|-----------------|
A#|------5---5--5----------------------|------------------------------------|-----------------|
F#|-2----2---2-----2--2--2---2---2--2--|-5----5---5--5--5--5----------------|-----------------|
C#|-2----2---2-----2--2--2---2---2--2--|-5----5---5--5--5--5--5---5---5--5--|-7---------------|
G#|-0----0---0-----0--0--0---0---0--0--|-3----3---3--3--3--3--5---5---5--5--|-7---------------|
D#|------------------------------------|----------------------3---3---3--3--|-5---------------|





Track 3: Synth

D#|--------|--------|--------|--------|--------|--------|--------|--------|--------|
A#|--------|--------|--------|--------|--------|--------|--------|--------|--------|
F#|--------|--------|--------|--------|--------|--------|--------|--------|--------|
C#|--------|--------|--------|--------|--------|--------|--------|--------|--------|
G#|--------|--------|--------|--------|--------|--------|--------|--------|--------|
D#|--------|--------|--------|--------|--------|--------|--------|--------|--------|


D#|--------|--------|--------|--------|--------|--------|--------|--------|--------|
A#|--------|--------|--------|--------|--------|--------|--------|--------|--------|
F#|--------|--------|--------|--------|--------|--------|--------|--------|--------|
C#|--------|--------|--------|--------|--------|--------|--------|--------|--------|
G#|--------|--------|--------|--------|--------|--------|--------|--------|--------|
D#|--------|--------|--------|--------|--------|--------|--------|--------|--------|


D#|--------|--------|--------|--------|--------|--------|--------|--------|--------|
A#|--------|--------|--------|--------|--------|--------|--------|--------|--------|
F#|--------|--------|--------|--------|--------|--------|--------|--------|--------|
C#|--------|--------|--------|--------|--------|--------|--------|--------|--------|
G#|--------|--------|--------|--------|--------|--------|--------|--------|--------|
D#|--------|--------|--------|--------|--------|--------|--------|--------|--------|


D#|--------|--------|--------|--------|--------|--------|--------|--------|--------|
A#|--------|--------|--------|--------|--------|--------|--------|--------|--------|
F#|--------|--------|--------|--------|--------|--------|--------|--------|--------|
C#|--------|--------|--------|--------|--------|--------|--------|--------|--------|
G#|--------|--------|--------|--------|--------|--------|--------|--------|--------|
D#|--------|--------|--------|--------|--------|--------|--------|--------|--------|


D#|--------|--------|--------|--------|--------|--------|--------|--------|--------|
A#|--------|--------|--------|--------|--------|--------|--------|--------|--------|
F#|--------|--------|--------|--------|--------|--------|--------|--------|--------|
C#|--------|--------|--------|--------|--------|--------|--------|--------|--------|
G#|--------|--------|--------|--------|--------|--------|--------|--------|--------|
D#|--------|--------|--------|--------|--------|--------|--------|--------|--------|


D#|--------|--------|--------|--------|--------|--------|--------|--------|--------|
A#|--------|--------|--------|--------|--------|--------|--------|--------|--------|
F#|--------|--------|--------|--------|--------|--------|--------|--------|--------|
C#|--------|--------|--------|--------|--------|--------|--------|--------|--------|
G#|--------|--------|--------|--------|--------|--------|--------|--------|--------|
D#|--------|--------|--------|--------|--------|--------|--------|--------|--------|


D#|--------|--------|--------|--------|--------|--------|--------|--------|--------|
A#|--------|--------|--------|--------|--------|--------|--------|--------|--------|
F#|--------|--------|--------|--------|--------|--------|--------|--------|--------|
C#|--------|--------|--------|--------|--------|--------|--------|--------|--------|
G#|--------|--------|--------|--------|--------|--------|--------|--------|--------|
D#|--------|--------|--------|--------|--------|--------|--------|--------|--------|


D#|--------|---------------------------------------------|---------------------------------------------|
A#|--------|---------------------------------------------|---------------------------------------------|
F#|--------|-141414-----141414-----141414-----141414-----|-141414-----141414-----141414-----141414-----|
C#|--------|-161616-----161616-----161616-----161616-----|-141414-----141414-----141414-----141414-----|
G#|--------|---------------------------------------------|---------------------------------------------|
D#|--------|---------------------------------------------|---------------------------------------------|


D#|---------------------------------------------|---------------------------------------------|
A#|---------------------------------------------|---------------------------------------------|
F#|-121212-----121212-----121212-----121212-----|-111111-----111111-----111111-----111111-----|
C#|-121212-----121212-----121212-----121212-----|-121212-----121212-----121212-----121212-----|
G#|---------------------------------------------|---------------------------------------------|
D#|---------------------------------------------|---------------------------------------------|


D#|---------------------------------------------|---------------------------------------------|
A#|---------------------------------------------|---------------------------------------------|
F#|-141414-----141414-----141414-----141414-----|-141414-----141414-----141414-----141414-----|
C#|-161616-----161616-----161616-----161616-----|-141414-----141414-----141414-----141414-----|
G#|---------------------------------------------|---------------------------------------------|
D#|---------------------------------------------|---------------------------------------------|


D#|---------------------------------------------|---------------------------------------------|
A#|---------------------------------------------|---------------------------------------------|
F#|-121212-----121212-----121212-----121212-----|-111111-----111111-----111111-----111111-----|
C#|-121212-----121212-----121212-----121212-----|-121212-----121212-----121212-----121212-----|
G#|---------------------------------------------|---------------------------------------------|
D#|---------------------------------------------|---------------------------------------------|


D#|--------|--------|--------|--------|--------|--------|--------|--------|--------|
A#|--------|--------|--------|--------|--------|--------|--------|--------|--------|
F#|--------|--------|--------|--------|--------|--------|--------|--------|--------|
C#|--------|--------|--------|--------|--------|--------|--------|--------|--------|
G#|--------|--------|--------|--------|--------|--------|--------|--------|--------|
D#|--------|--------|--------|--------|--------|--------|--------|--------|--------|


D#|--------|--------|--------|--------|--------|--------|--------|--------|--------|
A#|--------|--------|--------|--------|--------|--------|--------|--------|--------|
F#|--------|--------|--------|--------|--------|--------|--------|--------|--------|
C#|--------|--------|--------|--------|--------|--------|--------|--------|--------|
G#|--------|--------|--------|--------|--------|--------|--------|--------|--------|
D#|--------|--------|--------|--------|--------|--------|--------|--------|--------|


D#|--------|--------|--------|--------|--------|--------|--------|--------|--------|
A#|--------|--------|--------|--------|--------|--------|--------|--------|--------|
F#|--------|--------|--------|--------|--------|--------|--------|--------|--------|
C#|--------|--------|--------|--------|--------|--------|--------|--------|--------|
G#|--------|--------|--------|--------|--------|--------|--------|--------|--------|
D#|--------|--------|--------|--------|--------|--------|--------|--------|--------|


D#|--------|--------|--------|--------|--------|--------|
A#|--------|--------|--------|--------|--------|--------|
F#|--------|--------|--------|--------|--------|--------|
C#|--------|--------|--------|--------|--------|--------|
G#|--------|--------|--------|--------|--------|--------|
D#|--------|--------|--------|--------|--------|--------|





Track 4: Untitled

G|--------|--------|--------|--------|--------|--------|--------|--------|--------|
D|--------|--------|--------|--------|--------|--------|--------|--------|--------|
A|--------|--------|--------|--------|--------|--------|--------|--------|--------|
E|--------|--------|--------|--------|--------|--------|--------|--------|--------|


G|--------|--------|--------|--------|--------|--------|--------|--------|--------|
D|--------|--------|--------|--------|--------|--------|--------|--------|--------|
A|--------|--------|--------|--------|--------|--------|--------|--------|--------|
E|--------|--------|--------|--------|--------|--------|--------|--------|--------|


G|--------|--------|--------|--------|--------|--------|--------|--------|--------|
D|--------|--------|--------|--------|--------|--------|--------|--------|--------|
A|--------|--------|--------|--------|--------|--------|--------|--------|--------|
E|--------|--------|--------|--------|--------|--------|--------|--------|--------|


G|--------|--------|--------|--------|--------|--------|--------|--------|--------|
D|--------|--------|--------|--------|--------|--------|--------|--------|--------|
A|--------|--------|--------|--------|--------|--------|--------|--------|--------|
E|--------|--------|--------|--------|--------|--------|--------|--------|--------|


G|--------|--------|--------|--------|--------|--------|--------|--------|--------|
D|--------|--------|--------|--------|--------|--------|--------|--------|--------|
A|--------|--------|--------|--------|--------|--------|--------|--------|--------|
E|--------|--------|--------|--------|--------|--------|--------|--------|--------|


G|--------|--------|--------|--------|--------|--------|--------|--------|--------|
D|--------|--------|--------|--------|--------|--------|--------|--------|--------|
A|--------|--------|--------|--------|--------|--------|--------|--------|--------|
E|--------|--------|--------|--------|--------|--------|--------|--------|--------|


G|--------|--------|--------|--------|--------|--------|--------|--------|--------|
D|--------|--------|--------|--------|--------|--------|--------|--------|--------|
A|--------|--------|--------|--------|--------|--------|--------|--------|--------|
E|--------|--------|--------|--------|--------|--------|--------|--------|--------|


G|--------|--------|--------|--------|--------|--------|--------|--------|--------|
D|--------|--------|--------|--------|--------|--------|--------|--------|--------|
A|--------|--------|--------|--------|--------|--------|--------|--------|--------|
E|--------|--------|--------|--------|--------|--------|--------|--------|--------|


G|--------|--------|--------|--------|--------|--------|--------|--------|--------|
D|--------|--------|--------|--------|--------|--------|--------|--------|--------|
A|--------|--------|--------|--------|--------|--------|--------|--------|--------|
E|--------|--------|--------|--------|--------|--------|--------|--------|--------|


G|--------|--------|--------|--------|--------|--------|--------|--------|--------|
D|--------|--------|--------|--------|--------|--------|--------|--------|--------|
A|--------|--------|--------|--------|--------|--------|--------|--------|--------|
E|--------|--------|--------|--------|--------|--------|--------|--------|--------|


G|--------|--------|--------|--------|--------|--------|--------|--------|--------|
D|--------|--------|--------|--------|--------|--------|--------|--------|--------|
A|--------|--------|--------|--------|--------|--------|--------|--------|--------|
E|--------|--------|--------|--------|--------|--------|--------|--------|--------|


G|--------|--------|--------|--------|--------|--------|
D|--------|--------|--------|--------|--------|--------|
A|--------|--------|--------|--------|--------|--------|
E|--------|--------|--------|--------|--------|--------|