Menu:

 

Search:

 

nuno bettencourt - note on the screen door:

 



Title: Note on the Screen Door
Artist: 
Album: Schizophonic
Author: Nuno Bettencourt


Track 1: Ya-Ya Wah Effect

D|-------------------------------------|----------------------------------------------|
A|-------------------------------------|----------------------------------------------|
F|--------------------12------------12-|-12------------------12--12-14-16-12-12-------|
C|-14-12----12---14--------14-12-------|-----14-12----12-14---------------------14-12-|
G|-------14----------------------14----|-----------14---------------------------------|
D|-------------------------------------|----------------------------------------------|


D|-------------------------------------|----------------------------------------------|
A|-------------------------------------|------------------------14-14--14-14----------|
F|--------------------12------------12-|-12---------------------14-14--14-14-12-------|
C|-14-12----12---14--------14-12-------|-----14-12----12-14---------------------14-12-|
G|-------14----------------------14----|-----------14---------------------------------|
D|-------------------------------------|----------------------------------------------|


D|-------------------------------------|----------------------------------------------|
A|-------------------------------------|----------------------------------------------|
F|--------------------12------------12-|-12------------------12--12-14-16-12-12-------|
C|-14-12----12---14--------14-12-------|-----14-12----12-14---------------------14-12-|
G|-------14----------------------14----|-----------14---------------------------------|
D|-------------------------------------|----------------------------------------------|


D|-------------------------------------|----------------------------------------------|
A|-------------------------------------|------------------------14-14--14-14----------|
F|--------------------12------------12-|-12---------------------14-14--14-14-12-------|
C|-14-12----12---14--------14-12-------|-----14-12----12-14---------------------14-12-|
G|-------14----------------------14----|-----------14---------------------------------|
D|-------------------------------------|----------------------------------------------|


D|--------|--------|--------|--------|--------|--------|--------|--------|-------------------------------------|
A|--------|--------|--------|--------|--------|--------|--------|--------|-------------------------------------|
F|--------|--------|--------|--------|--------|--------|--------|--------|--------------------12------------12-|
C|--------|--------|--------|--------|--------|--------|--------|--------|-14-12----12---14--------14-12-------|
G|--------|--------|--------|--------|--------|--------|--------|--------|-------14----------------------14----|
D|--------|--------|--------|--------|--------|--------|--------|--------|-------------------------------------|


D|----------------------------------------------|-------------------------------------|
A|----------------------------------------------|-------------------------------------|
F|-12------------------12--12-14-16-12-12-------|--------------------12------------12-|
C|-----14-12----12-14---------------------14-12-|-14-12----12---14--------14-12-------|
G|-----------14---------------------------------|-------14----------------------14----|
D|----------------------------------------------|-------------------------------------|


D|----------------------------------------------|--------|--------|--------|--------|
A|------------------------14-14--14-14----------|--------|--------|--------|--------|
F|-12---------------------14-14--14-14-12-------|--------|--------|--------|--------|
C|-----14-12----12-14---------------------14-12-|--------|--------|--------|--------|
G|-----------14---------------------------------|--------|--------|--------|--------|
D|----------------------------------------------|--------|--------|--------|--------|


D|--------|--------|--------|--------|--------|--------|--------|--------|--------|
A|--------|--------|--------|--------|--------|--------|--------|--------|--------|
F|--------|--------|--------|--------|--------|--------|--------|--------|--------|
C|--------|--------|--------|--------|--------|--------|--------|--------|--------|
G|--------|--------|--------|--------|--------|--------|--------|--------|--------|
D|--------|--------|--------|--------|--------|--------|--------|--------|--------|


D|--------|--------|--------|-------------------------------------|----------------------------------------------|
A|--------|--------|--------|-------------------------------------|----------------------------------------------|
F|--------|--------|--------|--------------------12------------12-|-12------------------12--12-14-16-12-12-------|
C|--------|--------|--------|-14-12----12---14--------14-12-------|-----14-12----12-14---------------------14-12-|
G|--------|--------|--------|-------14----------------------14----|-----------14---------------------------------|
D|--------|--------|--------|-------------------------------------|----------------------------------------------|


D|-------------------------------------|----------------------------------------------|
A|-------------------------------------|------------------------14-14--14-14----------|
F|--------------------12------------12-|-12---------------------14-14--14-14-12-------|
C|-14-12----12---14--------14-12-------|-----14-12----12-14---------------------14-12-|
G|-------14----------------------14----|-----------14---------------------------------|
D|-------------------------------------|----------------------------------------------|


D|--------|--------|--------|--------|--------|--------|--------|--------|--------|
A|--------|--------|--------|--------|--------|--------|--------|--------|--------|
F|--------|--------|--------|--------|--------|--------|--------|--------|--------|
C|--------|--------|--------|--------|--------|--------|--------|--------|--------|
G|--------|--------|--------|--------|--------|--------|--------|--------|--------|
D|--------|--------|--------|--------|--------|--------|--------|--------|--------|


D|--------|--------|--------|--------|--------|--------|--------|--------|--------|
A|--------|--------|--------|--------|--------|--------|--------|--------|--------|
F|--------|--------|--------|--------|--------|--------|--------|--------|--------|
C|--------|--------|--------|--------|--------|--------|--------|--------|--------|
G|--------|--------|--------|--------|--------|--------|--------|--------|--------|
D|--------|--------|--------|--------|--------|--------|--------|--------|--------|


D|--------|--------|--------|--------|--------|--------|--------|--------|--------|
A|--------|--------|--------|--------|--------|--------|--------|--------|--------|
F|--------|--------|--------|--------|--------|--------|--------|--------|--------|
C|--------|--------|--------|--------|--------|--------|--------|--------|--------|
G|--------|--------|--------|--------|--------|--------|--------|--------|--------|
D|--------|--------|--------|--------|--------|--------|--------|--------|--------|


D|--------|--------|--------|--------|--------|--------|--------|--------|--------|
A|--------|--------|--------|--------|--------|--------|--------|--------|--------|
F|--------|--------|--------|--------|--------|--------|--------|--------|--------|
C|--------|--------|--------|--------|--------|--------|--------|--------|--------|
G|--------|--------|--------|--------|--------|--------|--------|--------|--------|
D|--------|--------|--------|--------|--------|--------|--------|--------|--------|


D|--------|--------|--------|
A|--------|--------|--------|
F|--------|--------|--------|
C|--------|--------|--------|
G|--------|--------|--------|
D|--------|--------|--------|





Track 2: Rhytm Guitar

D|--------|--------|--------|--------|--------|--------|--------|--------|--------|
A|--------|--------|--------|--------|--------|--------|--------|--------|--------|
F|--------|--------|--------|--------|--------|--------|--------|--------|--------|
C|--------|--------|--------|--------|--------|--------|--------|--------|--------|
G|--------|--------|--------|--------|--------|--------|--------|--------|--------|
D|--------|--------|--------|--------|--------|--------|--------|--------|--------|


D|--------|--------|--------|--------|--------|--------|--------|--------|--------|
A|--------|--------|--------|--------|--------|--------|--------|--------|--------|
F|--------|--------|--------|--------|--------|--------|--------|--------|--------|
C|--------|--------|--------|--------|--------|--------|--------|--------|--------|
G|--------|--------|--------|--------|--------|--------|--------|--------|--------|
D|--------|--------|--------|--------|--------|--------|--------|--------|--------|


D|--------|--------|--------|--------|--------|--------|--------|--------|--------|
A|--------|--------|--------|--------|--------|--------|--------|--------|--------|
F|--------|--------|--------|--------|--------|--------|--------|--------|--------|
C|--------|--------|--------|--------|--------|--------|--------|--------|--------|
G|--------|--------|--------|--------|--------|--------|--------|--------|--------|
D|--------|--------|--------|--------|--------|--------|--------|--------|--------|


D|-----------------------------|---------------------------------------|---------------------------------------|
A|-----------------------------|---------------------------------------|---------------------------------------|
F|-------15-14-12-11-10-9------|------------------7----7---7--7--7-----|------------------5----5---5--5--5-----|
C|-------15-14-12-11-10-9---5--|-5---5---5--5--5--7----7---7--7--7--5--|-5---5---5--5--5--5----5---5--5--5--5--|
G|-------15-14-12-11-10-9---5--|-5---5---5--5--5--5----5---5--5--5--5--|-5---5---5--5--5--3----3---3--3--3--5--|
D|-------15-14-12-11-10-9---3--|-3---3---3--3--3--------------------3--|-3---3---3--3--3--------------------3--|


D|---------------------------------------|---------------------------------------------|
A|---------------------------------------|---------------------------------------------|
F|------------------------------------5--|-5---5---5--5--5--5-----8--8--8--8--8--8-----|
C|-5---5---5--5--5--3----3---3--3--3--5--|-5---5---5--5--5--5-----8--8--8--8--8--8--5--|
G|-5---5---5--5--5--3----3---3--3--3--3--|-3---3---3--3--3--3-----6--6--6--6--6--6--5--|
D|-3---3---3--3--3--1----1---1--1--1-----|------------------------------------------3--|


D|---------------------------------------|---------------------------------------|
A|---------------------------------------|---------------------------------------|
F|------------------7----7---7--7--7-----|------------------5----5---5--5--5-----|
C|-5---5---5--5--5--7----7---7--7--7--5--|-5---5---5--5--5--5----5---5--5--5--5--|
G|-5---5---5--5--5--5----5---5--5--5--5--|-5---5---5--5--5--3----3---3--3--3--5--|
D|-3---3---3--3--3--------------------3--|-3---3---3--3--3--------------------3--|


D|---------------------------------------|----------------------------------------------|
A|---------------------------------------|----------------------------------------------|
F|------------------------------------5--|-5---5---5--5--5--5--8--8--8--8--8--8---7-6-5-|
C|-5---5---5--5--5--3----3---3--3--3--5--|-5---5---5--5--5--5--8--8--8--8--8--8---7-6-5-|
G|-5---5---5--5--5--3----3---3--3--3--3--|-3---3---3--3--3--3--6--6--6--6--6--6---5-4-3-|
D|-3---3---3--3--3--1----1---1--1--1-----|----------------------------------------------|


D|--------|--------|--------|--------|--------|--------|--------|--------|--------|
A|--------|--------|--------|--------|--------|--------|--------|--------|--------|
F|--------|--------|--------|--------|--------|--------|--------|--------|--------|
C|--------|--------|--------|--------|--------|--------|--------|--------|--------|
G|--------|--------|--------|--------|--------|--------|--------|--------|--------|
D|--------|--------|--------|--------|--------|--------|--------|--------|--------|


D|--------|--------|----------------------|---------------------------------------|
A|--------|--------|----------------------|---------------------------------------|
F|--------|--------|----------------------|------------------7----7---7--7--7-----|
C|--------|--------|-------------------5--|-5---5---5--5--5--7----7---7--7--7--5--|
G|--------|--------|-------------------5--|-5---5---5--5--5--5----5---5--5--5--5--|
D|--------|--------|-------------------3--|-3---3---3--3--3--------------------3--|


D|---------------------------------------|---------------------------------------|
A|---------------------------------------|---------------------------------------|
F|------------------5----5---5--5--5-----|------------------------------------5--|
C|-5---5---5--5--5--5----5---5--5--5--5--|-5---5---5--5--5--3----3---3--3--3--5--|
G|-5---5---5--5--5--3----3---3--3--3--5--|-5---5---5--5--5--3----3---3--3--3--3--|
D|-3---3---3--3--3--------------------3--|-3---3---3--3--3--1----1---1--1--1-----|


D|---------------------------------------------|---------------------------------------|
A|---------------------------------------------|---------------------------------------|
F|-5---5---5--5--5--5-----8--8--8--8--8--8-----|------------------7----7---7--7--7-----|
C|-5---5---5--5--5--5-----8--8--8--8--8--8--5--|-5---5---5--5--5--7----7---7--7--7--5--|
G|-3---3---3--3--3--3-----6--6--6--6--6--6--5--|-5---5---5--5--5--5----5---5--5--5--5--|
D|------------------------------------------3--|-3---3---3--3--3--------------------3--|


D|---------------------------------------|---------------------------------------|
A|---------------------------------------|---------------------------------------|
F|------------------5----5---5--5--5-----|------------------------------------5--|
C|-5---5---5--5--5--5----5---5--5--5--5--|-5---5---5--5--5--3----3---3--3--3--5--|
G|-5---5---5--5--5--3----3---3--3--3--5--|-5---5---5--5--5--3----3---3--3--3--3--|
D|-3---3---3--3--3--------------------3--|-3---3---3--3--3--1----1---1--1--1-----|


D|----------------------------------------------|--------|--------|--------|--------|
A|----------------------------------------------|--------|--------|--------|--------|
F|-5---5---5--5--5--5--8--8--8--8--8--8---7-6-5-|--------|--------|--------|--------|
C|-5---5---5--5--5--5--8--8--8--8--8--8---7-6-5-|--------|--------|--------|--------|
G|-3---3---3--3--3--3--6--6--6--6--6--6---5-4-3-|--------|--------|--------|--------|
D|----------------------------------------------|--------|--------|--------|--------|


D|--------|--------|--------|--------|---------------------------------|--------|---------------------------------|
A|--------|--------|--------|--------|---------------------------------|--------|---------------------------------|
F|--------|--------|--------|--------|---------------------------------|--------|---------------------------------|
C|--------|--------|--------|--------|-12--10--12--10--14--12--14--12--|--------|-12--10--12--10--14--12--14--12--|
G|--------|--------|--------|--------|-10--10--10--10--12--12--12--12--|--------|-10--10--10--10--12--12--12--12--|
D|--------|--------|--------|--------|---------------------------------|-0------|---------------------------------|


D|--------|---------------------------------|--------|-----------------------------|
A|--------|---------------------------------|--------|-----------------------------|
F|--------|---------------------------------|--------|-14----15-14-12-11-10-9------|
C|-9------|-12--10--12--10--14--12--14--12--|-9------|-------15-14-12-11-10-9---5--|
G|-7------|-10--10--10--10--12--12--12--12--|-7------|-------15-14-12-11-10-9---5--|
D|--------|---------------------------------|--------|-------15-14-12-11-10-9---3--|


D|---------------------------------------|---------------------------------------|
A|---------------------------------------|---------------------------------------|
F|------------------7----7---7--7--7-----|------------------5----5---5--5--5-----|
C|-5---5---5--5--5--7----7---7--7--7--5--|-5---5---5--5--5--5----5---5--5--5--5--|
G|-5---5---5--5--5--5----5---5--5--5--5--|-5---5---5--5--5--3----3---3--3--3--5--|
D|-3---3---3--3--3--------------------3--|-3---3---3--3--3--------------------3--|


D|---------------------------------------|---------------------------------------------|
A|---------------------------------------|---------------------------------------------|
F|------------------------------------5--|-5---5---5--5--5--------8--8--8--8--8--8-----|
C|-5---5---5--5--5--3----3---3--3--3--5--|-5---5---5--5--5-----8--8--8--8--8--8--8--5--|
G|-5---5---5--5--5--3----3---3--3--3--3--|-3---3---3--3--3--6-----6--6--6--6--6--6--5--|
D|-3---3---3--3--3--1----1---1--1--1-----|------------------------------------------3--|


D|---------------------------------------|---------------------------------------|
A|---------------------------------------|---------------------------------------|
F|------------------7----7---7--7--7-----|------------------5----5---5--5--5-----|
C|-5---5---5--5--5--7----7---7--7--7--5--|-5---5---5--5--5--5----5---5--5--5--5--|
G|-5---5---5--5--5--5----5---5--5--5--5--|-5---5---5--5--5--3----3---3--3--3--5--|
D|-3---3---3--3--3--------------------3--|-3---3---3--3--3--------------------3--|


D|---------------------------------------|----------------------------------------------|
A|---------------------------------------|----------------------------------------------|
F|------------------------------------5--|-5---5---5--5--5--5--8--8--8--8--8--8---7-6-5-|
C|-5---5---5--5--5--3----3---3--3--3--5--|-5---5---5--5--5--5--8--8--8--8--8--8---7-6-5-|
G|-5---5---5--5--5--3----3---3--3--3--3--|-3---3---3--3--3--3--6--6--6--6--6--6---5-4-3-|
D|-3---3---3--3--3--1----1---1--1--1-----|----------------------------------------------|





Track 3: Solo Guitar

D|--------|--------|--------|--------|--------|--------|--------|--------|--------|
A|--------|--------|--------|--------|--------|--------|--------|--------|--------|
F|--------|--------|--------|--------|--------|--------|--------|--------|--------|
C|--------|--------|--------|--------|--------|--------|--------|--------|--------|
G|--------|--------|--------|--------|--------|--------|--------|--------|--------|
D|--------|--------|--------|--------|--------|--------|--------|--------|--------|


D|--------|--------|--------|--------|--------|--------|--------|--------|--------|
A|--------|--------|--------|--------|--------|--------|--------|--------|--------|
F|--------|--------|--------|--------|--------|--------|--------|--------|--------|
C|--------|--------|--------|--------|--------|--------|--------|--------|--------|
G|--------|--------|--------|--------|--------|--------|--------|--------|--------|
D|--------|--------|--------|--------|--------|--------|--------|--------|--------|


D|--------|--------|--------|--------|--------|--------|--------|--------|--------|
A|--------|--------|--------|--------|--------|--------|--------|--------|--------|
F|--------|--------|--------|--------|--------|--------|--------|--------|--------|
C|--------|--------|--------|--------|--------|--------|--------|--------|--------|
G|--------|--------|--------|--------|--------|--------|--------|--------|--------|
D|--------|--------|--------|--------|--------|--------|--------|--------|--------|


D|--------|--------|--------|--------|--------|--------|--------|--------|--------|
A|--------|--------|--------|--------|--------|--------|--------|--------|--------|
F|--------|--------|--------|--------|--------|--------|--------|--------|--------|
C|--------|--------|--------|--------|--------|--------|--------|--------|--------|
G|--------|--------|--------|--------|--------|--------|--------|--------|--------|
D|--------|--------|--------|--------|--------|--------|--------|--------|--------|


D|--------|--------|--------|--------|--------|--------|--------|--------|--------|
A|--------|--------|--------|--------|--------|--------|--------|--------|--------|
F|--------|--------|--------|--------|--------|--------|--------|--------|--------|
C|--------|--------|--------|--------|--------|--------|--------|--------|--------|
G|--------|--------|--------|--------|--------|--------|--------|--------|--------|
D|--------|--------|--------|--------|--------|--------|--------|--------|--------|


D|--------|--------|--------|--------|--------|--------|--------|--------|--------|
A|--------|--------|--------|--------|--------|--------|--------|--------|--------|
F|--------|--------|--------|--------|--------|--------|--------|--------|--------|
C|--------|--------|--------|--------|--------|--------|--------|--------|--------|
G|--------|--------|--------|--------|--------|--------|--------|--------|--------|
D|--------|--------|--------|--------|--------|--------|--------|--------|--------|


D|--------|--------|--------------------------------------------------|----------------------------------------------------|
A|--------|--------|-------------------12-----------------------------|-------------------------15-------------------------|
F|--------|--------|-------14----12-14----12-14-14-14-141412----------|-12-12-12-12-------14-14-14-14-141412---14----12-14-|
C|--------|--------|-12-14----14-----------------------------14-12-14-|-------------14-12-------------------14----14-------|
G|--------|--------|--------------------------------------------------|----------------------------------------------------|
D|--------|--------|--------------------------------------------------|----------------------------------------------------|


D|---------------------------------------------|--------------------------------------------------|
A|-14---14-14-14-14-14-14-141414141414---------|--------------------------------------------------|
F|---------------------------------------12----|-14----12-11----11-11-11-11-11-1711---------12-14-|
C|------------------------------------14----14-|----14-------12-----------------------12-14-------|
G|---------------------------------------------|--------------------------------------------------|
D|---------------------------------------------|--------------------------------------------------|


D|-------------------------15----12-------12----------14----12-|----15----12-14----12-------------------------------------------------|
A|-12----------------15-------12----15-------------15----15----|-15----15-------15----15----15----------------------------------15----|
F|-------14----12-14----14-------------15----14-15-------------|-------------------------14----14151412---14----12-11-11-11--------12-|
C|----14----14-------------------------------------------------|---------------------------------------14----12--------------14-14-14-|
G|-------------------------------------------------------------|----------------------------------------------------------------------|
D|-------------------------------------------------------------|----------------------------------------------------------------------|


D|-------------------------------------------|-------------------------------------------------|
A|----12-------------------------------------|-------------------------------------------------|
F|-11-----14-14-12-11-11-11-12-----11--------|-------------------------------14----12-14-14-14-|
C|-----------------------------14-----12--14-|----12-------------14----12-14----14-------------|
G|-------------------------------------------|-14----14----12-14----14-------------------------|
D|-------------------------------------------|----------15-------------------------------------|


D|---------------------------------------------|-----------------------------------12---------------|
A|---------------------------------------------|-15-15--15-15-15-15-15-15-15-15-15----15-12---------|
F|-14--14--14-14-14-12-14-14-14-14-14-12-14-12-|--------------------------------------------1412----|
C|---------------------------------------------|------------------------------------------------1412|
G|---------------------------------------------|----------------------------------------------------|
D|---------------------------------------------|----------------------------------------------------|


D|--------------------------------------------------|---------------------------------------------------|
A|---------------------15---------------------------|---------------------------------------------------|
F|-141414--14-14-14-14-14-14-141412-121214-12-14-14-|-14--14--14--14--14--14--14--14--12--14--14-14-14--|
C|--------------------------------------------------|---------------------------------------------------|
G|--------------------------------------------------|---------------------------------------------------|
D|--------------------------------------------------|---------------------------------------------------|


D|---------------------------------------------------------|-----------------------------------------|
A|---------------------------------------------------------|-----------------------------------------|
F|-12-14-14-14-14141414---12-14-12-14-12-12----------------|-----------------------------------------|
C|---------------------14-------------------14-12----------|-----------------------------------------|
G|------------------------------------------------14-12----|-12-12-10--10---10--10-10-10-10-10-19-10-|
D|------------------------------------------------------15-|-----------------------------------------|


D|---------------------------------------------------|--------|--------|--------|--------|
A|---------------------------------------------------|--------|--------|--------|--------|
F|-------------12-1414-------------------------------|--------|--------|--------|--------|
C|-12-14-12-----------14-12-14-12--------------------|--------|--------|--------|--------|
G|----------14--------------------14-12-14-12--------|--------|--------|--------|--------|
D|--------------------------------------------15-----|--------|--------|--------|--------|


D|--------|--------|--------|--------|
A|--------|--------|--------|--------|
F|--------|--------|--------|--------|
C|--------|--------|--------|--------|
G|--------|--------|--------|--------|
D|--------|--------|--------|--------|





Track 4: Untitled

G|--------|--------|--------|--------|--------|--------|--------|--------|--------|
D|--------|--------|--------|--------|--------|--------|--------|--------|--------|
A|--------|--------|--------|--------|--------|--------|--------|--------|--------|
E|--------|--------|--------|--------|--------|--------|--------|--------|--------|


G|--------|--------|--------|--------|--------|--------|--------|--------|--------|
D|--------|--------|--------|--------|--------|--------|--------|--------|--------|
A|--------|--------|--------|--------|--------|--------|--------|--------|--------|
E|--------|--------|--------|--------|--------|--------|--------|--------|--------|


G|--------|--------|--------|--------|--------|--------|--------|--------|--------|
D|--------|--------|--------|--------|--------|--------|--------|--------|--------|
A|--------|--------|--------|--------|--------|--------|--------|--------|--------|
E|--------|--------|--------|--------|--------|--------|--------|--------|--------|


G|--------|--------|--------|--------|--------|--------|--------|--------|--------|
D|--------|--------|--------|--------|--------|--------|--------|--------|--------|
A|--------|--------|--------|--------|--------|--------|--------|--------|--------|
E|--------|--------|--------|--------|--------|--------|--------|--------|--------|


G|--------|--------|--------|--------|--------|--------|--------|--------|--------|
D|--------|--------|--------|--------|--------|--------|--------|--------|--------|
A|--------|--------|--------|--------|--------|--------|--------|--------|--------|
E|--------|--------|--------|--------|--------|--------|--------|--------|--------|


G|--------|--------|--------|--------|--------|--------|--------|--------|--------|
D|--------|--------|--------|--------|--------|--------|--------|--------|--------|
A|--------|--------|--------|--------|--------|--------|--------|--------|--------|
E|--------|--------|--------|--------|--------|--------|--------|--------|--------|


G|--------|--------|--------|--------|--------|--------|--------|--------|--------|
D|--------|--------|--------|--------|--------|--------|--------|--------|--------|
A|--------|--------|--------|--------|--------|--------|--------|--------|--------|
E|--------|--------|--------|--------|--------|--------|--------|--------|--------|


G|--------|--------|--------|--------|--------|--------|--------|--------|--------|
D|--------|--------|--------|--------|--------|--------|--------|--------|--------|
A|--------|--------|--------|--------|--------|--------|--------|--------|--------|
E|--------|--------|--------|--------|--------|--------|--------|--------|--------|


G|--------|--------|--------|--------|--------|--------|--------|
D|--------|--------|--------|--------|--------|--------|--------|
A|--------|--------|--------|--------|--------|--------|--------|
E|--------|--------|--------|--------|--------|--------|--------|