Menu:

 

Search:

 

nuno bettencourt - karmalaa:

 



Title: Karmalaa
Artist: 
Album: Schizophonic
Author: Nuno Bettencourt


Track 1: Rhytm Guitar

D#|-------------|-----------------------|---------------------------------|---------------------------------|
A#|-------------|-----------------------|---------------------------------|---------------------------------|
F#|-------------|-----------------------|---------------------------------|---------------------------------|
C#|-------------|-------6---7---7---6---|-7---7---6---6-------6---7---7---|-6---7---6---6---6---7---7---6---|
G#|-------------|-------6---7---7---6---|-7---7---6-----------6---7---7---|-6---7---6-------6---7---7---6---|
D#|-------------|-------4---5---5---4---|-5---5---4---4-------4---5---5---|-4---5---4---4---4---5---5---4---|


D#|---------------------------------|---------------------------------|---------------------------------|
A#|---------------------------------|---------------------------------|---------------------------------|
F#|---------------------------------|---------------------------------|---------------------------------|
C#|-7---7---6---6-------6---7---7---|-6---7---6---6---6---7---7---6---|-7---7---6---6-------6---7---7---|
G#|-7---7---6-----------6---7---7---|-6---7---6-------6---7---7---6---|-7---7---6-----------6---7---7---|
D#|-5---5---4---4-------4---5---5---|-4---5---4---4---4---5---5---4---|-5---5---4---4-------4---5---5---|


D#|---------------------------------|---------------------------------|---------------------------------|
A#|---------------------------------|---------------------------------|---------------------------------|
F#|---------------------------------|---------------------------------|---------------------------------|
C#|-6---7---6---6---6---7---7---6---|-7---7---6---6-------6---7---7---|-6---7---6---6---6---7---7---6---|
G#|-6---7---6-------6---7---7---6---|-7---7---6-----------6---7---7---|-6---7---6-------6---7---7---6---|
D#|-4---5---4---4---4---5---5---4---|-5---5---4---4-------4---5---5---|-4---5---4---4---4---5---5---4---|


D#|---------------------------------|---------------------------------|-----------------------|
A#|---------------------------------|---------------------------------|-----------------------|
F#|---------------------------------|---------------------------------|-----------------------|
C#|-7---7---6---6---6---7---7---6---|-7---7---6---6---6---7---7---6---|-7---7---5---5---------|
G#|-7---7---6-------6---7---7---6---|-7---7---6-------6---7---7---6---|-7---7---5-------------|
D#|-5---5---4---4---4---5---5---4---|-5---5---4---4---4---5---5---4---|-5---5---3---3---------|


D#|-----------------------|---------------------------------|---------------------------------|
A#|-----------------------|---------------------------------|---------------------------------|
F#|-----------------------|---------------------------------|---------------------------------|
C#|-------6---7---7---6---|-7---7---6---6---6---7---7---6---|-7---7---6---6---6---7---7---6---|
G#|-------6---7---7---6---|-7---7---6-------6---7---7---6---|-7---7---6-------6---7---7---6---|
D#|-------4---5---5---4---|-5---5---4---4---4---5---5---4---|-5---5---4---4---4---5---5---4---|


D#|-----------------------|-----------------------|---------------------------------|
A#|-----------------------|-----------------------|---------------------------------|
F#|-----------------------|-----------------------|---------------------------------|
C#|-7---7---5---5---------|-------6---7---7---6---|-7---7---6---6---6---7---7---6---|
G#|-7---7---5-------------|-------6---7---7---6---|-7---7---6-------6---7---7---6---|
D#|-5---5---3---3---------|-------4---5---5---4---|-5---5---4---4---4---5---5---4---|


D#|---------------------------------|-----------------------|-----------------------|
A#|---------------------------------|-----------------------|-----------------------|
F#|---------------------------------|-----------------------|-----------------------|
C#|-7---7---6---6---6---7---7---6---|-7---7---5---5---------|-------6---7---7---6---|
G#|-7---7---6-------6---7---7---6---|-7---7---5-------------|-------6---7---7---6---|
D#|-5---5---4---4---4---5---5---4---|-5---5---3---3---------|-------4---5---5---4---|


D#|---------------------------------|---------------------------------|-----------------------|
A#|---------------------------------|---------------------------------|-----------------------|
F#|---------------------------------|---------------------------------|-----------------------|
C#|-7---7---6---6---6---7---7---6---|-7---7---6---6---6---7---7---6---|-7---7---5---5---------|
G#|-7---7---6-------6---7---7---6---|-7---7---6-------6---7---7---6---|-7---7---5-------------|
D#|-5---5---4---4---4---5---5---4---|-5---5---4---4---4---5---5---4---|-5---5---3---3---------|


D#|-----------------------|---------------------------------|------------------------------|
A#|-----------------------|---------------------------------|------------------------------|
F#|-------5---5---5---5---|-5---5---5---5-----------5---5---|---------5----2---2---2---2---|
C#|-------5---5---5---5---|-5---5---5---5---5---5---5---5---|-5---5---5----2---2---2---2---|
G#|-------3---3---3---3---|-3---3---3---3---2---2---2---2---|-2---2---2----0---0---0---0---|
D#|-----------------------|---------------------------------|------------------------------|


D#|---------------------------------|------------------------------|---------------------------------|
A#|---------------------------------|--------------4---4-------4---|-4-------4---4-------------------|
F#|-2---2---2---2-------------------|--------------2---2---2---2---|-2---2---2---2-----------3---3---|
C#|-2---2---2---2-----------5---5---|---------5----1---1---1---1---|-1---1---1---1---3---3---3---3---|
G#|-0---0---0---0---5---5---5---5---|-2---2---5----3---3---3---3---|-3---3---3---3---1---1---1---1---|
D#|-----------------3---3---3---3---|-3---3---3----1---1---1---1---|-1---1---1---1-------------------|


D#|------------------------------|---------------------------------|------------------------------|
A#|------------------------------|---------------------------------|------------------------------|
F#|---------3----2---2---2-------|---------2---2---2---4---4---4---|-5----7---5---5---5---5---5---|
C#|-3---3---3----2---2---2---5---|-5---5---2---2---2---4---4---4---|-5----7---5---5---5---5---5---|
G#|-1---1---1----0---0---0---5---|-5---5---0---0---0---2---2---2---|-3----5---3---3---3---3---3---|
D#|--------------------------3---|-3---3---------------------------|------------------------------|


D#|------------------------------|------------------------------|------------------------------|
A#|-------------------------3----|---------3--------------------|------------------------------|
F#|-5---5---5---5-----------1----|---------1----2---2---2---2---|-2---2---2---2----------------|
C#|-5---5---5---5---0---0---0----|-0---0---0----2---2---2---2---|-2---2---2---2-----------5----|
G#|-3---3---3---3---2---2---2----|-2---2---2----0---0---0---0---|-0---0---0---0---5---5---5----|
D#|-----------------0---0---0----|-0---0---0--------------------|-----------------3---3---3----|


D#|------------------------------|---------------------------------|------------------------------|
A#|--------------4---4-------4---|-4-------4---4-------------------|------------------------------|
F#|--------------2---2---2---2---|-2---2---2---2-----------3---3---|---------3--------------------|
C#|---------5----1---1---1---1---|-1---1---1---1---3---3---3---3---|-3---3---3--------------------|
G#|-2---2---5----3---3---3---3---|-3---3---3---3---1---1---1---1---|-1---1---1--------------------|
D#|-3---3---3----1---1---1---1---|-1---1---1---1-------------------|--------------0---2---3---3---|


D#|---------------------------------|---------------------------------|---------------------------------|
A#|---------------------------------|---------------------------------|---------------------------------|
F#|---------------------------------|---------------------------------|---------------------------------|
C#|---------------------------------|---------------------------------|---------------------------------|
G#|---------------------------------|---------------------------------|---------------------------------|
D#|-0---5---5-------0---2---3---3---|-0---5---5-------0---2---3---3---|-0---5---5-------0---2---3---3---|


D#|---------------------------------|---------------------------------|---------------------------------|
A#|---------------------------------|---------------------------------|---------------------------------|
F#|---------------------------------|---------------------------------|---------------------------------|
C#|-----------------6---7---7---6---|-7---7---6---6-------6---7---7---|-6---7---6---6---6---7---7---6---|
G#|-----------------6---7---7---6---|-7---7---6-----------6---7---7---|-6---7---6-------6---7---7---6---|
D#|-0---5---5-------4---5---5---4---|-5---5---4---4-------4---5---5---|-4---5---4---4---4---5---5---4---|


D#|---------------------------------|---------------------------------|---------------------------------|
A#|---------------------------------|---------------------------------|---------------------------------|
F#|---------------------------------|---------------------------------|---------------------------------|
C#|-7---7---5---5-------6---7---7---|-6---7---6---6---6---7---7---6---|-7---7---6---6---6---7---7---6---|
G#|-7---7---5-----------6---7---7---|-6---7---6-------6---7---7---6---|-7---7---6-------6---7---7---6---|
D#|-5---5---3---3-------4---5---5---|-4---5---4---4---4---5---5---4---|-5---5---4---4---4---5---5---4---|


D#|---------------------------------|-----------------------|-----------------------|
A#|---------------------------------|-----------------------|-----------------------|
F#|---------------------------------|-----------------------|-----------------------|
C#|-7---7---6---6---6---7---7---6---|-7---7---5---5---------|-------6---7---7---6---|
G#|-7---7---6-------6---7---7---6---|-7---7---5-------------|-------6---7---7---6---|
D#|-5---5---4---4---4---5---5---4---|-5---5---3---3---------|-------4---5---5---4---|


D#|---------------------------------|---------------------------------|-----------------------|
A#|---------------------------------|---------------------------------|-----------------------|
F#|---------------------------------|---------------------------------|-----------------------|
C#|-7---7---6---6---6---7---7---6---|-7---7---6---6---6---7---7---6---|-7---7---5---5---------|
G#|-7---7---6-------6---7---7---6---|-7---7---6-------6---7---7---6---|-7---7---5-------------|
D#|-5---5---4---4---4---5---5---4---|-5---5---4---4---4---5---5---4---|-5---5---3---3---------|


D#|-----------------------|---------------------------------|---------------------------------|
A#|-----------------------|---------------------------------|---------------------------------|
F#|-----------------------|---------------------------------|---------------------------------|
C#|-------6---7---7---6---|-7---7---6---6---6---7---7---6---|-7---7---6---6---6---7---7---6---|
G#|-------6---7---7---6---|-7---7---6-------6---7---7---6---|-7---7---6-------6---7---7---6---|
D#|-------4---5---5---4---|-5---5---4---4---4---5---5---4---|-5---5---4---4---4---5---5---4---|


D#|-----------------------|-----------------------|---------------------------------|
A#|-----------------------|-----------------------|---------------------------------|
F#|-----------------------|-----------------------|---------------------------------|
C#|-7---7---5---5---------|-------6---7---7---6---|-7---7---6---6---6---7---7---6---|
G#|-7---7---5-------------|-------6---7---7---6---|-7---7---6-------6---7---7---6---|
D#|-5---5---3---3---------|-------4---5---5---4---|-5---5---4---4---4---5---5---4---|


D#|---------------------------------|------------------------------|------------------------------|
A#|---------------------------------|------------------------------|------------------------------|
F#|---------------------------------|----------------------0---15--|-0---15---0---5---5---5---5---|
C#|-7---7---6---6---6---7---7---6---|-7---7---5---5--------0---15--|-0---15---0---5---5---5---5---|
G#|-7---7---6-------6---7---7---6---|-7---7---5--------------------|--------------3---3---3---3---|
D#|-5---5---4---4---4---5---5---4---|-5---5---3---3----------------|------------------------------|


D#|---------------------------------|------------------------------|---------------------------------|
A#|---------------------------------|------------------------------|---------------------------------|
F#|-5---5---5---5-----------5---5---|---------5----2---2---2---2---|-2---2---2---2-------------------|
C#|-5---5---5---5---5---5---5---5---|-5---5---5----2---2---2---2---|-2---2---2---2-----------5---5---|
G#|-3---3---3---3---2---2---2---2---|-2---2---2----0---0---0---0---|-0---0---0---0---5---5---5---5---|
D#|---------------------------------|------------------------------|-----------------3---3---3---3---|


D#|------------------------------|---------------------------------|------------------------------|
A#|--------------4---4-------4---|-4-------4---4-------------------|------------------------------|
F#|--------------2---2---2---2---|-2---2---2---2-----------3---3---|---------3----2---2---2-------|
C#|---------5----1---1---1---1---|-1---1---1---1---3---3---3---3---|-3---3---3----2---2---2---5---|
G#|-2---2---5----3---3---3---3---|-3---3---3---3---1---1---1---1---|-1---1---1----0---0---0---5---|
D#|-3---3---3----1---1---1---1---|-1---1---1---1-------------------|--------------------------3---|


D#|---------------------------------|------------------------------|------------------------------|
A#|---------------------------------|------------------------------|-------------------------3----|
F#|---------2---2---2---4---4---4---|-5----7---5---5---5---5---5---|-5---5---5---5-----------1----|
C#|-5---5---2---2---2---4---4---4---|-5----7---5---5---5---5---5---|-5---5---5---5---0---0---0----|
G#|-5---5---0---0---0---2---2---2---|-3----5---3---3---3---3---3---|-3---3---3---3---2---2---2----|
D#|-3---3---------------------------|------------------------------|-----------------0---0---0----|


D#|------------------------------|------------------------------|------------------------------|
A#|---------3--------------------|------------------------------|--------------4---4-------4---|
F#|---------1----2---2---2---2---|-2---2---2---2----------------|--------------2---2---2---2---|
C#|-0---0---0----2---2---2---2---|-2---2---2---2-----------5----|---------5----1---1---1---1---|
G#|-2---2---2----0---0---0---0---|-0---0---0---0---5---5---5----|-2---2---5----3---3---3---3---|
D#|-0---0---0--------------------|-----------------3---3---3----|-3---3---3----1---1---1---1---|


D#|---------------------------------|------------------------------|---------------------------------|
A#|-4-------4---4-------------------|------------------------------|---------------------------------|
F#|-2---2---2---2-----------3---3---|---------3--------------------|---------------------------------|
C#|-1---1---1---1---3---3---3---3---|-3---3---3--------------------|---------------------------------|
G#|-3---3---3---3---1---1---1---1---|-1---1---1--------------------|---------------------------------|
D#|-1---1---1---1-------------------|--------------0---2---3---3---|-0---5---5-------0---2---3---3---|


D#|---------------------------------|---------------------------------|---------------------------------|
A#|---------------------------------|---------------------------------|---------------------------------|
F#|---------------------------------|---------------------------------|---------------------------------|
C#|---------------------------------|---------------------------------|---------------------------------|
G#|---------------------------------|---------------------------------|---------------------------------|
D#|-0---5---5-------0---2---3---3---|-0---5---5-------0---2---3---3---|-0---5---5-------0---2---3---3---|


D#|---------------------------------|---------------------------------|---------------------------------|
A#|---------------------------------|---------------------------------|---------------------------------|
F#|---------------------------------|---------------------------------|---------------------------------|
C#|---------------------------------|---------------------------------|---------------------------------|
G#|---------------------------------|---------------------------------|---------------------------------|
D#|-0---5---5-------0---2---3---3---|-0---5---5-------0---2---3---3---|-0---5---5-------0---2---3---3---|


D#|-----------------------|--------|--------|--------|--------|--------|--------|--------|
A#|-----------------------|--------|--------|--------|--------|--------|--------|--------|
F#|-----------------------|--------|--------|--------|--------|--------|--------|--------|
C#|-----------------------|--------|--------|--------|--------|--------|--------|--------|
G#|-----------------------|--------|--------|--------|--------|--------|--------|--------|
D#|-0---5---5-------------|--------|--------|--------|--------|--------|--------|--------|


D#|--------|--------|--------|--------|--------|--------|--------|--------|--------|
A#|--------|--------|--------|--------|--------|--------|--------|--------|--------|
F#|--------|--------|--------|--------|--------|--------|--------|--------|--------|
C#|--------|--------|--------|--------|--------|--------|--------|--------|--------|
G#|--------|--------|--------|--------|--------|--------|--------|--------|--------|
D#|--------|--------|--------|--------|--------|--------|--------|--------|--------|


D#|--------|---------------------------|-----------------------------------|-----------------------------------|
A#|--------|---------------------------|-----------------------------------|-----------------------------------|
F#|--------|---------------------------|-----------------------------------|-----------------------------------|
C#|--------|---------------------------|-----5---5--5----------------------|-----5---5--5----------------------|
G#|--------|-------5---7-------5---7---|---------------5---7-------5---7---|---------------5---7-------5---7---|
D#|--------|---------------------------|-----------------------------------|-----------------------------------|


D#|-----------------------------------|-----------------------------------|-----------------------------------|
A#|-----------------------------------|-----------------------------------|-----------------------------------|
F#|-----------------------------------|-----------------------------------|-----------------------------------|
C#|-----5---5--5----------------------|-----5---5--5----------------------|-----5---5--5----------------------|
G#|---------------5---7-------5---7---|---------------5---7-------5---7---|---------------5---7-------5---7---|
D#|-----------------------------------|-----------------------------------|-----------------------------------|


D#|-----------------------------------|-------------------------------------|--------------------------------|
A#|-----------------------------------|-------------------------------------|--------------------------------|
F#|-----------------------------------|-------------------------------------|--------------------------------|
C#|-----5---5--5----------------------|-----5---5--5------------------14-12-|------------6---7---7---6---7---|
G#|---------------5---7-------5---7---|---------------5---7-------5---------|-14-12-10---6---7---7---6---7---|
D#|-----------------------------------|-------------------------------------|------------4---5---5---4---5---|


D#|---------------------------------|---------------------------------|--------------------|
A#|---------------------------------|---------------------------------|--------------------|
F#|---------------------------------|---------------------------------|--------------------|
C#|-7---6---6---6---7---7---6---7---|-7---5---5---6---7---7---6---7---|-7---5---5----------|
G#|-7---6-------6---7---7---6---7---|-7---5-------6---7---7---6---7---|-7---5--------------|
D#|-5---4---4---4---5---5---4---5---|-5---3---3---4---5---5---4---5---|-5---3---3----------|


D#|---------------------------|---------------------------------|---------------------------------|
A#|---------------------------|---------------------------------|---------------------------------|
F#|---------------------------|---------------------------------|---------------------------------|
C#|-------6---7---7---6---7---|-7---6---6---6---7---7---6---7---|-7---6---6---6---7---7---6---7---|
G#|-------6---7---7---6---7---|-7---6-------6---7---7---6---7---|-7---6-------6---7---7---6---7---|
D#|-------4---5---5---4---5---|-5---4---4---4---5---5---4---5---|-5---4---4---4---5---5---4---5---|


D#|--------------------|---------------------------|---------------------------------|
A#|--------------------|---------------------------|---------------------------------|
F#|--------------------|---------------------------|---------------------------------|
C#|-7---5---5----------|-------6---7---7---6---7---|-7---6---6---6---7---7---6---7---|
G#|-7---5--------------|-------6---7---7---6---7---|-7---6-------6---7---7---6---7---|
D#|-5---3---3----------|-------4---5---5---4---5---|-5---4---4---4---5---5---4---5---|


D#|---------------------------------|--------------------|---------------------------|
A#|---------------------------------|--------------------|---------------------------|
F#|---------------------------------|--------------------|---------------------------|
C#|-7---6---6---6---7---7---6---7---|-7---5---5----------|-------6---7---7---6---7---|
G#|-7---6-------6---7---7---6---7---|-7---5--------------|-------6---7---7---6---7---|
D#|-5---4---4---4---5---5---4---5---|-5---3---3----------|-------4---5---5---4---5---|


D#|---------------------------------|---------------------------------|--------------------|
A#|---------------------------------|---------------------------------|--------------------|
F#|---------------------------------|---------------------------------|--------------------|
C#|-7---6---6---6---7---7---6---7---|-7---6---6---6---7---7---6---7---|-7---5---5----------|
G#|-7---6-------6---7---7---6---7---|-7---6-------6---7---7---6---7---|-7---5--------------|
D#|-5---4---4---4---5---5---4---5---|-5---4---4---4---5---5---4---5---|-5---3---3----------|


D#|---------------------------|--------------------|---------------------------|--------------------|
A#|---------------------------|--------------------|---------------------------|--------------------|
F#|---------------------------|--------------------|---------------------------|--------------------|
C#|-------6---7---7---6---7---|-7---6---6----------|-------6---7---7---6---7---|-7---5---5----------|
G#|-------6---7---7---6---7---|-7---6--------------|-------6---7---7---6---7---|-7---5--------------|
D#|-------4---5---5---4---5---|-5---4---4----------|-------4---5---5---4---5---|-5---3---3----------|


D#|---------------------------|--------------------------------|--------------------------------|
A#|---------------------------|--------------------------------|--------------------------------|
F#|---------------------------|--------------------------------|--------------------------------|
C#|---------------------------|--------------------------------|--------------------------------|
G#|-----------5---5---3---5---|-5--5--3--------5---5---3---5---|-5--5--3--------5---5---3---5---|
D#|---------------------------|--------------------------------|--------------------------------|


D#|--------------------------------|----------------------|
A#|--------------------------------|----------------------|
F#|--------------------------------|----------------------|
C#|--------------------------------|----------------------|
G#|-5--5--3--------5---5---3---5---|-5--5--3---3----------|
D#|--------------------------------|----------------------|





Track 2: Solo Guitar

D#|--------|--------|--------|--------|--------|--------|--------|--------|--------|
A#|--------|--------|--------|--------|--------|--------|--------|--------|--------|
F#|--------|--------|--------|--------|--------|--------|--------|--------|--------|
C#|--------|--------|--------|--------|--------|--------|--------|--------|--------|
G#|--------|--------|--------|--------|--------|--------|--------|--------|--------|
D#|--------|--------|--------|--------|--------|--------|--------|--------|--------|


D#|--------|--------|--------|--------|--------|--------|--------|--------|--------|
A#|--------|--------|--------|--------|--------|--------|--------|--------|--------|
F#|--------|--------|--------|--------|--------|--------|--------|--------|--------|
C#|--------|--------|--------|--------|--------|--------|--------|--------|--------|
G#|--------|--------|--------|--------|--------|--------|--------|--------|--------|
D#|--------|--------|--------|--------|--------|--------|--------|--------|--------|


D#|--------|--------|--------|--------|--------|--------|--------|--------|--------|
A#|--------|--------|--------|--------|--------|--------|--------|--------|--------|
F#|--------|--------|--------|--------|--------|--------|--------|--------|--------|
C#|--------|--------|--------|--------|--------|--------|--------|--------|--------|
G#|--------|--------|--------|--------|--------|--------|--------|--------|--------|
D#|--------|--------|--------|--------|--------|--------|--------|--------|--------|


D#|--------|--------|--------|--------|--------|--------|--------|--------|--------|
A#|--------|--------|--------|--------|--------|--------|--------|--------|--------|
F#|--------|--------|--------|--------|--------|--------|--------|--------|--------|
C#|--------|--------|--------|--------|--------|--------|--------|--------|--------|
G#|--------|--------|--------|--------|--------|--------|--------|--------|--------|
D#|--------|--------|--------|--------|--------|--------|--------|--------|--------|


D#|--------|--------|--------|--------|--------|--------|--------|--------|--------|
A#|--------|--------|--------|--------|--------|--------|--------|--------|--------|
F#|--------|--------|--------|--------|--------|--------|--------|--------|--------|
C#|--------|--------|--------|--------|--------|--------|--------|--------|--------|
G#|--------|--------|--------|--------|--------|--------|--------|--------|--------|
D#|--------|--------|--------|--------|--------|--------|--------|--------|--------|


D#|--------|--------|--------|--------|--------|--------|--------|--------|--------|
A#|--------|--------|--------|--------|--------|--------|--------|--------|--------|
F#|--------|--------|--------|--------|--------|--------|--------|--------|--------|
C#|--------|--------|--------|--------|--------|--------|--------|--------|--------|
G#|--------|--------|--------|--------|--------|--------|--------|--------|--------|
D#|--------|--------|--------|--------|--------|--------|--------|--------|--------|


D#|--------|--------|--------|--------|--------|--------|--------|--------|--------|
A#|--------|--------|--------|--------|--------|--------|--------|--------|--------|
F#|--------|--------|--------|--------|--------|--------|--------|--------|--------|
C#|--------|--------|--------|--------|--------|--------|--------|--------|--------|
G#|--------|--------|--------|--------|--------|--------|--------|--------|--------|
D#|--------|--------|--------|--------|--------|--------|--------|--------|--------|


D#|--------|--------|--------|--------|--------|--------|--------|--------|--------|
A#|--------|--------|--------|--------|--------|--------|--------|--------|--------|
F#|--------|--------|--------|--------|--------|--------|--------|--------|--------|
C#|--------|--------|--------|--------|--------|--------|--------|--------|--------|
G#|--------|--------|--------|--------|--------|--------|--------|--------|--------|
D#|--------|--------|--------|--------|--------|--------|--------|--------|--------|


D#|--------|--------|--------|--------|--------|--------|--------|--------|--------|
A#|--------|--------|--------|--------|--------|--------|--------|--------|--------|
F#|--------|--------|--------|--------|--------|--------|--------|--------|--------|
C#|--------|--------|--------|--------|--------|--------|--------|--------|--------|
G#|--------|--------|--------|--------|--------|--------|--------|--------|--------|
D#|--------|--------|--------|--------|--------|--------|--------|--------|--------|


D#|--------|--------|--------|--------|----------------------------------|----------------------------------------------------------|
A#|--------|--------|--------|--------|----------------------------------|----------------------------------------------------------|
F#|--------|--------|--------|--------|-------11-8-----9--6--------------|----------------------------------------------------------|
C#|--------|--------|--------|--------|-------------9--------7--9--6-----|-6--7--9--10-7--------------12-9-----9--10-12-13-10-------|
G#|--------|--------|--------|--------|-------------------------------7--|----------------8--10-7-----------10----------------11-13-|
D#|--------|--------|--------|--------|----------------------------------|-------------------------8--------------------------------|


D#|------------------------------------------|-----------------------------------|
A#|------------------------------------------|-----------------------------------|
F#|------------------------------------------|-----------------------------------|
C#|------------------------------------------|-----------------------------------|
G#|-10-------------------4---5---5---4---5---|-5---4---5---5---4---5---5---19-19-|
D#|----11-13-13-13-13-13-2---3---3---2---3---|-3---2---3---3---2---3---3---------|


D#|-------------------------------------------------|-------------------------------------------------|
A#|-------------------------------------------------|-------------------------------------------------|
F#|-------------------------------------------------|-------------------------------------------------|
C#|-------------------14-15-14-13-14-13-12-13-14-15-|-14-13-14-13-12-13-14-17-14-13-14-13-12-10-13--12|
G#|-19-19-19-19-19-19-------------------------------|-------------------------------------------------|
D#|-------------------------------------------------|-------------------------------------------------|


D#|-------------------------------------------------|-------------------------------------------------|
A#|-------------------------12----------------------|-------------------------------------------------|
F#|----------------0-----------12-9--9--7--0--7--7--|-5--0--10-10-9--12-9--9--7--0--12-12-10-0--14-14-|
C#|----10-12-12-10----10-10-------------------------|-------------------------------------------------|
G#|-------------------------------------------------|-------------------------------------------------|
D#|-------------------------------------------------|-------------------------------------------------|


D#|-----------------------------------------------|---------------------------------------------------|
A#|-----------------------------------------12-8--|---------------------------------------------------|
F#|-12-0--12-12-10-0--9--11-12--11-12-11-8--------|-8--9--10--8---12--10-11-12-10-12-10--12-12-11-12--|
C#|-----------------------------------------------|---------------------------------------------------|
G#|-----------------------------------------------|---------------------------------------------------|
D#|-----------------------------------------------|---------------------------------------------------|


D#|-----------------------------------------------|---------------------------------------|
A#|-----------------------------------------------|---------------------------------------|
F#|-11-12-11-12-11-12-12-14-0--0--0---14-16-0--0--|-0---16-17-0--0--0---17-19-0---0---0---|
C#|-----------------------------------------------|---------------------------------------|
G#|-----------------------------------------------|---------------------------------------|
D#|-----------------------------------------------|---------------------------------------|


D#|--------------------|--------|--------|--------|--------|--------|--------|--------|
A#|--------------------|--------|--------|--------|--------|--------|--------|--------|
F#|-0---0--------------|--------|--------|--------|--------|--------|--------|--------|
C#|--------------------|--------|--------|--------|--------|--------|--------|--------|
G#|--------------------|--------|--------|--------|--------|--------|--------|--------|
D#|--------------------|--------|--------|--------|--------|--------|--------|--------|


D#|--------|--------|--------|--------|--------|--------|--------|--------|--------|
A#|--------|--------|--------|--------|--------|--------|--------|--------|--------|
F#|--------|--------|--------|--------|--------|--------|--------|--------|--------|
C#|--------|--------|--------|--------|--------|--------|--------|--------|--------|
G#|--------|--------|--------|--------|--------|--------|--------|--------|--------|
D#|--------|--------|--------|--------|--------|--------|--------|--------|--------|


D#|--------|--------|--------|--------|--------|--------|--------|--------|--------|
A#|--------|--------|--------|--------|--------|--------|--------|--------|--------|
F#|--------|--------|--------|--------|--------|--------|--------|--------|--------|
C#|--------|--------|--------|--------|--------|--------|--------|--------|--------|
G#|--------|--------|--------|--------|--------|--------|--------|--------|--------|
D#|--------|--------|--------|--------|--------|--------|--------|--------|--------|


D#|--------|--------|--------|--------|--------|--------|--------|--------|--------|
A#|--------|--------|--------|--------|--------|--------|--------|--------|--------|
F#|--------|--------|--------|--------|--------|--------|--------|--------|--------|
C#|--------|--------|--------|--------|--------|--------|--------|--------|--------|
G#|--------|--------|--------|--------|--------|--------|--------|--------|--------|
D#|--------|--------|--------|--------|--------|--------|--------|--------|--------|


D#|--------|--------|--------|--------|
A#|--------|--------|--------|--------|
F#|--------|--------|--------|--------|
C#|--------|--------|--------|--------|
G#|--------|--------|--------|--------|
D#|--------|--------|--------|--------|





Track 3: Rhytm Guitar

D#|--------|--------|--------|--------|--------|--------|--------|--------|--------|
A#|--------|--------|--------|--------|--------|--------|--------|--------|--------|
F#|--------|--------|--------|--------|--------|--------|--------|--------|--------|
C#|--------|--------|--------|--------|--------|--------|--------|--------|--------|
G#|--------|--------|--------|--------|--------|--------|--------|--------|--------|
D#|--------|--------|--------|--------|--------|--------|--------|--------|--------|


D#|--------|--------|--------|--------|--------|--------|--------|--------|--------|
A#|--------|--------|--------|--------|--------|--------|--------|--------|--------|
F#|--------|--------|--------|--------|--------|--------|--------|--------|--------|
C#|--------|--------|--------|--------|--------|--------|--------|--------|--------|
G#|--------|--------|--------|--------|--------|--------|--------|--------|--------|
D#|--------|--------|--------|--------|--------|--------|--------|--------|--------|


D#|--------|--------|--------|--------|--------|--------|--------|--------|--------|
A#|--------|--------|--------|--------|--------|--------|--------|--------|--------|
F#|--------|--------|--------|--------|--------|--------|--------|--------|--------|
C#|--------|--------|--------|--------|--------|--------|--------|--------|--------|
G#|--------|--------|--------|--------|--------|--------|--------|--------|--------|
D#|--------|--------|--------|--------|--------|--------|--------|--------|--------|


D#|--------|--------|--------|--------|--------|--------|--------|--------|--------|
A#|--------|--------|--------|--------|--------|--------|--------|--------|--------|
F#|--------|--------|--------|--------|--------|--------|--------|--------|--------|
C#|--------|--------|--------|--------|--------|--------|--------|--------|--------|
G#|--------|--------|--------|--------|--------|--------|--------|--------|--------|
D#|--------|--------|--------|--------|--------|--------|--------|--------|--------|


D#|--------|--------|--------|--------|--------|--------|--------|--------|--------|
A#|--------|--------|--------|--------|--------|--------|--------|--------|--------|
F#|--------|--------|--------|--------|--------|--------|--------|--------|--------|
C#|--------|--------|--------|--------|--------|--------|--------|--------|--------|
G#|--------|--------|--------|--------|--------|--------|--------|--------|--------|
D#|--------|--------|--------|--------|--------|--------|--------|--------|--------|


D#|--------|--------|--------|--------|--------|--------|--------|--------|--------|
A#|--------|--------|--------|--------|--------|--------|--------|--------|--------|
F#|--------|--------|--------|--------|--------|--------|--------|--------|--------|
C#|--------|--------|--------|--------|--------|--------|--------|--------|--------|
G#|--------|--------|--------|--------|--------|--------|--------|--------|--------|
D#|--------|--------|--------|--------|--------|--------|--------|--------|--------|


D#|--------|--------|--------|--------|--------|--------|--------|--------|--------|
A#|--------|--------|--------|--------|--------|--------|--------|--------|--------|
F#|--------|--------|--------|--------|--------|--------|--------|--------|--------|
C#|--------|--------|--------|--------|--------|--------|--------|--------|--------|
G#|--------|--------|--------|--------|--------|--------|--------|--------|--------|
D#|--------|--------|--------|--------|--------|--------|--------|--------|--------|


D#|--------|--------|--------|--------|--------|--------|--------|--------|--------|
A#|--------|--------|--------|--------|--------|--------|--------|--------|--------|
F#|--------|--------|--------|--------|--------|--------|--------|--------|--------|
C#|--------|--------|--------|--------|--------|--------|--------|--------|--------|
G#|--------|--------|--------|--------|--------|--------|--------|--------|--------|
D#|--------|--------|--------|--------|--------|--------|--------|--------|--------|


D#|--------|--------|--------|--------|--------|--------|--------|--------|--------|
A#|--------|--------|--------|--------|--------|--------|--------|--------|--------|
F#|--------|--------|--------|--------|--------|--------|--------|--------|--------|
C#|--------|--------|--------|--------|--------|--------|--------|--------|--------|
G#|--------|--------|--------|--------|--------|--------|--------|--------|--------|
D#|--------|--------|--------|--------|--------|--------|--------|--------|--------|


D#|--------|--------|--------|--------|--------|--------|--------|--------|---------------------------|
A#|--------|--------|--------|--------|--------|--------|--------|--------|---------------------------|
F#|--------|--------|--------|--------|--------|--------|--------|--------|-------5---5---5---5---5---|
C#|--------|--------|--------|--------|--------|--------|--------|--------|-------5---5---5---5---5---|
G#|--------|--------|--------|--------|--------|--------|--------|--------|-------3---3---3---3---3---|
D#|--------|--------|--------|--------|--------|--------|--------|--------|---------------------------|


D#|---------------------------------|------------------------------|---------------------------------|
A#|---------------------------------|------------------------------|---------------------------------|
F#|-5---5---5-----------5---5-------|-----5----2---2---2---2---2---|-2---2---2-----------------------|
C#|-5---5---5---5---5---5---5---5---|-5---5----2---2---2---2---2---|-2---2---2-----------5---5-------|
G#|-3---3---3---2---2---2---2---2---|-2---2----0---0---0---0---0---|-0---0---0---5---5---5---5---2---|
D#|---------------------------------|------------------------------|-------------3---3---3---3---3---|


D#|------------------------------|---------------------------------|------------------------------|
A#|----------4---4-------4---4---|-----4---4-----------------------|------------------------------|
F#|----------2---2---2---2---2---|-2---2---2-----------3---3-------|-----3----2---2---2-----------|
C#|-----5----1---1---1---1---1---|-1---1---1---3---3---3---3---3---|-3---3----2---2---2---5---5---|
G#|-2---5----3---3---3---3---3---|-3---3---3---1---1---1---1---1---|-1---1----0---0---0---5---5---|
D#|-3---3----1---1---1---1---1---|-1---1---1-----------------------|----------------------3---3---|


D#|---------------------------------|-----------------------|-------0-----0---|-------5-----5---|
A#|---------------------------------|-------------5-----5---|-------3-----3---|-------5-----5---|
F#|-----2---2---2---4---4---4---5---|-----7---5---5-----5---|-------1-----1---|-------5-----5---|
C#|-5---2---2---2---4---4---4---5---|-----7---5---5-----5---|-------0-----0---|-------7-----7---|
G#|-5---0---0---0---2---2---2---3---|-----5---3---3-----3---|-------2-----2---|-------7-----7---|
D#|-3-------------------------------|-----------------------|-------0-----0---|-------5-----5---|


D#|-------0-----0---|-----------------|-----------------|--------|--------|--------|
A#|-------1-----1---|-------4-----4---|-------3-----3---|--------|--------|--------|
F#|-------2-----2---|-------2-----2---|-------3-----3---|--------|--------|--------|
C#|-------2-----2---|-------1-----1---|-------3-----3---|--------|--------|--------|
G#|-------0-----0---|-------3-----3---|-------1-----1---|--------|--------|--------|
D#|-------3-----3---|-------1-----1---|-----------------|--------|--------|--------|


D#|--------|--------|--------|--------|--------|--------|--------|--------|--------|
A#|--------|--------|--------|--------|--------|--------|--------|--------|--------|
F#|--------|--------|--------|--------|--------|--------|--------|--------|--------|
C#|--------|--------|--------|--------|--------|--------|--------|--------|--------|
G#|--------|--------|--------|--------|--------|--------|--------|--------|--------|
D#|--------|--------|--------|--------|--------|--------|--------|--------|--------|


D#|--------|--------|--------|--------|--------|--------|--------|--------|--------|
A#|--------|--------|--------|--------|--------|--------|--------|--------|--------|
F#|--------|--------|--------|--------|--------|--------|--------|--------|--------|
C#|--------|--------|--------|--------|--------|--------|--------|--------|--------|
G#|--------|--------|--------|--------|--------|--------|--------|--------|--------|
D#|--------|--------|--------|--------|--------|--------|--------|--------|--------|


D#|--------|--------|--------|--------|--------|--------|--------|--------|--------|
A#|--------|--------|--------|--------|--------|--------|--------|--------|--------|
F#|--------|--------|--------|--------|--------|--------|--------|--------|--------|
C#|--------|--------|--------|--------|--------|--------|--------|--------|--------|
G#|--------|--------|--------|--------|--------|--------|--------|--------|--------|
D#|--------|--------|--------|--------|--------|--------|--------|--------|--------|


D#|--------|--------|--------|
A#|--------|--------|--------|
F#|--------|--------|--------|
C#|--------|--------|--------|
G#|--------|--------|--------|
D#|--------|--------|--------|





Track 4: Untitled

G|--------|--------|--------|--------|--------|--------|--------|--------|--------|
D|--------|--------|--------|--------|--------|--------|--------|--------|--------|
A|--------|--------|--------|--------|--------|--------|--------|--------|--------|
E|--------|--------|--------|--------|--------|--------|--------|--------|--------|


G|--------|--------|--------|--------|--------|--------|--------|--------|--------|
D|--------|--------|--------|--------|--------|--------|--------|--------|--------|
A|--------|--------|--------|--------|--------|--------|--------|--------|--------|
E|--------|--------|--------|--------|--------|--------|--------|--------|--------|


G|--------|--------|--------|--------|--------|--------|--------|--------|--------|
D|--------|--------|--------|--------|--------|--------|--------|--------|--------|
A|--------|--------|--------|--------|--------|--------|--------|--------|--------|
E|--------|--------|--------|--------|--------|--------|--------|--------|--------|


G|--------|--------|--------|--------|--------|--------|--------|--------|--------|
D|--------|--------|--------|--------|--------|--------|--------|--------|--------|
A|--------|--------|--------|--------|--------|--------|--------|--------|--------|
E|--------|--------|--------|--------|--------|--------|--------|--------|--------|


G|--------|--------|--------|--------|--------|--------|--------|--------|--------|
D|--------|--------|--------|--------|--------|--------|--------|--------|--------|
A|--------|--------|--------|--------|--------|--------|--------|--------|--------|
E|--------|--------|--------|--------|--------|--------|--------|--------|--------|


G|--------|--------|--------|--------|--------|--------|--------|--------|--------|
D|--------|--------|--------|--------|--------|--------|--------|--------|--------|
A|--------|--------|--------|--------|--------|--------|--------|--------|--------|
E|--------|--------|--------|--------|--------|--------|--------|--------|--------|


G|--------|--------|--------|--------|--------|--------|--------|--------|--------|
D|--------|--------|--------|--------|--------|--------|--------|--------|--------|
A|--------|--------|--------|--------|--------|--------|--------|--------|--------|
E|--------|--------|--------|--------|--------|--------|--------|--------|--------|


G|--------|--------|--------|--------|--------|--------|--------|--------|--------|
D|--------|--------|--------|--------|--------|--------|--------|--------|--------|
A|--------|--------|--------|--------|--------|--------|--------|--------|--------|
E|--------|--------|--------|--------|--------|--------|--------|--------|--------|


G|--------|--------|--------|--------|--------|--------|--------|--------|--------|
D|--------|--------|--------|--------|--------|--------|--------|--------|--------|
A|--------|--------|--------|--------|--------|--------|--------|--------|--------|
E|--------|--------|--------|--------|--------|--------|--------|--------|--------|


G|--------|--------|--------|--------|--------|--------|--------|--------|--------|
D|--------|--------|--------|--------|--------|--------|--------|--------|--------|
A|--------|--------|--------|--------|--------|--------|--------|--------|--------|
E|--------|--------|--------|--------|--------|--------|--------|--------|--------|


G|--------|--------|--------|--------|--------|--------|--------|--------|--------|
D|--------|--------|--------|--------|--------|--------|--------|--------|--------|
A|--------|--------|--------|--------|--------|--------|--------|--------|--------|
E|--------|--------|--------|--------|--------|--------|--------|--------|--------|


G|--------|--------|--------|--------|--------|--------|--------|--------|--------|
D|--------|--------|--------|--------|--------|--------|--------|--------|--------|
A|--------|--------|--------|--------|--------|--------|--------|--------|--------|
E|--------|--------|--------|--------|--------|--------|--------|--------|--------|


G|--------|--------|--------|--------|--------|--------|--------|--------|--------|
D|--------|--------|--------|--------|--------|--------|--------|--------|--------|
A|--------|--------|--------|--------|--------|--------|--------|--------|--------|
E|--------|--------|--------|--------|--------|--------|--------|--------|--------|


G|--------|--------|--------|--------|--------|--------|--------|--------|--------|
D|--------|--------|--------|--------|--------|--------|--------|--------|--------|
A|--------|--------|--------|--------|--------|--------|--------|--------|--------|
E|--------|--------|--------|--------|--------|--------|--------|--------|--------|


G|--------|--------|--------|--------|--------|--------|--------|--------|--------|
D|--------|--------|--------|--------|--------|--------|--------|--------|--------|
A|--------|--------|--------|--------|--------|--------|--------|--------|--------|
E|--------|--------|--------|--------|--------|--------|--------|--------|--------|


G|--------|
D|--------|
A|--------|
E|--------|