Menu:

 

Search:

 

nuno bettencourt - i wonder:

 



Title: I Wonder
Artist: 
Album: Schizophonic
Author: Nuno Bettencourt


Track 1: Rhytm Guitar

D#|------3----3----3-----12-12--|-12--12--7----7----7--8--8--8---|-2---2---3----3----3-----12-12--|
A#|------0----0----0-----0--0---|-0---0---0----0----0--0--0--0---|-0---0---0----0----0-----0--0---|
F#|------0----0----0-----0--0---|-0---0---0----0----0--0--0--0---|-0---0---0----0----0-----0--0---|
C#|------0----0----0-----0--0---|-0---0---0----0----0--0--0--0---|-0---0---0----0----0-----0--0---|
G#|------0----0----0-----0--0---|-0---0---0----0----0--0--0--0---|-0---0---0----0----0-----0--0---|
D#|------3----3----3--3--12-12--|-12--12--7----7----7--8--8--8---|-2---2---3----3----3--3--12-12--|


D#|-12--12--7----7----7--8--8--8---|-2---2---3----3----3-----12-12--|-12--12--7----7----7--8--8--8---|
A#|-0---0---0----0----0--0--0--0---|-0---0---0----0----0-----0--0---|-0---0---0----0----0--0--0--0---|
F#|-0---0---0----0----0--0--0--0---|-0---0---0----0----0-----0--0---|-0---0---0----0----0--0--0--0---|
C#|-0---0---0----0----0--0--0--0---|-0---0---0----0----0-----0--0---|-0---0---0----0----0--0--0--0---|
G#|-0---0---0----0----0--0--0--0---|-0---0---0----0----0-----0--0---|-0---0---0----0----0--0--0--0---|
D#|-12--12--7----7----7--8--8--8---|-2---2---3----3----3--3--12-12--|-12--12--7----7----7--8--8--8---|


D#|-2---2-----------------------------|------------------------------------|-------------------------------------|
A#|-0---0-----------2-----------------|-3--------------3-------------------|-2---2--2----------2-----------------|
F#|-0---0-----------2---2-------------|-4---4----------4---4---------------|-3---3--2----------2---2-------------|
C#|-0---0-------2-----------------4---|-----------5----5---------4--4--4---|-4---4--2------2-----------------4---|
G#|-0---0---0--------------0--2-------|--------2--5--------------4--4--4---|-----------0--------------0--2-------|
D#|-2---2-----------------------------|-----------3-----------3--2-----2---|-------------------------------------|


D#|------------------------------------|-------------------------------------|-------------------2---2-------------|
A#|-3--------------3-------------------|-2---2--2----------3-----------------|-2-----------------3---3-------------|
F#|-4---4----------4---4---------------|-3---3--2----------4---4-------------|-2---2---------2-------------4-------|
C#|-----------5----5---------4--4--4---|-4---4--2------4---------------------|-2---------0--------------0--5-------|
G#|--------2--5--------------4--4--4---|-----------2--------------2--0---0---|--------0-----------------0--5-------|
D#|-----------3-----------3--2-----2---|-------------------------------------|---------------------------------3---|


D#|-----------0------|-0----0------|------0----0----0-------|-0-------0----0----0-------|
A#|-3---3-----0------|-0----0------|------0----0----0-------|-0-------0----0----0-------|
F#|-4---4-----3------|-4----3------|------8----8----8-------|-8-------4----4----6-------|
C#|-5---5-----4------|-5----4------|------9----9----9---9---|-9---9---5----5----7---7---|
G#|-----------4------|-5----4------|------9----9----9---9---|-9---9---5----5----7---7---|
D#|--------3--2------|-3----2------|------7----7----7---7---|-7---7---3----3----5---5---|


D#|-0-------0----0----0-------|-0-------0----0----0-------|-0-------0----0----0-------|
A#|-0-------0----0----0-------|-0-------0----0----0-------|-0-------0----0----0-------|
F#|-6-------8----8----8-------|-8-------4----4----6-------|-6-------8----8----8-------|
C#|-7---7---9----9----9---9---|-9---9---5----5----7---7---|-7---7---9----9----9---9---|
G#|-7---7---9----9----9---9---|-9---9---5----5----7---7---|-7---7---9----9----9---9---|
D#|-5---5---7----7----7---7---|-7---7---3----3----5---5---|-5---5---7----7----7---7---|


D#|-0-------0----0----0-------|-0-------0----0----0-------|-0-------0----0----0-------|
A#|-0-------0----0----0-------|-0-------0----0----0-------|-0-------0----0----0-------|
F#|-8-------4----4----6-------|-6-------8----8----8-------|-8-------4----4----6-------|
C#|-9---9---5----5----7---7---|-7---7---9----9----9---9---|-9---9---5----5----7---7---|
G#|-9---9---5----5----7---7---|-7---7---9----9----9---9---|-9---9---5----5----7---7---|
D#|-7---7---3----3----5---5---|-5---5---7----7----7---7---|-7---7---3----3----5---5---|


D#|-0-------3----3----3-----12-12--|-12--12--7----7----7--8--8--8---|-2---2---3----3----3-----12-12--|
A#|-0-------0----0----0-----0--0---|-0---0---0----0----0--0--0--0---|-0---0---0----0----0-----0--0---|
F#|-6-------0----0----0-----0--0---|-0---0---0----0----0--0--0--0---|-0---0---0----0----0-----0--0---|
C#|-7---7---0----0----0-----0--0---|-0---0---0----0----0--0--0--0---|-0---0---0----0----0-----0--0---|
G#|-7---7---0----0----0-----0--0---|-0---0---0----0----0--0--0--0---|-0---0---0----0----0-----0--0---|
D#|-5---5---3----3----3--3--12-12--|-12--12--7----7----7--8--8--8---|-2---2---3----3----3--3--12-12--|


D#|-12--12--7----7----7--8--8--8---|-2---2-----------------------------|------------------------------------|
A#|-0---0---0----0----0--0--0--0---|-0---0-----------2-----------------|-3--------------3-------------------|
F#|-0---0---0----0----0--0--0--0---|-0---0-----------2---2-------------|-4---4----------4---4---------------|
C#|-0---0---0----0----0--0--0--0---|-0---0-------2-----------------4---|-----------5----5---------4--4--4---|
G#|-0---0---0----0----0--0--0--0---|-0---0---0--------------0--2-------|--------2--5--------------4--4--4---|
D#|-12--12--7----7----7--8--8--8---|-2---2-----------------------------|-----------3-----------3--2-----2---|


D#|-------------------------------------|------------------------------------|-------------------------------------|
A#|-2---2--2----------2-----------------|-3--------------3-------------------|-2---2--2----------3-----------------|
F#|-3---3--2----------2---2-------------|-4---4----------4---4---------------|-3---3--2----------4---4-------------|
C#|-4---4--2------2-----------------4---|-----------5----5---------4--4--4---|-4---4--2------4---------------------|
G#|-----------0--------------0--2-------|--------2--5--------------4--4--4---|-----------2--------------2--0---0---|
D#|-------------------------------------|-----------3-----------3--2-----2---|-------------------------------------|


D#|-------------------2---2-------------|-----------0------|-0----0------|------0----0----0-------|
A#|-2-----------------3---3-------------|-3---3-----0------|-0----0------|------0----0----0-------|
F#|-2---2---------2-------------4-------|-4---4-----3------|-4----3------|------8----8----8-------|
C#|-2---------0--------------0--5-------|-5---5-----4------|-5----4------|------9----9----9---9---|
G#|--------0-----------------0--5-------|-----------4------|-5----4------|------9----9----9---9---|
D#|---------------------------------3---|--------3--2------|-3----2------|------7----7----7---7---|


D#|-0-------0----0----0-------|-0-------0----0----0-------|-0-------0----0----0-------|
A#|-0-------0----0----0-------|-0-------0----0----0-------|-0-------0----0----0-------|
F#|-8-------4----4----6-------|-6-------8----8----8-------|-8-------4----4----6-------|
C#|-9---9---5----5----7---7---|-7---7---9----9----9---9---|-9---9---5----5----7---7---|
G#|-9---9---5----5----7---7---|-7---7---9----9----9---9---|-9---9---5----5----7---7---|
D#|-7---7---3----3----5---5---|-5---5---7----7----7---7---|-7---7---3----3----5---5---|


D#|-0-------0----0----0-------|-0-------0----0----0-------|-0-------0----0----0-------|
A#|-0-------0----0----0-------|-0-------0----0----0-------|-0-------0----0----0-------|
F#|-6-------8----8----8-------|-8-------4----4----6-------|-6-------8----8----8-------|
C#|-7---7---9----9----9---9---|-9---9---5----5----7---7---|-7---7---9----9----9---9---|
G#|-7---7---9----9----9---9---|-9---9---5----5----7---7---|-7---7---9----9----9---9---|
D#|-5---5---7----7----7---7---|-7---7---3----3----5---5---|-5---5---7----7----7---7---|


D#|-0-------0----0----0-------|-0-------3----3----3-----12-12--|-12--12--7----7----7--8--8--8---|
A#|-0-------0----0----0-------|-0-------0----0----0-----0--0---|-0---0---0----0----0--0--0--0---|
F#|-8-------4----4----6-------|-6-------0----0----0-----0--0---|-0---0---0----0----0--0--0--0---|
C#|-9---9---5----5----7---7---|-7---7---0----0----0-----0--0---|-0---0---0----0----0--0--0--0---|
G#|-9---9---5----5----7---7---|-7---7---0----0----0-----0--0---|-0---0---0----0----0--0--0--0---|
D#|-7---7---3----3----5---5---|-5---5---3----3----3--3--12-12--|-12--12--7----7----7--8--8--8---|


D#|-2---2---3----3----3-----12-12--|-12--12--7----7----7--8--8--8---|-2---2---2----2---2-----2-------|
A#|-0---0---0----0----0-----0--0---|-0---0---0----0----0--0--0--0---|-0---0---3----3---3--3--3---3---|
F#|-0---0---0----0----0-----0--0---|-0---0---0----0----0--0--0--0---|-0---0---4----4---4--4--3---3---|
C#|-0---0---0----0----0-----0--0---|-0---0---0----0----0--0--0--0---|-0---0--------------------------|
G#|-0---0---0----0----0-----0--0---|-0---0---0----0----0--0--0--0---|-0---0--------------------------|
D#|-2---2---3----3----3--3--12-12--|-12--12--7----7----7--8--8--8---|-2---2--------------------------|


D#|-2---2--2--2--2----2---2--2--2--2------|-2---2--3-------3---3-------------|-3---3-----2-------2---2-----0--0------|
A#|-3---3--3--3--3----3---3--3--3--3--3---|-3---3--3--3----3---3-------------|-2---2-----3-------3---3-----2--2------|
F#|-3---3-----2-------2---2--2--1--1--1---|-1---1-----0----0---0-------------|-0---0--0--2---2---2---2--2--3--3--3---|
C#|---------------------------------------|-----------0----0---0--0--2---2---|-2---2--0--0---0---0---0--0--4--4--4---|
G#|---------------------------------------|-----------------------0--0---0---|-0---0---------------------------------|
D#|---------------------------------------|----------------------------------|---------------------------------------|


D#|-0---0-----2----2---2-----2-------|-2---2--2--2--2----2---2--2--2--2------|-2---2--3-------3---3-------------|
A#|-2---2--2--3----3---3--3--3---3---|-3---3--3--3--3----3---3--3--3--3--3---|-3---3--3--3----3---3-------------|
F#|-3---3--3--4----4---4--4--3---3---|-3---3-----2-------2---2--2--1--1--1---|-1---1-----0----0---0-------------|
C#|-4---4--4-------------------------|---------------------------------------|-----------0----0---0--0--2---2---|
G#|----------------------------------|---------------------------------------|-----------------------0--0---0---|
D#|----------------------------------|---------------------------------------|----------------------------------|


D#|-3---3-----2----2---2-----2-------|-2---2-----0----0----0-------|-0-------0----0----0-------|
A#|-2---2-----3----3---3-----3-------|-3---3-----0----0----0-------|-0-------0----0----0-------|
F#|-0---0--0--2----2---2--2--2---2---|-2---2--2--8----8----8-------|-8-------4----4----6-------|
C#|-2---2--0--0----0---0--0--0---0---|-0---0--0--9----9----9---9---|-9---9---5----5----7---7---|
G#|-0---0----------------------------|-----------9----9----9---9---|-9---9---5----5----7---7---|
D#|----------------------------------|-----------7----7----7---7---|-7---7---3----3----5---5---|


D#|-0-------0----0----0-------|-0-------0----0----0-------|-0-------0----0----0-------|
A#|-0-------0----0----0-------|-0-------0----0----0-------|-0-------0----0----0-------|
F#|-6-------8----8----8-------|-8-------4----4----6-------|-6-------8----8----8-------|
C#|-7---7---9----9----9---9---|-9---9---5----5----7---7---|-7---7---9----9----9---9---|
G#|-7---7---9----9----9---9---|-9---9---5----5----7---7---|-7---7---9----9----9---9---|
D#|-5---5---7----7----7---7---|-7---7---3----3----5---5---|-5---5---7----7----7---7---|


D#|-0-------0----0----0-------|-0-------0----0----0-------|-0-------0----0----0-------|
A#|-0-------0----0----0-------|-0-------0----0----0-------|-0-------0----0----0-------|
F#|-8-------4----4----6-------|-6-------8----8----8-------|-8-------4----4----6-------|
C#|-9---9---5----5----7---7---|-7---7---9----9----9---9---|-9---9---5----5----7---7---|
G#|-9---9---5----5----7---7---|-7---7---9----9----9---9---|-9---9---5----5----7---7---|
D#|-7---7---3----3----5---5---|-5---5---7----7----7---7---|-7---7---3----3----5---5---|


D#|-0-------3----3----3-----12-12--|-12--12--7----7----7--8--8--8---|-2---2---3----3----3-----12-12--|
A#|-0-------0----0----0-----0--0---|-0---0---0----0----0--0--0--0---|-0---0---0----0----0-----0--0---|
F#|-6-------0----0----0-----0--0---|-0---0---0----0----0--0--0--0---|-0---0---0----0----0-----0--0---|
C#|-7---7---0----0----0-----0--0---|-0---0---0----0----0--0--0--0---|-0---0---0----0----0-----0--0---|
G#|-7---7---0----0----0-----0--0---|-0---0---0----0----0--0--0--0---|-0---0---0----0----0-----0--0---|
D#|-5---5---3----3----3--3--12-12--|-12--12--7----7----7--8--8--8---|-2---2---3----3----3--3--12-12--|


D#|-12--12--7----7----7--8--8--8---|-2---2---2----2---2-----2-------|-2---2--2--2--2----2---2--2--2--2------|
A#|-0---0---0----0----0--0--0--0---|-0---0---3----3---3--3--3---3---|-3---3--3--3--3----3---3--3--3--3--3---|
F#|-0---0---0----0----0--0--0--0---|-0---0---4----4---4--4--3---3---|-3---3-----2-------2---2--2--1--1--1---|
C#|-0---0---0----0----0--0--0--0---|-0---0--------------------------|---------------------------------------|
G#|-0---0---0----0----0--0--0--0---|-0---0--------------------------|---------------------------------------|
D#|-12--12--7----7----7--8--8--8---|-2---2--------------------------|---------------------------------------|


D#|-2---2--3-------3---3-------------|-3---3-----2-------2---2-----0--0------|-0---0-----2----2---2-----2-------|
A#|-3---3--3--3----3---3-------------|-2---2-----3-------3---3-----2--2------|-2---2--2--3----3---3--3--3---3---|
F#|-1---1-----0----0---0-------------|-0---0--0--2---2---2---2--2--3--3--3---|-3---3--3--4----4---4--4--3---3---|
C#|-----------0----0---0--0--2---2---|-2---2--0--0---0---0---0--0--4--4--4---|-4---4--4-------------------------|
G#|-----------------------0--0---0---|-0---0---------------------------------|----------------------------------|
D#|----------------------------------|---------------------------------------|----------------------------------|


D#|-2---2--2--2--2----2---2--2--2--2------|-2---2--3-------3---3-------------|-3---3-----2-------2---2-----0--0------|
A#|-3---3--3--3--3----3---3--3--3--3--3---|-3---3--3--3----3---3-------------|-2---2-----3-------3---3-----2--2------|
F#|-3---3-----2-------2---2--2--1--1--1---|-1---1-----0----0---0-------------|-0---0--0--2---2---2---2--2--3--3--3---|
C#|---------------------------------------|-----------0----0---0--0--2---2---|-2---2--0--0---0---0---0--0--4--4--4---|
G#|---------------------------------------|-----------------------0--0---0---|-0---0---------------------------------|
D#|---------------------------------------|----------------------------------|---------------------------------------|


D#|-0---0------------|
A#|-2---2--2---------|
F#|-3---3--3---------|
C#|-4---4--4---------|
G#|------------------|
D#|------------------|





Track 2: Flute

D#|--------|--------|--------|--------|--------|--------|--------|--------|--------|
A#|--------|--------|--------|--------|--------|--------|--------|--------|--------|
F#|--------|--------|--------|--------|--------|--------|--------|--------|--------|
C#|--------|--------|--------|--------|--------|--------|--------|--------|--------|
G#|--------|--------|--------|--------|--------|--------|--------|--------|--------|
D#|--------|--------|--------|--------|--------|--------|--------|--------|--------|


D#|--------|--------|--------|--------|--------|--------|--------|--------|--------|
A#|--------|--------|--------|--------|--------|--------|--------|--------|--------|
F#|--------|--------|--------|--------|--------|--------|--------|--------|--------|
C#|--------|--------|--------|--------|--------|--------|--------|--------|--------|
G#|--------|--------|--------|--------|--------|--------|--------|--------|--------|
D#|--------|--------|--------|--------|--------|--------|--------|--------|--------|


D#|--------|--------|--------|--------|--------|--------|--------|--------|--------|
A#|--------|--------|--------|--------|--------|--------|--------|--------|--------|
F#|--------|--------|--------|--------|--------|--------|--------|--------|--------|
C#|--------|--------|--------|--------|--------|--------|--------|--------|--------|
G#|--------|--------|--------|--------|--------|--------|--------|--------|--------|
D#|--------|--------|--------|--------|--------|--------|--------|--------|--------|


D#|--------|--------|--------|-----------------|--------------------|------------------|
A#|--------|--------|--------|------15----14---|------14--15----15--|-15---------------|
F#|--------|--------|--------|-----------------|--------------------|-16---16----15----|
C#|--------|--------|--------|-----------------|--------------------|------------------|
G#|--------|--------|--------|-----------------|--------------------|------------------|
D#|--------|--------|--------|-----------------|--------------------|------------------|


D#|----------------|----------------|--------|--------|--------|--------|--------|
A#|----------------|----------------|--------|--------|--------|--------|--------|
F#|-16---16-15-----|----------------|--------|--------|--------|--------|--------|
C#|----------------|----------------|--------|--------|--------|--------|--------|
G#|----------------|----------------|--------|--------|--------|--------|--------|
D#|----------------|----------------|--------|--------|--------|--------|--------|


D#|--------|--------|-------------|-------------|-------------|-------------|--------|
A#|--------|--------|-------------|-------------|-------------|-------------|--------|
F#|--------|--------|------12-----|------12-----|------12-----|------12-----|--------|
C#|--------|--------|-------------|-------------|-------------|-------------|--------|
G#|--------|--------|-------------|-------------|-------------|-------------|--------|
D#|--------|--------|-------------|-------------|-------------|-------------|--------|


D#|--------|--------|--------|--------|--------|--------|--------|--------|--------|
A#|--------|--------|--------|--------|--------|--------|--------|--------|--------|
F#|--------|--------|--------|--------|--------|--------|--------|--------|--------|
C#|--------|--------|--------|--------|--------|--------|--------|--------|--------|
G#|--------|--------|--------|--------|--------|--------|--------|--------|--------|
D#|--------|--------|--------|--------|--------|--------|--------|--------|--------|


D#|--------|--------|--------|--------|--------|--------|--------|--------|--------|
A#|--------|--------|--------|--------|--------|--------|--------|--------|--------|
F#|--------|--------|--------|--------|--------|--------|--------|--------|--------|
C#|--------|--------|--------|--------|--------|--------|--------|--------|--------|
G#|--------|--------|--------|--------|--------|--------|--------|--------|--------|
D#|--------|--------|--------|--------|--------|--------|--------|--------|--------|


D#|--------|-----------------|-----------------|-----------------|-----------------|
A#|--------|-----------------|-----------------|-----------------|-----------------|
F#|--------|------16----15---|------14----13---|------12----12---|-12---14----15---|
C#|--------|------16----14---|------16----12---|------12----12---|-11---12----11---|
G#|--------|-----------------|-----------------|-----------------|-----------------|
D#|--------|-----------------|-----------------|-----------------|-----------------|


D#|-----------------|-----------------|-----------------|-----------------|--------|
A#|------15----17---|------19----15---|------15----15---|-14---15----14---|--------|
F#|------16----15---|------14----13---|------12----14---|-14---11----15---|--------|
C#|------12----12---|------12----12---|------12----12---|-11---12----11---|--------|
G#|-----------------|-----------------|-----------------|-----------------|--------|
D#|-----------------|-----------------|-----------------|-----------------|--------|





Track 3: Solo Guitar

D#|--------|--------|--------|--------|--------|--------|--------|--------|--------|
A#|--------|--------|--------|--------|--------|--------|--------|--------|--------|
F#|--------|--------|--------|--------|--------|--------|--------|--------|--------|
C#|--------|--------|--------|--------|--------|--------|--------|--------|--------|
G#|--------|--------|--------|--------|--------|--------|--------|--------|--------|
D#|--------|--------|--------|--------|--------|--------|--------|--------|--------|


D#|--------|--------|--------|--------|--------|--------|--------|--------|--------|
A#|--------|--------|--------|--------|--------|--------|--------|--------|--------|
F#|--------|--------|--------|--------|--------|--------|--------|--------|--------|
C#|--------|--------|--------|--------|--------|--------|--------|--------|--------|
G#|--------|--------|--------|--------|--------|--------|--------|--------|--------|
D#|--------|--------|--------|--------|--------|--------|--------|--------|--------|


D#|--------|--------|--------|--------|--------|--------|--------|--------|--------|
A#|--------|--------|--------|--------|--------|--------|--------|--------|--------|
F#|--------|--------|--------|--------|--------|--------|--------|--------|--------|
C#|--------|--------|--------|--------|--------|--------|--------|--------|--------|
G#|--------|--------|--------|--------|--------|--------|--------|--------|--------|
D#|--------|--------|--------|--------|--------|--------|--------|--------|--------|


D#|--------|--------|--------|--------|--------|--------|--------|--------|--------|
A#|--------|--------|--------|--------|--------|--------|--------|--------|--------|
F#|--------|--------|--------|--------|--------|--------|--------|--------|--------|
C#|--------|--------|--------|--------|--------|--------|--------|--------|--------|
G#|--------|--------|--------|--------|--------|--------|--------|--------|--------|
D#|--------|--------|--------|--------|--------|--------|--------|--------|--------|


D#|--------|--------|--------|--------|--------|--------|--------|--------|--------|
A#|--------|--------|--------|--------|--------|--------|--------|--------|--------|
F#|--------|--------|--------|--------|--------|--------|--------|--------|--------|
C#|--------|--------|--------|--------|--------|--------|--------|--------|--------|
G#|--------|--------|--------|--------|--------|--------|--------|--------|--------|
D#|--------|--------|--------|--------|--------|--------|--------|--------|--------|


D#|--------|------------------------|------------------------------------|-------------------------------------------|
A#|--------|------------------------|------------------------------------|-------------------------------------------|
F#|--------|------------------------|------------------------------------|--------------------------------14---------|
C#|--------|------14---14---14--14--|-14--14-9--14---14-14-14--1214--14--|-14-14-12-14-12-12-12-12-12-14--14-14--14--|
G#|--------|------------------------|------------------------------------|-------------------------------------------|
D#|--------|------------------------|------------------------------------|-------------------------------------------|


D#|----------------------------------------------|--------------------------------------------------|
A#|----------------------------------------------|-11-1211---11-12-11-12-12-14-12-14-14-15-14-15-15-|
F#|-----------------14--14-14-14-14-----------11-|--------13----------------------------------------|
C#|-14-14-12-11-12-------------------------11----|--------------------------------------------------|
G#|----------------------------------9--13-------|--------------------------------------------------|
D#|----------------------------------------------|--------------------------------------------------|


D#|--------------------1517-----------------------|-17-17----------------------------------------------|
A#|-17-15-17-17-17--17-17--17-17-17-15-17--17-1717|----17-17-15-17-17-17-17-15-17-1517151715-14-15-14--|
F#|-----------------------------------------------|----------------------------------------------------|
C#|-----------------------------------------------|----------------------------------------------------|
G#|-----------------------------------------------|----------------------------------------------------|
D#|-----------------------------------------------|----------------------------------------------------|


D#|------------------17--17--17--17-17-17-17-17-|-7--------------|--------|--------|
A#|-1717-1715-14-15-----------------------------|----------------|--------|--------|
F#|---------------------------------------------|----------------|--------|--------|
C#|---------------------------------------------|----------------|--------|--------|
G#|---------------------------------------------|----------------|--------|--------|
D#|---------------------------------------------|----------------|--------|--------|


D#|--------|--------|--------|--------|--------|--------|--------|--------|--------|
A#|--------|--------|--------|--------|--------|--------|--------|--------|--------|
F#|--------|--------|--------|--------|--------|--------|--------|--------|--------|
C#|--------|--------|--------|--------|--------|--------|--------|--------|--------|
G#|--------|--------|--------|--------|--------|--------|--------|--------|--------|
D#|--------|--------|--------|--------|--------|--------|--------|--------|--------|


D#|--------|--------|--------|--------|--------|--------|--------|--------|--------|
A#|--------|--------|--------|--------|--------|--------|--------|--------|--------|
F#|--------|--------|--------|--------|--------|--------|--------|--------|--------|
C#|--------|--------|--------|--------|--------|--------|--------|--------|--------|
G#|--------|--------|--------|--------|--------|--------|--------|--------|--------|
D#|--------|--------|--------|--------|--------|--------|--------|--------|--------|





Track 4: Untitled

G|--------|--------|--------|--------|--------|--------|--------|--------|--------|
D|--------|--------|--------|--------|--------|--------|--------|--------|--------|
A|--------|--------|--------|--------|--------|--------|--------|--------|--------|
E|--------|--------|--------|--------|--------|--------|--------|--------|--------|


G|--------|--------|--------|--------|--------|--------|--------|--------|--------|
D|--------|--------|--------|--------|--------|--------|--------|--------|--------|
A|--------|--------|--------|--------|--------|--------|--------|--------|--------|
E|--------|--------|--------|--------|--------|--------|--------|--------|--------|


G|--------|--------|--------|--------|--------|--------|--------|--------|--------|
D|--------|--------|--------|--------|--------|--------|--------|--------|--------|
A|--------|--------|--------|--------|--------|--------|--------|--------|--------|
E|--------|--------|--------|--------|--------|--------|--------|--------|--------|


G|--------|--------|--------|--------|--------|--------|--------|--------|--------|
D|--------|--------|--------|--------|--------|--------|--------|--------|--------|
A|--------|--------|--------|--------|--------|--------|--------|--------|--------|
E|--------|--------|--------|--------|--------|--------|--------|--------|--------|


G|--------|--------|--------|--------|--------|--------|--------|--------|--------|
D|--------|--------|--------|--------|--------|--------|--------|--------|--------|
A|--------|--------|--------|--------|--------|--------|--------|--------|--------|
E|--------|--------|--------|--------|--------|--------|--------|--------|--------|


G|--------|--------|--------|--------|--------|--------|--------|--------|--------|
D|--------|--------|--------|--------|--------|--------|--------|--------|--------|
A|--------|--------|--------|--------|--------|--------|--------|--------|--------|
E|--------|--------|--------|--------|--------|--------|--------|--------|--------|


G|--------|--------|--------|--------|--------|--------|--------|--------|--------|
D|--------|--------|--------|--------|--------|--------|--------|--------|--------|
A|--------|--------|--------|--------|--------|--------|--------|--------|--------|
E|--------|--------|--------|--------|--------|--------|--------|--------|--------|


G|--------|--------|--------|--------|--------|--------|--------|--------|--------|
D|--------|--------|--------|--------|--------|--------|--------|--------|--------|
A|--------|--------|--------|--------|--------|--------|--------|--------|--------|
E|--------|--------|--------|--------|--------|--------|--------|--------|--------|


G|--------|--------|--------|
D|--------|--------|--------|
A|--------|--------|--------|
E|--------|--------|--------|