Menu:

 

Search:

 

nuno bettencourt - gravity:

 



Title: Gravity
Artist: 
Album: Schizophonic
Author: Nuno Bettencourt


Track 1: Guitar 1

D#|--------|--------|--------|--------|-------------------------------------------|
A#|--------|--------|--------|--------|-------------------------------------------|
F#|--------|--------|--------|--------|-------------------------------------------|
C#|--------|--------|--------|--------|-------------------------------------------|
G#|--------|--------|--------|--------|-0---0---0---0--0--3--0--0--5--0--0--5--5--|
D#|--------|--------|--------|--------|-------------------------------------------|


D#|---------------------------------------------|---------------------------------------------|
A#|---------------------------------------------|---------------------------------------------|
F#|---------------------------------------------|---------------------------------------------|
C#|---------------------------------------------|---------------------------------------------|
G#|-5--3--0---0---0--0--3--0--0--5--0--0--5--5--|-5--3--0---0---0--0--3--0--0--5--0--0--5--5--|
D#|---------------------------------------------|---------------------------------------------|


D#|---------------------------------------------|--------|--------|--------|--------|
A#|---------------------------------------------|--------|--------|--------|--------|
F#|---------------------------------------------|--------|--------|--------|--------|
C#|---------------------------------------------|--------|--------|--------|--------|
G#|-5--3--0---0---0--0--3--0--0--5--0--0--5--5--|--------|--------|--------|--------|
D#|---------------------------------------------|--------|--------|--------|--------|


D#|-------------------------------------------|---------------------------------------------|
A#|-------------------------------------------|---------------------------------------------|
F#|-------------------------------------------|---------------------------------------------|
C#|-------------------------------------------|---------------------------------------------|
G#|-0---0---0---0--0--3--0--0--5--0--0--5--5--|-5--3--0---0---0--0--3--0--0--5--0--0--5--5--|
D#|-------------------------------------------|---------------------------------------------|


D#|---------------------------------------------|---------------------------------------------|
A#|---------------------------------------------|---------------------------------------------|
F#|---------------------------------------------|---------------------------------------------|
C#|---------------------------------------------|---------------------------------------------|
G#|-5--3--0---0---0--0--3--0--0--5--0--0--5--5--|-5--3--0---0---0--0--3--0--0--5--0--0--5--5--|
D#|---------------------------------------------|---------------------------------------------|


D#|-------------------------------|---------------------------|---------------------------|
A#|-------------------------------|---------------------------|---------------------------|
F#|-2----2-------9--9------5--5---|-5--------9--9------7--7---|-7--------9--9------10-10--|
C#|-2----2-------9--9------5--5---|-5--------9--9------7--7---|-7--------9--9------10-10--|
G#|-0----0-------7--7------3--3---|-3--------7--7------5--5---|-5--------7--7------8--8---|
D#|-------------------------------|---------------------------|---------------------------|


D#|---------------------------|-------------------------------|---------------------------|
A#|---------------------------|-------------------------------|---------------------------|
F#|-10-------5--5-------------|-2----2-------9--9------5--5---|-5--------9--9------7--7---|
C#|-10-------5--5------5--5---|-2----2-------9--9------5--5---|-5--------9--9------7--7---|
G#|-8--------3--3------5--5---|-0----0-------7--7------3--3---|-3--------7--7------5--5---|
D#|--------------------3--3---|-------------------------------|---------------------------|


D#|---------------------------|---------------------------|--------|--------|--------|
A#|---------------------------|---------------------------|--------|--------|--------|
F#|-7--------9--9------10-10--|-10-------5--5-------------|--------|--------|--------|
C#|-7--------9--9------10-10--|-10-------5--5------5--5---|--------|--------|--------|
G#|-5--------7--7------8--8---|-8--------3--3------5--5---|--------|--------|--------|
D#|---------------------------|--------------------3--3---|--------|--------|--------|


D#|--------|-------------------------------------------|---------------------------------------------|
A#|--------|-------------------------------------------|---------------------------------------------|
F#|--------|-------------------------------------------|---------------------------------------------|
C#|--------|-------------------------------------------|---------------------------------------------|
G#|--------|-0---0---0---0--0--3--0--0--5--0--0--5--5--|-5--3--0---0---0--0--3--0--0--5--0--0--5--5--|
D#|--------|-------------------------------------------|---------------------------------------------|


D#|---------------------------------------------|---------------------------------------------|
A#|---------------------------------------------|---------------------------------------------|
F#|---------------------------------------------|---------------------------------------------|
C#|---------------------------------------------|---------------------------------------------|
G#|-5--3--0---0---0--0--3--0--0--5--0--0--5--5--|-5--3--0---0---0--0--3--0--0--5--0--0--5--5--|
D#|---------------------------------------------|---------------------------------------------|


D#|--------|--------|--------|--------|-------------------------------------------|
A#|--------|--------|--------|--------|-------------------------------------------|
F#|--------|--------|--------|--------|-------------------------------------------|
C#|--------|--------|--------|--------|-------------------------------------------|
G#|--------|--------|--------|--------|-0---0---0---0--0--3--0--0--5--0--0--5--5--|
D#|--------|--------|--------|--------|-------------------------------------------|


D#|---------------------------------------------|---------------------------------------------|
A#|---------------------------------------------|---------------------------------------------|
F#|---------------------------------------------|---------------------------------------------|
C#|---------------------------------------------|---------------------------------------------|
G#|-5--3--0---0---0--0--3--0--0--5--0--0--5--5--|-5--3--0---0---0--0--3--0--0--5--0--0--5--5--|
D#|---------------------------------------------|---------------------------------------------|


D#|---------------------------------------------|-------------------------------|---------------------------|
A#|---------------------------------------------|-------------------------------|---------------------------|
F#|---------------------------------------------|-2----2-------9--9------5--5---|-5--------9--9------7--7---|
C#|---------------------------------------------|-2----2-------9--9------5--5---|-5--------9--9------7--7---|
G#|-5--3--0---0---0--0--3--0--0--5--0--0--5--5--|-0----0-------7--7------3--3---|-3--------7--7------5--5---|
D#|---------------------------------------------|-------------------------------|---------------------------|


D#|---------------------------|---------------------------|-------------------------------|
A#|---------------------------|---------------------------|-------------------------------|
F#|-7--------9--9------10-10--|-10-------5--5-------------|-2----2-------9--9------5--5---|
C#|-7--------9--9------10-10--|-10-------5--5------5--5---|-2----2-------9--9------5--5---|
G#|-5--------7--7------8--8---|-8--------3--3------5--5---|-0----0-------7--7------3--3---|
D#|---------------------------|--------------------3--3---|-------------------------------|


D#|---------------------------|---------------------------|---------------------------|
A#|---------------------------|---------------------------|---------------------------|
F#|-5--------9--9------7--7---|-7--------9--9------10-10--|-10-------5--5-------------|
C#|-5--------9--9------7--7---|-7--------9--9------10-10--|-10-------5--5------5--5---|
G#|-3--------7--7------5--5---|-5--------7--7------8--8---|-8--------3--3------5--5---|
D#|---------------------------|---------------------------|--------------------3--3---|


D#|-------------------------------------------------|-------------------------------------------------|
A#|-3--3--3--3--3--3--3--3--3--3--3--3--3--3--3--3--|-3--3--3--3--3--3--3--3--3--3--3--3--3--3--3--3--|
F#|-0--0--0--0--0--0--0--0--0--0--0--0--0--0--0--0--|-0--0--0--0--0--0--0--0--0--0--0--0--0--0--0--0--|
C#|-2--2--2--2--2--2--2--2--2--2--2--2--2--2--2--2--|-0--0--0--0--0--0--0--0--0--0--0--0--0--0--0--0--|
G#|-------------------------------------------------|-------------------------------------------------|
D#|-------------------------------------------------|-------------------------------------------------|


D#|-3--3--3--3--3---3--3--3---3--3--3--3--3--3--|-------------------------------------------------|
A#|-2--2--2--2--2---2--2--2---2--2--2--2--2--2--|-3--3--3--3--3--3--3--3--3--3--3--3--3--3--3--3--|
F#|-2--2--2--2--2---2--2--2---2--2--2--2--2--2--|-0--0--0--0--0--0--0--0--0--0--0--0--0--0--0--0--|
C#|-2--2--2--2--2---2--2--2---2--2--2--2--2--2--|-2--2--2--2--2--2--2--2--2--2--2--2--2--2--2--2--|
G#|---------------------------------------------|-------------------------------------------------|
D#|---------------------------------------------|-------------------------------------------------|


D#|-------------------------------------------------|-3--3--3--3--3---3--3--3---3--3--3--3--3--3--|
A#|-3--3--3--3--3--3--3--3--3--3--3--3--3--3--3--3--|-2--2--2--2--2---2--2--2---2--2--2--2--2--2--|
F#|-0--0--0--0--0--0--0--0--0--0--0--0--0--0--0--0--|-2--2--2--2--2---2--2--2---2--2--2--2--2--2--|
C#|-0--0--0--0--0--0--0--0--0--0--0--0--0--0--0--0--|-2--2--2--2--2---2--2--2---2--2--2--2--2--2--|
G#|-------------------------------------------------|---------------------------------------------|
D#|-------------------------------------------------|---------------------------------------------|


D#|-------------------------------------------------|-------------------------------------------------|
A#|-3--3--3--3--3--3--3--3--3--3--3--3--3--3--3--3--|-3--3--3--3--3--3--3--3--3--3--3--3--3--3--3--3--|
F#|-0--0--0--0--0--0--0--0--0--0--0--0--0--0--0--0--|-0--0--0--0--0--0--0--0--0--0--0--0--0--0--0--0--|
C#|-2--2--2--2--2--2--2--2--2--2--2--2--2--2--2--2--|-0--0--0--0--0--0--0--0--0--0--0--0--0--0--0--0--|
G#|-------------------------------------------------|-------------------------------------------------|
D#|-------------------------------------------------|-------------------------------------------------|


D#|-3--3--3--3--3---3--3--3---3--3--3--3--3--3--|-------------------------------------------------|
A#|-2--2--2--2--2---2--2--2---2--2--2--2--2--2--|-3--3--3--3--3--3--3--3--3--3--3--3--3--3--3--3--|
F#|-2--2--2--2--2---2--2--2---2--2--2--2--2--2--|-0--0--0--0--0--0--0--0--0--0--0--0--0--0--0--0--|
C#|-2--2--2--2--2---2--2--2---2--2--2--2--2--2--|-2--2--2--2--2--2--2--2--2--2--2--2--2--2--2--2--|
G#|---------------------------------------------|-------------------------------------------------|
D#|---------------------------------------------|-------------------------------------------------|


D#|-------------------------------------------------|-----------------------------------------|
A#|-3--3--3--3--3--3--3--3--3--3--3--3--3--3--3--3--|-----------------------------------------|
F#|-0--0--0--0--0--0--0--0--0--0--0--0--0--0--0--0--|-----------------------------------------|
C#|-0--0--0--0--0--0--0--0--0--0--0--0--0--0--0--0--|-----------------------------------------|
G#|-------------------------------------------------|-0---0---0---0---------------------------|
D#|-------------------------------------------------|----------------3-----3--3--3--3---3--3--|


D#|-------------------------------------------|-------------------------------------------|
A#|-------------------------------------------|-------------------------------------------|
F#|-------------------------------------------|-------------------------------------------|
C#|-------------------------------------------|-------------------------------------------|
G#|---------------------3--0--0--5--0--6--5---|-5--3--0---0---0--0------------------------|
D#|-2---2--2--2---2--2------------------------|------------------------3--3--3--3---3--3--|


D#|---------------------------------------|---------------------------------------|
A#|---------------------------------------|---------------------------------------|
F#|---------------------------------------|---------------------------------------|
C#|---------------------------------------|---------------------------------------|
G#|-----------------3--0--0--5--0--6--5---|-5--3--0---0---0-----------------------|
D#|-2---2---2---2-------------------------|------------------3--3--3--3---3---3---|


D#|-------------------------------------------|-----------------------------------------|
A#|-------------------------------------------|-----------------------------------------|
F#|-------------------------------------------|-----------------------------------------|
C#|-------------------------------------------|-----------------------------------------|
G#|---------------------3--0--0--5--0--6--5---|-5--3--0---0---0--0----------------------|
D#|-2---2--2--2---2--2------------------------|------------------------3--3---3---3--3--|


D#|---------------------------------------|--------|--------|--------|--------|--------|
A#|---------------------------------------|--------|--------|--------|--------|--------|
F#|---------------------------------------|--------|--------|--------|--------|--------|
C#|---------------------------------------|--------|--------|--------|--------|--------|
G#|-----------------3--0--0--5--0--6--5---|--------|--------|--------|--------|--------|
D#|-2---2---2---2-------------------------|--------|--------|--------|--------|--------|


D#|--------|--------|--------|--------|--------|--------|-------------------------------|
A#|--------|--------|--------|--------|--------|--------|-------------------------------|
F#|--------|--------|--------|--------|--------|--------|-------------------------------|
C#|--------|--------|--------|--------|--------|--------|-------------------------------|
G#|--------|--------|--------|--------|--------|--------|-------3--0--0--5--0--0--5--5--|
D#|--------|--------|--------|--------|--------|--------|-------------------------------|


D#|-------------------------------------------|---------------------------------------------|
A#|-------------------------------------------|---------------------------------------------|
F#|-------------------------------------------|---------------------------------------------|
C#|-------------------------------------------|---------------------------------------------|
G#|-0---0---0---0--0--3--0--0--5--0--0--5--5--|-5--3--0---0---0--0--3--0--0--5--0--0--5--5--|
D#|-------------------------------------------|---------------------------------------------|


D#|---------------------------------------------|---------------------------------------------|
A#|---------------------------------------------|---------------------------------------------|
F#|---------------------------------------------|---------------------------------------------|
C#|---------------------------------------------|---------------------------------------------|
G#|-5--3--0---0---0--0--3--0--0--5--0--0--5--5--|-5--3--0---0---0--0--3--0--0--5--0--0--5--5--|
D#|---------------------------------------------|---------------------------------------------|


D#|-------------------------------------------|---------------------------------------------|
A#|-------------------------------------------|---------------------------------------------|
F#|-------------------------------------------|---------------------------------------------|
C#|-------------------------------------------|---------------------------------------------|
G#|-0---0---0---0--0--3--0--0--5--0--0--5--5--|-5--3--0---0---0--0--3--0--0--5--0--0--5--5--|
D#|-------------------------------------------|---------------------------------------------|


D#|---------------------------------------------|-------------------------------------------|
A#|---------------------------------------------|-------------------------------------------|
F#|---------------------------------------------|-------------------------------------------|
C#|---------------------------------------------|-------------------------------------------|
G#|-5--3--0---0---0--0--3--0--0--5--0--0--5--5--|-5--3--0---0---0--0--3--0--0--5--0--0--5---|
D#|---------------------------------------------|-------------------------------------------|





Track 2: Guitar 2

D#|--------|--------|--------|--------|--------|--------|--------|--------|--------|
A#|--------|--------|--------|--------|--------|--------|--------|--------|--------|
F#|--------|--------|--------|--------|--------|--------|--------|--------|--------|
C#|--------|--------|--------|--------|--------|--------|--------|--------|--------|
G#|--------|--------|--------|--------|--------|--------|--------|--------|--------|
D#|--------|--------|--------|--------|--------|--------|--------|--------|--------|


D#|--------|--------|--------|--------|--------|--------|--------|----------------------------------|
A#|--------|--------|--------|--------|--------|--------|--------|----------------------------------|
F#|--------|--------|--------|--------|--------|--------|--------|-2----2----2-----9--9---9--5--5---|
C#|--------|--------|--------|--------|--------|--------|--------|-2----2----2-----9--9---9--5--5---|
G#|--------|--------|--------|--------|--------|--------|--------|-0----0----0-----7--7---7--3--3---|
D#|--------|--------|--------|--------|--------|--------|--------|----------------------------------|


D#|------------------------------------|------------------------------------|---------------------------|
A#|------------------------------------|------------------------------------|---------------------------|
F#|-5----5---5--5-----9--9---9--7--7---|-7----7--7--7---7--9--9---9--10-10--|-10-------5--5-------------|
C#|-5----5---5--5-----9--9---9--7--7---|-7----7--7--7---7--9--9---9--10-10--|-10-------5--5------5--5---|
G#|-3----3---3--3-----7--7---7--5--5---|-5----5--5--5---5--7--7---7--8--8---|-8--------3--3------5--5---|
D#|------------------------------------|------------------------------------|--------------------3--3---|


D#|----------------------------------|------------------------------------|------------------------------------|
A#|----------------------------------|------------------------------------|------------------------------------|
F#|-2----2----2-----9--9---9--5--5---|-5----5---5--5-----9--9---9--7--7---|-7----7--7--7---7--9--9---9--10-10--|
C#|-2----2----2-----9--9---9--5--5---|-5----5---5--5-----9--9---9--7--7---|-7----7--7--7---7--9--9---9--10-10--|
G#|-0----0----0-----7--7---7--3--3---|-3----3---3--3-----7--7---7--5--5---|-5----5--5--5---5--7--7---7--8--8---|
D#|----------------------------------|------------------------------------|------------------------------------|


D#|---------------------------|--------|--------|--------|--------|--------|--------|
A#|---------------------------|--------|--------|--------|--------|--------|--------|
F#|-10-------5--5-------------|--------|--------|--------|--------|--------|--------|
C#|-10-------5--5------5--5---|--------|--------|--------|--------|--------|--------|
G#|-8--------3--3------5--5---|--------|--------|--------|--------|--------|--------|
D#|--------------------3--3---|--------|--------|--------|--------|--------|--------|


D#|--------|--------|--------|--------|--------|--------|--------|--------|--------|
A#|--------|--------|--------|--------|--------|--------|--------|--------|--------|
F#|--------|--------|--------|--------|--------|--------|--------|--------|--------|
C#|--------|--------|--------|--------|--------|--------|--------|--------|--------|
G#|--------|--------|--------|--------|--------|--------|--------|--------|--------|
D#|--------|--------|--------|--------|--------|--------|--------|--------|--------|


D#|--------|----------------------------------|------------------------------------|
A#|--------|----------------------------------|------------------------------------|
F#|--------|-2----2----2-----9--9---9--5--5---|-5----5---5--5-----9--9---9--7--7---|
C#|--------|-2----2----2-----9--9---9--5--5---|-5----5---5--5-----9--9---9--7--7---|
G#|--------|-0----0----0-----7--7---7--3--3---|-3----3---3--3-----7--7---7--5--5---|
D#|--------|----------------------------------|------------------------------------|


D#|------------------------------------|---------------------------|----------------------------------|
A#|------------------------------------|---------------------------|----------------------------------|
F#|-7----7--7--7---7--9--9---9--10-10--|-10-------5--5-------------|-2----2----2-----9--9---9--5--5---|
C#|-7----7--7--7---7--9--9---9--10-10--|-10-------5--5------5--5---|-2----2----2-----9--9---9--5--5---|
G#|-5----5--5--5---5--7--7---7--8--8---|-8--------3--3------5--5---|-0----0----0-----7--7---7--3--3---|
D#|------------------------------------|--------------------3--3---|----------------------------------|


D#|------------------------------------|------------------------------------|---------------------------|
A#|------------------------------------|------------------------------------|---------------------------|
F#|-5----5---5--5-----9--9---9--7--7---|-7----7--7--7---7--9--9---9--10-10--|-10-------5--5-------------|
C#|-5----5---5--5-----9--9---9--7--7---|-7----7--7--7---7--9--9---9--10-10--|-10-------5--5------5--5---|
G#|-3----3---3--3-----7--7---7--5--5---|-5----5--5--5---5--7--7---7--8--8---|-8--------3--3------5--5---|
D#|------------------------------------|------------------------------------|--------------------3--3---|


D#|------------------------------------|--------------------------------------|--------------------------------------|
A#|------------------------------------|--------------------------------------|--------------------------------------|
F#|------0----------0--0--0--0---0--0--|----------0---0--0--0--0--0--0--0--0--|------0--0----------------------------|
C#|----------0---0---------------------|------0-------------------------------|------------2---2---2--2--2--2--2--2--|
G#|-3----------------------------------|--------------------------------------|-0------------------------------------|
D#|------------------------------------|-3------------------------------------|--------------------------------------|


D#|------------------------------------|--------------------------------------|--------------------------------------|
A#|------------------------------------|--------------------------------------|--------------------------------------|
F#|------0----------0--0--0--0---0--0--|----------0---0--0--0--0--0--0--0--0--|------0--0----------------------------|
C#|----------0---0---------------------|------0-------------------------------|------------2---2---2--2--2--2--2--2--|
G#|-3----------------------------------|--------------------------------------|-0------------------------------------|
D#|------------------------------------|-3------------------------------------|--------------------------------------|


D#|------------------------------------|--------------------------------------|--------------------------------------|
A#|------------------------------------|--------------------------------------|--------------------------------------|
F#|------0----------0--0--0--0---0--0--|----------0---0--0--0--0--0--0--0--0--|------0--0----------------------------|
C#|----------0---0---------------------|------0-------------------------------|------------2---2---2--2--2--2--2--2--|
G#|-3----------------------------------|--------------------------------------|-0------------------------------------|
D#|------------------------------------|-3------------------------------------|--------------------------------------|


D#|------------------------------------|--------------------------------------|--------|
A#|------------------------------------|--------------------------------------|--------|
F#|------0----------0--0--0--0---0--0--|----------0---0--0--0--0--0--0--0--0--|--------|
C#|----------0---0---------------------|------0-------------------------------|--------|
G#|-3----------------------------------|--------------------------------------|--------|
D#|------------------------------------|-3------------------------------------|--------|


D#|--------|--------|--------|--------|--------|--------|--------|----------------------------------|
A#|--------|--------|--------|--------|--------|--------|--------|----------------------------------|
F#|--------|--------|--------|--------|--------|--------|--------|-2----2----2-----9--9---9--5--5---|
C#|--------|--------|--------|--------|--------|--------|--------|-2----2----2-----9--9---9--5--5---|
G#|--------|--------|--------|--------|--------|--------|--------|-0----0----0-----7--7---7--3--3---|
D#|--------|--------|--------|--------|--------|--------|--------|----------------------------------|


D#|------------------------------------|------------------------------------|---------------------------|
A#|------------------------------------|------------------------------------|---------------------------|
F#|-5----5---5--5-----9--9---9--7--7---|-7----7--7--7---7--9--9---9--10-10--|-10-------5--5-------------|
C#|-5----5---5--5-----9--9---9--7--7---|-7----7--7--7---7--9--9---9--10-10--|-10-------5--5------5--5---|
G#|-3----3---3--3-----7--7---7--5--5---|-5----5--5--5---5--7--7---7--8--8---|-8--------3--3------5--5---|
D#|------------------------------------|------------------------------------|--------------------3--3---|


D#|----------------------------------|------------------------------------|------------------------------------|
A#|----------------------------------|------------------------------------|------------------------------------|
F#|-2----2----2-----9--9---9--5--5---|-5----5---5--5-----9--9---9--7--7---|-7----7--7--7---7--9--9---9--10-10--|
C#|-2----2----2-----9--9---9--5--5---|-5----5---5--5-----9--9---9--7--7---|-7----7--7--7---7--9--9---9--10-10--|
G#|-0----0----0-----7--7---7--3--3---|-3----3---3--3-----7--7---7--5--5---|-5----5--5--5---5--7--7---7--8--8---|
D#|----------------------------------|------------------------------------|------------------------------------|


D#|--------|--------|--------|--------|--------|--------|--------|--------|--------|
A#|--------|--------|--------|--------|--------|--------|--------|--------|--------|
F#|--------|--------|--------|--------|--------|--------|--------|--------|--------|
C#|--------|--------|--------|--------|--------|--------|--------|--------|--------|
G#|--------|--------|--------|--------|--------|--------|--------|--------|--------|
D#|--------|--------|--------|--------|--------|--------|--------|--------|--------|


D#|--------|--------|--------|--------|
A#|--------|--------|--------|--------|
F#|--------|--------|--------|--------|
C#|--------|--------|--------|--------|
G#|--------|--------|--------|--------|
D#|--------|--------|--------|--------|





Track 3: Lead

D#|--------|--------|--------|--------|--------|--------|--------|--------|--------|
A#|--------|--------|--------|--------|--------|--------|--------|--------|--------|
F#|--------|--------|--------|--------|--------|--------|--------|--------|--------|
C#|--------|--------|--------|--------|--------|--------|--------|--------|--------|
G#|--------|--------|--------|--------|--------|--------|--------|--------|--------|
D#|--------|--------|--------|--------|--------|--------|--------|--------|--------|


D#|--------|--------|--------|--------|--------|--------|--------|--------|--------|
A#|--------|--------|--------|--------|--------|--------|--------|--------|--------|
F#|--------|--------|--------|--------|--------|--------|--------|--------|--------|
C#|--------|--------|--------|--------|--------|--------|--------|--------|--------|
G#|--------|--------|--------|--------|--------|--------|--------|--------|--------|
D#|--------|--------|--------|--------|--------|--------|--------|--------|--------|


D#|--------|--------|--------|--------|--------|--------|--------|--------|--------|
A#|--------|--------|--------|--------|--------|--------|--------|--------|--------|
F#|--------|--------|--------|--------|--------|--------|--------|--------|--------|
C#|--------|--------|--------|--------|--------|--------|--------|--------|--------|
G#|--------|--------|--------|--------|--------|--------|--------|--------|--------|
D#|--------|--------|--------|--------|--------|--------|--------|--------|--------|


D#|--------|--------|--------|--------|--------|--------|--------|--------|--------|
A#|--------|--------|--------|--------|--------|--------|--------|--------|--------|
F#|--------|--------|--------|--------|--------|--------|--------|--------|--------|
C#|--------|--------|--------|--------|--------|--------|--------|--------|--------|
G#|--------|--------|--------|--------|--------|--------|--------|--------|--------|
D#|--------|--------|--------|--------|--------|--------|--------|--------|--------|


D#|--------|--------|--------|--------|--------|--------|--------|--------|--------|
A#|--------|--------|--------|--------|--------|--------|--------|--------|--------|
F#|--------|--------|--------|--------|--------|--------|--------|--------|--------|
C#|--------|--------|--------|--------|--------|--------|--------|--------|--------|
G#|--------|--------|--------|--------|--------|--------|--------|--------|--------|
D#|--------|--------|--------|--------|--------|--------|--------|--------|--------|


D#|--------|--------|--------|--------|--------|--------|--------|--------|--------|
A#|--------|--------|--------|--------|--------|--------|--------|--------|--------|
F#|--------|--------|--------|--------|--------|--------|--------|--------|--------|
C#|--------|--------|--------|--------|--------|--------|--------|--------|--------|
G#|--------|--------|--------|--------|--------|--------|--------|--------|--------|
D#|--------|--------|--------|--------|--------|--------|--------|--------|--------|


D#|--------|--------|--------|--------|--------|--------------------------------|--------------------5-----------|
A#|--------|--------|--------|--------|--------|--------------------------------|--------------------------------|
F#|--------|--------|--------|--------|--------|-7----7---5--7--------------5---|-7----7---5--7--7-----------5---|
C#|--------|--------|--------|--------|--------|------------------------7-------|------------------------7-------|
G#|--------|--------|--------|--------|--------|---------------------0----------|--------------------------------|
D#|--------|--------|--------|--------|--------|--------------------------------|--------------------------------|


D#|--------------------------------|----------------------------------------|----5-----5-----5-----5--5--5---------------------|
A#|--------------------------------|-------------------------6--------------|----5-----5-----5-----5--5--5-----------7--7--5---|
F#|-7----7---5--7--7-----------5---|-7----7--7--5--9-----5------5--5--5--5--|----8-----8-----8-----8--8--8--7--5-----7--7--5---|
C#|------------------------7-------|----------------------------------------|-------------------------------------7------------|
G#|--------------------------------|----------------------------------------|--------------------------------------------------|
D#|--------------------------------|----------------------------------------|--------------------------------------------------|


D#|----5-----5-----5-------------------------------|-------5---------5---------5---------5---------5---------5-------|
A#|----5-----5-----5-----------7--7--5---7--7--5---|-----------------------------------------------------------------|
F#|----8-----8-----8--7--5-----7--7--5---7--7--5---|-5-7-8---8-7-5-8---8-7-5-8---8-7-5-8---8-7-5-8---8-7-5-8---8-7-5-|
C#|-------------------------7----------------------|-----------------------------------------------------------------|
G#|------------------------------------------------|-----------------------------------------------------------------|
D#|------------------------------------------------|-----------------------------------------------------------------|


D#|---5---------5---------5---------5---------5---------|-------------------------------|
A#|---------------------------------------------5-------|-------------------------------|
F#|-8---8-7-5-8---8-7-5-8---8-7-5-8---8-7-5-8-----------|-2----2-------9--9------5--5---|
C#|------------------------------------------------3----|-2----2-------9--9------5--5---|
G#|-----------------------------------------------------|-0----0-------7--7------3--3---|
D#|-----------------------------------------------------|-------------------------------|


D#|---------------------------|---------------------------|---------------------------|
A#|---------------------------|---------------------------|---------------------------|
F#|-5--------9--9------7--7---|-7--------9--9------10-10--|-10-------5--5-------------|
C#|-5--------9--9------7--7---|-7--------9--9------10-10--|-10-------5--5------5--5---|
G#|-3--------7--7------5--5---|-5--------7--7------8--8---|-8--------3--3------5--5---|
D#|---------------------------|---------------------------|--------------------3--3---|


D#|-------------------------------|---------------------------|---------------------------|
A#|-------------------------------|---------------------------|---------------------------|
F#|-2----2-------9--9------5--5---|-5--------9--9------7--7---|-7--------9--9------10-10--|
C#|-2----2-------9--9------5--5---|-5--------9--9------7--7---|-7--------9--9------10-10--|
G#|-0----0-------7--7------3--3---|-3--------7--7------5--5---|-5--------7--7------8--8---|
D#|-------------------------------|---------------------------|---------------------------|


D#|--------|--------|--------|--------|--------|--------|--------|--------|--------------------|
A#|--------|--------|--------|--------|--------|--------|--------|--------|--------------------|
F#|--------|--------|--------|--------|--------|--------|--------|--------|----------------7---|
C#|--------|--------|--------|--------|--------|--------|--------|--------|--------------------|
G#|--------|--------|--------|--------|--------|--------|--------|--------|--------------------|
D#|--------|--------|--------|--------|--------|--------|--------|--------|--------------------|


D#|-------------------------------------------|-------------------------------------------|
A#|-------------------------------------------|-------------------------------------------|
F#|-7--5----------------5--------7--------7---|-7--5----------------5--------7--------7---|
C#|-------7---7---7--7-----7--7-----7--7------|-------7---7---7--7-----7--7-----7--7------|
G#|-------------------------------------------|-------------------------------------------|
D#|-------------------------------------------|-------------------------------------------|


D#|-------------------------------------------|-------------------------------------------|
A#|-------------------------------------------|-------------------------------------------|
F#|-7--5----------------5--------7--------7---|-7--5----------------5--------7--------7---|
C#|-------7---7---7--7-----7--7-----7--7------|-------7---7---7--7-----7--7-----7--7------|
G#|-------------------------------------------|-------------------------------------------|
D#|-------------------------------------------|-------------------------------------------|





Track 4: Untitled

F#|--------|--------|--------|--------|-------------------------------------------|
C#|--------|--------|--------|--------|---------------------5--7--7--7--7--5--7---|
G#|--------|--------|--------|--------|-0---0--0--0---0--0------------------------|
D#|--------|--------|--------|--------|-------------------------------------------|


F#|-------------------------------------------|-------------------------------------------|
C#|---------------------5--7--7--7--7--5--7---|---------------------5--7--7--7--7--5--7---|
G#|-5---3--0--0---0--0------------------------|-0---0--0--0---0--0------------------------|
D#|-------------------------------------------|-------------------------------------------|


F#|---------------------------------------------|--------|--------|--------|--------|
C#|---------------------------------------------|--------|--------|--------|--------|
G#|-5---3--0--0---0--0--3--0--0--5--0--0--5--6--|--------|--------|--------|--------|
D#|---------------------------------------------|--------|--------|--------|--------|


F#|-------------------------------------------|-------------------------------------------|
C#|---------------------5--7--7--7--7--5--7---|---------------------5--7--7--7--7--5--7---|
G#|-0---0--0--0---0--0------------------------|-5---3--0--0---0--0------------------------|
D#|-------------------------------------------|-------------------------------------------|


F#|-------------------------------------------|---------------------------------------------|
C#|---------------------5--7--7--7--7--5--7---|---------------------------------------------|
G#|-0---0--0--0---0--0------------------------|-5---3--0--0---0--0--3--0--0--5--0--0--5--6--|
D#|-------------------------------------------|---------------------------------------------|


F#|-----------------------------------------|-----------------------------------------|
C#|---------------------0--2--2---2---------|------------------------2--2---2--0--0---|
G#|-0---0--0--0---0--0---------------3--3---|-3---3--3--3---3--3--3-------------------|
D#|-----------------------------------------|-----------------------------------------|


F#|-----------------------------------------|-----------------------------------------|
C#|-0---0--0--0---0--0--0--2--2---2--3--3---|-3---3--3--3---3--3--2-------------------|
G#|-----------------------------------------|-------------------------3--3--3---------|
D#|-----------------------------------------|----------------------------------3--3---|


F#|-----------0--2----0--2----------------|-----------0--2--0-----0--2---------0--0---|
C#|-------------------------2---2---------|--------------------2--------2---2---------|
G#|-0---0--0-----------------------3--3---|-3---3--3----------------------------------|
D#|---------------------------------------|-------------------------------------------|


F#|-----------0--2--0-----0--2----------------|---------------------------------------|
C#|-0---0--0-----------2--------2---2--3--3---|-3-------3-------2---------------------|
G#|-------------------------------------------|-----3-------3------3--3---3-----------|
D#|-------------------------------------------|------------------------------3--3-----|


F#|--------|--------|--------|--------|-------------------------------------------|
C#|--------|--------|--------|--------|---------------------5--7--7--7--7--5--7---|
G#|--------|--------|--------|--------|-0---0--0--0---0--0------------------------|
D#|--------|--------|--------|--------|-------------------------------------------|


F#|-------------------------------------------|-------------------------------------------|
C#|---------------------5--7--7--7--7--5--7---|---------------------5--7--7--7--7--5--7---|
G#|-5---3--0--0---0--0------------------------|-0---0--0--0---0--0------------------------|
D#|-------------------------------------------|-------------------------------------------|


F#|---------------------------------------------|--------|--------|--------|--------|
C#|---------------------------------------------|--------|--------|--------|--------|
G#|-5---3--0--0---0--0--3--0--0--5--0--0--5--6--|--------|--------|--------|--------|
D#|---------------------------------------------|--------|--------|--------|--------|


F#|-------------------------------------------|-------------------------------------------|
C#|---------------------5--7--7--7--7--5--7---|---------------------5--7--7--7--7--5--7---|
G#|-0---0--0--0---0--0------------------------|-5---3--0--0---0--0------------------------|
D#|-------------------------------------------|-------------------------------------------|


F#|-------------------------------------------|---------------------------------------------|
C#|---------------------5--7--7--7--7--5--7---|---------------------------------------------|
G#|-0---0--0--0---0--0------------------------|-5---3--0--0---0--0--3--0--0--5--0--0--5--6--|
D#|-------------------------------------------|---------------------------------------------|


F#|-----------------------------------------|-----------------------------------------|
C#|---------------------0--2--2---2---------|------------------------2--2---2--0--0---|
G#|-0---0--0--0---0--0---------------3--3---|-3---3--3--3---3--3--3-------------------|
D#|-----------------------------------------|-----------------------------------------|


F#|-----------------------------------------|-----------------------------------------|
C#|-0---0--0--0---0--0--0--2--2---2--3--3---|-3---3--3--3---3--3--2-------------------|
G#|-----------------------------------------|-------------------------3--3--3---------|
D#|-----------------------------------------|----------------------------------3--3---|


F#|-----------0--2----0--2----------------|-----------0--2--0-----0--2---------0--0---|
C#|-------------------------2---2---------|--------------------2--------2---2---------|
G#|-0---0--0-----------------------3--3---|-3---3--3----------------------------------|
D#|---------------------------------------|-------------------------------------------|


F#|-----------0--2--0-----0--2----------------|---------------------------------------|
C#|-0---0--0-----------2--------2---2--3--3---|-3-------3-------2---------------------|
G#|-------------------------------------------|-----3-------3------3--3---3-----------|
D#|-------------------------------------------|------------------------------3--3-----|


F#|---------------------------------------------|---------------------------------------------|
C#|---------------------------------------------|---------------------------------------------|
G#|-3---3--3--3---3--3--3--3--3--3--3--3--3--3--|---------------------------------------------|
D#|---------------------------------------------|-3---3--3--3---3--3--3--3--3--3--3--3--3--3--|


F#|----------------------------2--2-----2-----|-----------------------------------------|
C#|----------------------2--2--------2-----2--|------------------2--2--3---4--4--5--5---|
G#|-0---0--0--0---0---0-----------------------|-3---3--3--3---3-------------------------|
D#|-------------------------------------------|-----------------------------------------|


F#|-------------------------------------------|----------------------------------2--------|
C#|-----------5-------------------------------|------------------------0---2--2-----2--0--|
G#|--------------------2--2--3---4--4--5--5---|-5--4--0---0---0--0--0---------------------|
D#|-3---3--3-----3--3-------------------------|-------------------------------------------|


F#|-------------------------------------------|---------------------------------------------|
C#|--------------2-------------4--4--5--5--5--|-5--0-------------------------0--0-----0-----|
G#|-3---3--3--3------3------3-----------------|--------------------------2---------2-----2--|
D#|-------------------------------------------|-------3--3--3---3--3--3---------------------|


F#|--------------------------2------2--4--2-----|------------------------0---2--0-----------|
C#|--------------------0--0------2-----------2--|------------------0--2------------2--0-----|
G#|-0--0--0--0--0--4----------------------------|-3---3--3--3---3------------------------2--|
D#|---------------------------------------------|-------------------------------------------|


F#|-------------------------------------------|-----------------------------------------|
C#|----------------------------0--0--2--0-----|-----------------------------------------|
G#|--------------0---2--2---2--------------2--|-0---0---0---0---------------------------|
D#|-3---3--3--3-------------------------------|----------------3-----3--3--3--3---3--3--|


F#|---------------------------------------------|-----------------------------------------|
C#|---------------------------------------------|-----------------------------------------|
G#|---------------------3--0--0--5--0--6--5--6--|-5--3--0---0---0--0----------------------|
D#|-2---2--2--2---2--2--------------------------|------------------------3--3---3---3--3--|


F#|-----------------------------------------|-----------------------------------------|
C#|-----------------------------------------|-----------------------------------------|
G#|-----------------3--0--0--5--0--0--5--6--|-5--3--0--0--0---0-----------------------|
D#|-2---2---2---2---------------------------|------------------------3--3---3---3--3--|


F#|-------------------------------------------|---------------------------------------------|
C#|-------------------------------------------|---------------------------------------------|
G#|-------------------3--0--0--5--0--0--5--6--|-5--3--0--0--0---0--0------------------------|
D#|-2--2--2---2---2---------------------------|--------------------------3--3--3--3---3--3--|


F#|-----------------------------------------|-----------------------------------------|
C#|-----------------------------------------|---------------------0--2--2---2---------|
G#|-----------------3--0--0--5--0--0--5--6--|-0---0--0--0---0--0---------------3--3---|
D#|-2---2---2---2---------------------------|-----------------------------------------|


F#|-----------------------------------------|-----------------------------------------|
C#|------------------------2--2---2--0--0---|-0---0--0--0---0--0--0--2--2---2--3--3---|
G#|-3---3--3--3---3--3--3-------------------|-----------------------------------------|
D#|-----------------------------------------|-----------------------------------------|


F#|-----------------------------------------|-----------0--2----0--2----------------|
C#|-3---3--3--3---3--3--2-------------------|-------------------------2---2---------|
G#|-------------------------3--3--3---------|-0---0--0-----------------------3--3---|
D#|----------------------------------3--3---|---------------------------------------|


F#|-----------0--2--0-----0--2---------------0--|-0-----------------2--4----------------|
C#|--------------------2--------2---2--2--2-----|----4----0---2--4--------2---2--2--3---|
G#|-3---3--3------------------------------------|---------------------------------------|
D#|---------------------------------------------|---------------------------------------|


F#|--------|--------|--------|--------|-------5--7--7--7--7--7--7--8--|----------------0--0--2--2--2--2--0--2---|
C#|--------|--------|--------|--------|-------------------------------|-----------------------------------------|
G#|--------|--------|--------|--------|-------------------------------|-0---0---0---0---------------------------|
D#|--------|--------|--------|--------|-------------------------------|-----------------------------------------|


F#|---------------------0--2--2--2--2--0--2---|---------------------0--2--2--2--2--0--2---|
C#|-0-----------------------------------------|-0-----------------------------------------|
G#|----3--0---0---0--0------------------------|----3--0---0---0--0------------------------|
D#|-------------------------------------------|-------------------------------------------|


F#|---------------------5--7--7--7--7--7--7--8--|-7--5--------------------------------------|
C#|-0-------------------------------------------|-------7---7-------------------------------|
G#|----3--0---0---0--0--------------------------|----------------0--3--0--0--5--0--0--5--6--|
D#|---------------------------------------------|-------------------------------------------|


F#|---------------------------------------------|---------------------------------------------|
C#|---------------------------------------------|---------------------------------------------|
G#|-5--3--0---0---0--0--3--0--0--5--0--0--5--6--|-5--3--0---0---0--0--3--0--0--5--0--0--5--6--|
D#|---------------------------------------------|---------------------------------------------|


F#|---------------------------------------------|
C#|---------------------------------------------|
G#|-5--3--0---0---0--0--3--0--0--5--0--0--5--6--|
D#|---------------------------------------------|