Menu:

 

Search:

 

nuno bettencourt - confrontation:

 



Title: Confrontation
Artist: 
Album: Schizophonic
Author: Nuno Bettencourt


Track 1: Guitar 1

D#|-0---0---0---0--0--0---0---0---0-----|-3---3---3---3--3--2---2---2---2--0--|-0---0---0---0--0--0---0---0---------|
A#|-0---0---0---0--0--1---1---1---1--0--|-3---3---3---3--3--3---3---3---3--0--|-1---1---1---1--1--1---1---1---------|
F#|-0---0---0---0--0--2---2---2---2--0--|-0---0---0---0--0--2---2---2---2--0--|-0---0---0---0--0--0---0---0---------|
C#|-2---2---2---2--2--2---2---2---2--0--|-0---0---0---0--0--0---0---0---0--0--|-2---2---2---2--2--2---2---2---------|
G#|-2---2---2---2--2--0---0---0---0-----|-2---2---2---2--2--------------------|-3---3---3---3--3--3---3---3---------|
D#|-0---0---0---0--0--------------------|-3---3---3---3--3--------------------|-------------------------------3--2--|


D#|-0---0---0---0--0--0---0--0--0--3----|-0---0---0---0--0--0---0---0---0-----|-3---3---3---3--3--2---2---2---2--0--|
A#|-0---0---0---0--0--0---0--0--0--3----|-0---0---0---0--0--1---1---1---1--0--|-3---3---3---3--3--3---3---3---3--0--|
F#|-0---0---0---0--0--0---0--0--0--0----|-0---0---0---0--0--2---2---2---2--0--|-0---0---0---0--0--2---2---2---2--0--|
C#|-2---2---2---2--2--2---2--2--2--0----|-2---2---2---2--2--2---2---2---2--0--|-0---0---0---0--0--0---0---0---0-----|
G#|-2---2---2---2--2--2---2--2--2--2----|-2---2---2---2--2--0---0---0---0-----|-2---2---2---2--2--------------------|
D#|-0---0---0---0--0--0---0--0--0--3----|-0---0---0---0--0--------------------|-3---3---3---3--3--------------------|


D#|-0---0---0---0--0--0---0---0---------|-0---0---0------|-0---0---0---0--0--3--3--3---3---3--3--|
A#|-1---1---1---1--1--1---1---1---------|-0---0---0------|-1---1---1---1--1--3--3--3---3---3--3--|
F#|-0---0---0---0--0--0---0---0---------|-0---0---0------|-2---2---2---2--2--0--0--0---0---0--0--|
C#|-2---2---2---2--2--2---2---2---------|-2---2---2------|-2---2---2---2--2--0--0--0---0---0--0--|
G#|-3---3---3---3--3--3---3---3---------|-2---2---2------|-0---0---0---0--0--2--2--2---2---2--2--|
D#|-------------------------------3--2--|-0---0---0------|---------------------------------------|


D#|-3---3---3---3--3--3--3--3---3---3--3--|-0---0---0---0--0--3--3--3---3---3--3--|
A#|-3---3---3---3--3--3--3--3---3---3--3--|-1---1---1---1--1--3--3--3---3---3--3--|
F#|-0---0---0---0--0--0--0--0---0---0--0--|-2---2---2---2--2--0--0--0---0---0--0--|
C#|-2---2---2---2--2--0--0--0---0---0--0--|-2---2---2---2--2--0--0--0---0---0--0--|
G#|-3---3---3---3--3--2--2--2---2---2--2--|-0---0---0---0--0--2--2--2---2---2--2--|
D#|---------------------------------------|---------------------------------------|


D#|-3---3---3---3--3--3--3--3---3---3--3--|---------------------|----------------------------------|
A#|-3---3---3---3--3--3--3--3---3---3--3--|---------------------|----------------------------------|
F#|-0---0---0---0--0--0--0--0---0---0--0--|-4----4----4----4----|-4----4----4--4---4--4--4---4--4--|
C#|-2---2---2---2--2--0--0--0---0---0--0--|-5----5----5----5----|-5----5----5--5---5--5--5---5--5--|
G#|-3---3---3---3--3--2--2--2---2---2--2--|-7----7----5----5----|-3----3----3--3---3--3--3---3--3--|
D#|---------------------------------------|---------------------|----------------------------------|


D#|---------------------|----------------------------------|---------------------|
A#|---------------------|----------------------------------|---------------------|
F#|-4----4----4----4----|-4----4----4--4---4--4--4---4--4--|-4----4----4----4----|
C#|-5----5----5----5----|-5----5----5--5---5--5--5---5--5--|-5----5----5----5----|
G#|-7----7----5----5----|-3----3----3--3---3--3--3---3--3--|-7----7----5----5----|
D#|---------------------|----------------------------------|---------------------|


D#|----------------------------------|---------------------|--------|-0---0---0---0--0--0---0---0---0-----|
A#|----------------------------------|---------------------|--------|-0---0---0---0--0--1---1---1---1--0--|
F#|-4----4----4--4---4--4--4---4--4--|-4----4----4----4----|-4------|-0---0---0---0--0--2---2---2---2--0--|
C#|-5----5----5--5---5--5--5---5--5--|-5----5----5----5----|-5------|-2---2---2---2--2--2---2---2---2--0--|
G#|-3----3----3--3---3--3--3---3--3--|-7----7----5----5----|-3------|-2---2---2---2--2--0---0---0---0-----|
D#|----------------------------------|---------------------|--------|-0---0---0---0--0--------------------|


D#|-3---3---3---3--3--2---2---2---2--0--|-0---0---0---0--0--0---0---0---------|-0---0---0---0--0--0---0--0--0--3----|
A#|-3---3---3---3--3--3---3---3---3--0--|-1---1---1---1--1--1---1---1---------|-0---0---0---0--0--0---0--0--0--3----|
F#|-0---0---0---0--0--2---2---2---2--0--|-0---0---0---0--0--0---0---0---------|-0---0---0---0--0--0---0--0--0--0----|
C#|-0---0---0---0--0--0---0---0---0--0--|-2---2---2---2--2--2---2---2---------|-2---2---2---2--2--2---2--2--2--0----|
G#|-2---2---2---2--2--------------------|-3---3---3---3--3--3---3---3---------|-2---2---2---2--2--2---2--2--2--2----|
D#|-3---3---3---3--3--------------------|-------------------------------3--2--|-0---0---0---0--0--0---0--0--0--3----|


D#|-0---0---0---0--0--0---0---0---0-----|-3---3---3---3--3--2---2---2---2--0--|-0---0---0---0--0--0---0---0---------|
A#|-0---0---0---0--0--1---1---1---1--0--|-3---3---3---3--3--3---3---3---3--0--|-1---1---1---1--1--1---1---1---------|
F#|-0---0---0---0--0--2---2---2---2--0--|-0---0---0---0--0--2---2---2---2--0--|-0---0---0---0--0--0---0---0---------|
C#|-2---2---2---2--2--2---2---2---2--0--|-0---0---0---0--0--0---0---0---0-----|-2---2---2---2--2--2---2---2---------|
G#|-2---2---2---2--2--0---0---0---0-----|-2---2---2---2--2--------------------|-3---3---3---3--3--3---3---3---------|
D#|-0---0---0---0--0--------------------|-3---3---3---3--3--------------------|-------------------------------3--2--|


D#|-0---0---0------|-0---0---0---0--0--3--3--3---3---3--3--|-3---3---3---3--3--3--3--3---3---3--3--|
A#|-0---0---0------|-1---1---1---1--1--3--3--3---3---3--3--|-3---3---3---3--3--3--3--3---3---3--3--|
F#|-0---0---0------|-2---2---2---2--2--0--0--0---0---0--0--|-0---0---0---0--0--0--0--0---0---0--0--|
C#|-2---2---2------|-2---2---2---2--2--0--0--0---0---0--0--|-2---2---2---2--2--0--0--0---0---0--0--|
G#|-2---2---2------|-0---0---0---0--0--2--2--2---2---2--2--|-3---3---3---3--3--2--2--2---2---2--2--|
D#|-0---0---0------|---------------------------------------|---------------------------------------|


D#|-0---0---0---0--0--3--3--3---3---3--3--|-3---3---3---3--3--3--3--3---3---3--3--|
A#|-1---1---1---1--1--3--3--3---3---3--3--|-3---3---3---3--3--3--3--3---3---3--3--|
F#|-2---2---2---2--2--0--0--0---0---0--0--|-0---0---0---0--0--0--0--0---0---0--0--|
C#|-2---2---2---2--2--0--0--0---0---0--0--|-2---2---2---2--2--0--0--0---0---0--0--|
G#|-0---0---0---0--0--2--2--2---2---2--2--|-3---3---3---3--3--2--2--2---2---2--2--|
D#|---------------------------------------|---------------------------------------|


D#|---------------------|----------------------------------|---------------------|
A#|---------------------|----------------------------------|---------------------|
F#|-4----4----4----4----|-4----4----4--4---4--4--4---4--4--|-4----4----4----4----|
C#|-5----5----5----5----|-5----5----5--5---5--5--5---5--5--|-5----5----5----5----|
G#|-7----7----5----5----|-3----3----3--3---3--3--3---3--3--|-7----7----5----5----|
D#|---------------------|----------------------------------|---------------------|


D#|----------------------------------|---------------------|----------------------------------|
A#|----------------------------------|---------------------|----------------------------------|
F#|-4----4----4--4---4--4--4---4--4--|-4----4----4----4----|-4----4----4--4---4--4--4---4--4--|
C#|-5----5----5--5---5--5--5---5--5--|-5----5----5----5----|-5----5----5--5---5--5--5---5--5--|
G#|-3----3----3--3---3--3--3---3--3--|-7----7----5----5----|-3----3----3--3---3--3--3---3--3--|
D#|----------------------------------|---------------------|----------------------------------|


D#|---------------------|--------|-------------------------------------------------|
A#|---------------------|--------|-------------------------------------------------|
F#|-4----4----4----4----|-4------|-------------------------------------------------|
C#|-5----5----5----5----|-5------|-------------------------------------------------|
G#|-7----7----5----5----|-3------|-------------------------------------------------|
D#|---------------------|--------|-0--0--0--0--0--0--0--0--0--0--0--0--0--0--0--0--|


D#|-------------------------------------------------|-0---0---0---0--0--3---3---3---3--3--|
A#|-------------------------------------------------|-1---1---1---1--1--3---3---3---3--3--|
F#|-------------------------9--9--9--9--9--9--9--9--|-2---2---2---2--2--0---0---0---0--0--|
C#|-------------------------9--9--9--9--9--9--9--9--|-2---2---2---2--2--0---0---0---0--0--|
G#|-------------------------7--7--7--7--7--7--7--7--|-0---0---0---0--0--2---2---2---2--2--|
D#|-0--0--0--0--0--0--0--0--0--0--0--0--0--0--0--0--|-------------------3---3---3---3--3--|


D#|-3---3---3---3--3--3--3--3---3---3--3--|-0---0---0---0--0--3---3---3---3--3--|-3---3---3---3--3--3--3--3---3---3--3--|
A#|-3---3---3---3--3--3--3--3---3---3--3--|-1---1---1---1--1--3---3---3---3--3--|-3---3---3---3--3--3--3--3---3---3--3--|
F#|-0---0---0---0--0--0--0--0---0---0--0--|-2---2---2---2--2--0---0---0---0--0--|-0---0---0---0--0--0--0--0---0---0--0--|
C#|-2---2---2---2--2--0--0--0---0---0--0--|-2---2---2---2--2--0---0---0---0--0--|-2---2---2---2--2--0--0--0---0---0--0--|
G#|-3---3---3---3--3--2--2--2---2---2--2--|-0---0---0---0--0--2---2---2---2--2--|-3---3---3---3--3--2--2--2---2---2--2--|
D#|---------------------------------------|-------------------------------------|---------------------------------------|


D#|-0---0---0---0--0--3---3---3---3--3--|-3---3---3---3--3--3--3--3---3---3--3--|-0---0---0---0--0--3---3---3---3--3--|
A#|-1---1---1---1--1--3---3---3---3--3--|-3---3---3---3--3--3--3--3---3---3--3--|-1---1---1---1--1--3---3---3---3--3--|
F#|-2---2---2---2--2--0---0---0---0--0--|-0---0---0---0--0--0--0--0---0---0--0--|-2---2---2---2--2--0---0---0---0--0--|
C#|-2---2---2---2--2--0---0---0---0--0--|-2---2---2---2--2--0--0--0---0---0--0--|-2---2---2---2--2--0---0---0---0--0--|
G#|-0---0---0---0--0--2---2---2---2--2--|-3---3---3---3--3--2--2--2---2---2--2--|-0---0---0---0--0--2---2---2---2--2--|
D#|-------------------------------------|---------------------------------------|-------------------------------------|


D#|-3---3---3---3--3--3--3--3---3---3--3--|-0---0---0---0--0--0---0---0---0-----|-3---3---3---3--3--2---2---2---2--0--|
A#|-3---3---3---3--3--3--3--3---3---3--3--|-0---0---0---0--0--1---1---1---1--0--|-3---3---3---3--3--3---3---3---3--0--|
F#|-0---0---0---0--0--0--0--0---0---0--0--|-0---0---0---0--0--2---2---2---2--0--|-0---0---0---0--0--2---2---2---2--0--|
C#|-2---2---2---2--2--0--0--0---0---0--0--|-2---2---2---2--2--2---2---2---2--0--|-0---0---0---0--0--0---0---0---0-----|
G#|-3---3---3---3--3--2--2--2---2---2--2--|-2---2---2---2--2--0---0---0---0-----|-2---2---2---2--2--------------------|
D#|---------------------------------------|-0---0---0---0--0--------------------|-3---3---3---3--3--------------------|


D#|-0---0---0---0--0--0---0---0---------|-0----0--0------|-0------|-0------|
A#|-1---1---1---1--1--1---1---1---------|-0----0--0------|-0------|-0------|
F#|-0---0---0---0--0--0---0---0---------|-0----0--0------|-0------|-0------|
C#|-2---2---2---2--2--2---2---2---------|-2----2--2------|-2------|-2------|
G#|-3---3---3---3--3--3---3---3---------|-2----2--2------|-2------|-2------|
D#|-------------------------------3--2--|-0----0--0------|-0------|-0------|





Track 2: Guitar 2

D#|-0---0---0---0--0--0---0---0---0-----|-3----3--3---3--3--2--2----2---2--0--|-0---0---0---0--0--0--0--0---0---------|
A#|-0---0---0---0--0--1---1---1---1--0--|-3----3--3---3--3--3--3----3---3--0--|-1---1---1---1--1--1--1--1---1---------|
F#|-0---0---0---0--0--2---2---2---2--0--|-0----0--0---0--0--2--2----2---2--0--|-0---0---0---0--0--0--0--0---0---------|
C#|-2---2---2---2--2--2---2---2---2--0--|-0----0--0---0--0--0--0----0---0--0--|-2---2---2---2--2--2--2--2---2---------|
G#|-2---2---2---2--2--0---0---0---0-----|-2----2--2---2--2--------------------|-3---3---3---3--3--3--3--3---3---------|
D#|-0---0---0---0--0--------------------|-3----3--3---3--3--------------------|---------------------------------3--2--|


D#|-----------0----0--0---0--0--0--3----|-0---0---0---0--0--0--0--0---0---0-----|-3----3--3---3--3--2--2----2---2--0--|
A#|-----------0----0--0---0--0--0--3----|-0---0---0---0--0--1--1--1---1---1--0--|-3----3--3---3--3--3--3----3---3--0--|
F#|-----------0----0--0---0--0--0--0----|-0---0---0---0--0--2--2--2---2---2--0--|-0----0--0---0--0--2--2----2---2--0--|
C#|-----------2----2--2---2--2--2--0----|-2---2---2---2--2--2--2--2---2---2--0--|-0----0--0---0--0--0--0----0---0-----|
G#|-----------2----2--2---2--2--2--2----|-2---2---2---2--2--0--0--0---0---0-----|-2----2--2---2--2--------------------|
D#|-0---0--0--0----0--0---0--0--0--3----|-0---0---0---0--0----------------------|-3----3--3---3--3--------------------|


D#|-0---0---0---0--0--0--0--0---0---------|---------0------|-0---0---0----0--3----3----3--|
A#|-1---1---1---1--1--1--1--1---1---------|---------0------|-1---1---1----1--3----3----3--|
F#|-0---0---0---0--0--0--0--0---0---------|---------0------|-2---2---2----2--0----0----0--|
C#|-2---2---2---2--2--2--2--2---2---------|---------2------|-2---2---2----2--0----0----0--|
G#|-3---3---3---3--3--3--3--3---3---------|---------2------|-0---0---0----0--2----2----2--|
D#|---------------------------------3--2--|-0---0---0------|------------------------------|


D#|-3----3----3--3--3--3---3---3--3--|-0----0----0--3----3----3--|-3----3----3--3--3--3---3----|
A#|-3----3----3--3--3--3---3---3--3--|-1----1----1--3----3----3--|-3----3----3--3--3--3---3----|
F#|-0----0----0--0--0--0---0---0--0--|-2----2----2--0----0----0--|-0----0----0--0--0--0---0----|
C#|-2----2----2--0--0--0---0---0--0--|-2----2----2--0----0----0--|-2----2----2--0--0--0---0----|
G#|-3----3----3--2--2--2---2---2--2--|-0----0----0--2----2----2--|-3----3----3--2--2--2---2----|
D#|----------------------------------|---------------------------|-----------------------------|


D#|--------|--------|--------|--------|--------|--------|--------|--------|-0---0---0---0--0--0---0---0---0-----|
A#|--------|--------|--------|--------|--------|--------|--------|--------|-0---0---0---0--0--1---1---1---1--0--|
F#|--------|--------|--------|--------|--------|--------|--------|--------|-0---0---0---0--0--2---2---2---2--0--|
C#|--------|--------|--------|--------|--------|--------|--------|--------|-2---2---2---2--2--2---2---2---2--0--|
G#|--------|--------|--------|--------|--------|--------|--------|--------|-2---2---2---2--2--0---0---0---0-----|
D#|--------|--------|--------|--------|--------|--------|--------|--------|-0---0---0---0--0--------------------|


D#|-3----3--3---3--3--2--2----2---2--0--|-0---0---0---0--0--0--0--0---0---------|-----------0----0--0---0--0--0--3----|
A#|-3----3--3---3--3--3--3----3---3--0--|-1---1---1---1--1--1--1--1---1---------|-----------0----0--0---0--0--0--3----|
F#|-0----0--0---0--0--2--2----2---2--0--|-0---0---0---0--0--0--0--0---0---------|-----------0----0--0---0--0--0--0----|
C#|-0----0--0---0--0--0--0----0---0--0--|-2---2---2---2--2--2--2--2---2---------|-----------2----2--2---2--2--2--0----|
G#|-2----2--2---2--2--------------------|-3---3---3---3--3--3--3--3---3---------|-----------2----2--2---2--2--2--2----|
D#|-3----3--3---3--3--------------------|---------------------------------3--2--|-0---0--0--0----0--0---0--0--0--3----|


D#|-0---0---0---0--0--0--0--0---0---0-----|-3----3--3---3--3--2--2----2---2--0--|-0---0---0---0--0--0--0--0---0---------|
A#|-0---0---0---0--0--1--1--1---1---1--0--|-3----3--3---3--3--3--3----3---3--0--|-1---1---1---1--1--1--1--1---1---------|
F#|-0---0---0---0--0--2--2--2---2---2--0--|-0----0--0---0--0--2--2----2---2--0--|-0---0---0---0--0--0--0--0---0---------|
C#|-2---2---2---2--2--2--2--2---2---2--0--|-0----0--0---0--0--0--0----0---0-----|-2---2---2---2--2--2--2--2---2---------|
G#|-2---2---2---2--2--0--0--0---0---0-----|-2----2--2---2--2--------------------|-3---3---3---3--3--3--3--3---3---------|
D#|-0---0---0---0--0----------------------|-3----3--3---3--3--------------------|---------------------------------3--2--|


D#|---------0------|-0---0---0----0--3----3----3--|-3----3----3--3--3--3---3---3--3--|
A#|---------0------|-1---1---1----1--3----3----3--|-3----3----3--3--3--3---3---3--3--|
F#|---------0------|-2---2---2----2--0----0----0--|-0----0----0--0--0--0---0---0--0--|
C#|---------2------|-2---2---2----2--0----0----0--|-2----2----2--0--0--0---0---0--0--|
G#|---------2------|-0---0---0----0--2----2----2--|-3----3----3--2--2--2---2---2--2--|
D#|-0---0---0------|------------------------------|----------------------------------|


D#|-0----0----0--3----3----3--|-3----3----3--3--3--3---3----|--------|--------|--------|
A#|-1----1----1--3----3----3--|-3----3----3--3--3--3---3----|--------|--------|--------|
F#|-2----2----2--0----0----0--|-0----0----0--0--0--0---0----|--------|--------|--------|
C#|-2----2----2--0----0----0--|-2----2----2--0--0--0---0----|--------|--------|--------|
G#|-0----0----0--2----2----2--|-3----3----3--2--2--2---2----|--------|--------|--------|
D#|---------------------------|-----------------------------|--------|--------|--------|


D#|--------|--------|--------|--------|--------|--------|--------|--------|--------|
A#|--------|--------|--------|--------|--------|--------|--------|--------|--------|
F#|--------|--------|--------|--------|--------|--------|--------|--------|--------|
C#|--------|--------|--------|--------|--------|--------|--------|--------|--------|
G#|--------|--------|--------|--------|--------|--------|--------|--------|--------|
D#|--------|--------|--------|--------|--------|--------|--------|--------|--------|


D#|--------|--------|--------|--------|--------|--------|--------|--------|--------|
A#|--------|--------|--------|--------|--------|--------|--------|--------|--------|
F#|--------|--------|--------|--------|--------|--------|--------|--------|--------|
C#|--------|--------|--------|--------|--------|--------|--------|--------|--------|
G#|--------|--------|--------|--------|--------|--------|--------|--------|--------|
D#|--------|--------|--------|--------|--------|--------|--------|--------|--------|


D#|--------|--------|--------|
A#|--------|--------|--------|
F#|--------|--------|--------|
C#|--------|--------|--------|
G#|--------|--------|--------|
D#|--------|--------|--------|





Track 3: Guitar 1

D#|--------|--------|--------|--------|--------|--------|--------|--------|--------|
A#|--------|--------|--------|--------|--------|--------|--------|--------|--------|
F#|--------|--------|--------|--------|--------|--------|--------|--------|--------|
C#|--------|--------|--------|--------|--------|--------|--------|--------|--------|
G#|--------|--------|--------|--------|--------|--------|--------|--------|--------|
D#|--------|--------|--------|--------|--------|--------|--------|--------|--------|


D#|--------|--------|--------|--------|--------|--------|--------|--------|--------|
A#|--------|--------|--------|--------|--------|--------|--------|--------|--------|
F#|--------|--------|--------|--------|--------|--------|--------|--------|--------|
C#|--------|--------|--------|--------|--------|--------|--------|--------|--------|
G#|--------|--------|--------|--------|--------|--------|--------|--------|--------|
D#|--------|--------|--------|--------|--------|--------|--------|--------|--------|


D#|--------|--------|--------|--------|--------|--------|--------|--------|--------|
A#|--------|--------|--------|--------|--------|--------|--------|--------|--------|
F#|--------|--------|--------|--------|--------|--------|--------|--------|--------|
C#|--------|--------|--------|--------|--------|--------|--------|--------|--------|
G#|--------|--------|--------|--------|--------|--------|--------|--------|--------|
D#|--------|--------|--------|--------|--------|--------|--------|--------|--------|


D#|--------|--------|--------|--------|--------|--------|--------|--------|--------|
A#|--------|--------|--------|--------|--------|--------|--------|--------|--------|
F#|--------|--------|--------|--------|--------|--------|--------|--------|--------|
C#|--------|--------|--------|--------|--------|--------|--------|--------|--------|
G#|--------|--------|--------|--------|--------|--------|--------|--------|--------|
D#|--------|--------|--------|--------|--------|--------|--------|--------|--------|


D#|--------|--------|--------|--------|--------|--------|--------|--------|--------|
A#|--------|--------|--------|--------|--------|--------|--------|--------|--------|
F#|--------|--------|--------|--------|--------|--------|--------|--------|--------|
C#|--------|--------|--------|--------|--------|--------|--------|--------|--------|
G#|--------|--------|--------|--------|--------|--------|--------|--------|--------|
D#|--------|--------|--------|--------|--------|--------|--------|--------|--------|


D#|--------|--------|--------|--------|--------|--------|--------|--------|--------|
A#|--------|--------|--------|--------|--------|--------|--------|--------|--------|
F#|--------|--------|--------|--------|--------|--------|--------|--------|--------|
C#|--------|--------|--------|--------|--------|--------|--------|--------|--------|
G#|--------|--------|--------|--------|--------|--------|--------|--------|--------|
D#|--------|--------|--------|--------|--------|--------|--------|--------|--------|


D#|--------|--------|
A#|--------|--------|
F#|--------|--------|
C#|--------|--------|
G#|--------|--------|
D#|--------|--------|





Track 4: Guitar 3

D#|--------|--------|--------|--------|--------|--------|--------|--------|--------|
A#|--------|--------|--------|--------|--------|--------|--------|--------|--------|
F#|--------|--------|--------|--------|--------|--------|--------|--------|--------|
C#|--------|--------|--------|--------|--------|--------|--------|--------|--------|
G#|--------|--------|--------|--------|--------|--------|--------|--------|--------|
D#|--------|--------|--------|--------|--------|--------|--------|--------|--------|


D#|--------|--------|--------|--------|--------|--------|--------|--------|--------|
A#|--------|--------|--------|--------|--------|--------|--------|--------|--------|
F#|--------|--------|--------|--------|--------|--------|--------|--------|--------|
C#|--------|--------|--------|--------|--------|--------|--------|--------|--------|
G#|--------|--------|--------|--------|--------|--------|--------|--------|--------|
D#|--------|--------|--------|--------|--------|--------|--------|--------|--------|


D#|--------|--------|--------|--------|--------|--------|--------|--------|--------|
A#|--------|--------|--------|--------|--------|--------|--------|--------|--------|
F#|--------|--------|--------|--------|--------|--------|--------|--------|--------|
C#|--------|--------|--------|--------|--------|--------|--------|--------|--------|
G#|--------|--------|--------|--------|--------|--------|--------|--------|--------|
D#|--------|--------|--------|--------|--------|--------|--------|--------|--------|


D#|--------|--------|--------|--------|--------|--------|--------|--------|--------|
A#|--------|--------|--------|--------|--------|--------|--------|--------|--------|
F#|--------|--------|--------|--------|--------|--------|--------|--------|--------|
C#|--------|--------|--------|--------|--------|--------|--------|--------|--------|
G#|--------|--------|--------|--------|--------|--------|--------|--------|--------|
D#|--------|--------|--------|--------|--------|--------|--------|--------|--------|


D#|--------|--------|--------|--------|--------------------------------|-------------------------------------------|
A#|--------|--------|--------|--------|--------------------------------|-------------------------------------------|
F#|--------|--------|--------|--------|-9----9----9--9--11-11--11---11-|-11-12-12--12--12-12-12-14-14-14-14-16-16--|
C#|--------|--------|--------|--------|--------------------------------|-------------------------------------------|
G#|--------|--------|--------|--------|-7----7----7--7--9--9---9----9--|-9--10-10--10--10-10-10-12-12-12-12-14-14--|
D#|--------|--------|--------|--------|--------------------------------|-------------------------------------------|


D#|------------------------------|-------------------------------------|--------------------------------|
A#|------------------------------|-------------------------------------|--------------------------------|
F#|-16--17--19--17--17--16---16--|-16--16--16-17-16--16--16-17-16--16--|-16--17--19--17--17--16---12-12-|
C#|------------------------------|-------------------------------------|--------------------------------|
G#|-14--15--17--15--15--14---14--|-14--14--14-15-14--14--14-15-14--14--|-14--15--17--15--15--14---10-10-|
D#|------------------------------|-------------------------------------|--------------------------------|


D#|-------------------------------------|-------------------------------------|-------------------------------------|
A#|-------------------------------------|-------------------------------------|-------------------------------------|
F#|-12--12--12-14-12--12--12-14-12--12--|-16--17--19--17--17-17-16--16--16-16-|-16--16--16-17-16--16--16-17-16--16--|
C#|-------------------------------------|-------------------------------------|-------------------------------------|
G#|-10--10--10-12-10--10--10-12-10--10--|-14--15--17--15--15-15-14--14--14-14-|-14--14--14-15-14--14--14-15-14--14--|
D#|-------------------------------------|-------------------------------------|-------------------------------------|


D#|-------------------------------------|-------------------------------------|-------------------------------------|
A#|-------------------------------------|-------------------------------------|-------------------------------------|
F#|-16--17--19--17--16-16-16--16--12-12-|-12--12--12-14-12--12--12-14-12--12--|-16--17--17--16-16-16--17--17--16-16-|
C#|-------------------------------------|-------------------------------------|-------------------------------------|
G#|-14--15--17--15--14-14-14--14--10-10-|-10--10--10-12-10--10--10-12-10--10--|-14--15--15--14-14-14--15--15--14-14-|
D#|-------------------------------------|-------------------------------------|-------------------------------------|


D#|---------------------------------------|--------------------------------|-0------|
A#|---------------------------------------|--------------------------------|-0------|
F#|-16--17--17--16-16-16-17-17--17--16-16-|-16--17--17--16-16-16--17--17---|-0------|
C#|---------------------------------------|--------------------------------|-2------|
G#|-14--15--15--14-14-14-15-15--15--14-14-|-14--15--15--14-14-14--15--15---|-2------|
D#|---------------------------------------|--------------------------------|-0------|


D#|-0------|-0------|
A#|-0------|-0------|
F#|-0------|-0------|
C#|-2------|-2------|
G#|-2------|-2------|
D#|-0------|-0------|





Track 5: Untitled

F#|-------------------------------------|-------------------------------------|-----------------------------------|
C#|-------------------------------------|-------------------0---0---0---0--0--|-----------------------------------|
G#|-------------------0---0---0---0--0--|-------------------------------------|-3---3-------3---3---3---3---------|
D#|-0---0---0---0--3--------------------|-3---3---3---3--3--------------------|-----------------------------3--2--|


F#|---------------------------------------|-------------------------------------|-----------------------------------------|
C#|---------------------------------------|-------------------------------------|-----------------------------------------|
G#|-------------------0--2----------------|-------------------0---0---0------0--|------------2--3--4--5--0--5---5---0--5--|
D#|-0---0---0---0--0--------0--0--0--3----|-0---0---0---0--3--------------0-----|-3---3---3-------------------------------|


F#|-------------------2---2--0--0--0--0-----|---------------------------------------------|
C#|----------------2---------------------4--|---------0--2--2--2--2--0--2--2--2--2--2--2--|
G#|-3---3---3---3---------------------------|---------------------------------------------|
D#|-----------------------------------------|-0---0---------------------------------------|


F#|-------------------------------------|---------------------------------------|-------------------------------------|
C#|-------------------------------------|---------------------------------------|-------------------------------------|
G#|-0---0---0---0--0--2---2---2---2--2--|-3---3---3---3--3--2--2--2---2---2--2--|-0---0---0---0--0--2---2---2---2--2--|
D#|-------------------------------------|---------------------------------------|-------------------------------------|


F#|-------------------------------------|--------|--------|--------|--------|--------|
C#|-------------------------------------|--------|--------|--------|--------|--------|
G#|-3---3---3---3--3--2--2--2---2---2---|--------|--------|--------|--------|--------|
D#|-------------------------------------|--------|--------|--------|--------|--------|


F#|--------|--------|-----------------|-------------------------------------|---------------------------------------|
C#|--------|--------|-----------------|-------------------------------------|-------------------0-----0---0------0--|
G#|--------|--------|-----------------|-------------------0---0---0------0--|----------------------0----------0-----|
D#|--------|--------|------------22---|-0---0---0---0--0--------------0-----|-3---3---3---3--3----------------------|


F#|-------------------2---2--0--0--0--0-----|---------9--7---9------9-------------|
C#|----------------2---------------------4--|-------------------9------7--7--5----|
G#|-3---3---3---3---------------------------|-------------------------------------|
D#|-----------------------------------------|-0----0------------------------------|


F#|-------------------------------------|---------------------------------------|-------------------2---2--0--0--0--0--4--|
C#|-------------------------------------|---------------------------------------|-----------------------------------------|
G#|-------------------0-------0------0--|----------------------5--5---5---5--5--|-3---3---3---3--3------------------------|
D#|-0---0---0---0--3------0-------0-----|-3---3---3---3--3--2-------------------|-----------------------------------------|


F#|-2--0--------------------------------------|-------------------------------------|
C#|-------2---2---2--2--0--2-----0--0--2------|-------------------------------------|
G#|---------------------------2-----------3---|-0---0---0---0--0--2---2---2---2--2--|
D#|-------------------------------------------|-------------------------------------|


F#|---------------------------------------|-------------------------------------|-------------------------------------|
C#|---------------------------------------|-------------------------------------|-------------------------------------|
G#|-3---3---3---3--3--2--2--2---2---2--2--|-0---0---0---0--0--2---2---2---2--2--|-3---3---3---3--3--2--2--2---2---2---|
D#|---------------------------------------|-------------------------------------|-------------------------------------|


F#|--------|--------|--------|--------|--------|--------|--------|--------|------------------------------------------|
C#|--------|--------|--------|--------|--------|--------|--------|--------|------2--2--2--2--2--2--2--2--2--2--2--2--|
G#|--------|--------|--------|--------|--------|--------|--------|--------|------------------------------------------|
D#|--------|--------|--------|--------|--------|--------|--------|--------|------------------------------------------|


F#|-------------------------2--0--0--0--0--0--0---|-------------------------------------|
C#|-2--2--2--2--2--2--2--2------------------------|-------------------------------------|
G#|-----------------------------------------------|-0---0---0---0--0--2---2---2---2--2--|
D#|-----------------------------------------------|-------------------------------------|


F#|---------------------------------------|-------------------------------------|-------------------------------------|
C#|---------------------------------------|-------------------------------------|-------------------------------------|
G#|-3---3---3---3--3--2--2--2---2---2--2--|-0---0---0---0--0--2---2---2---2--2--|-3---3---3---3--3--2--2--2---2---2---|
D#|---------------------------------------|-------------------------------------|-------------------------------------|


F#|-----------------------------------------|-------------------------------------------|
C#|-----------------------------------------|-------------------------------------------|
G#|-0---0---0--0-----0--2---2---2--2-----2--|-3---3---3---3--3--2--3--2--3--2--2-----3--|
D#|---------------0-------------------3-----|-------------------------------------3-----|


F#|-------------0--2------------------------|-----------------------------4--4--4---|
C#|-----------------------------------------|---------------------------------------|
G#|-0---0---0---------2--2--2---2--3--2--3--|-3---3---3---3--3--2--3--2-------------|
D#|-----------------------------------------|---------------------------------------|


F#|-------------------------------------|-----------------------------------------|
C#|-------------------------------------|-----------------------------------------|
G#|-------------------0---0---0------0--|---------------2--2--5--0--5---5---0--5--|
D#|-0---0---0---0--3--------------0-----|-3---3---3--3----------------------------|


F#|----------------0--2---2--4--4---0-----|--------|--------|--------|
C#|-------------2----------------------4--|-2------|-2------|-2------|
G#|-3---3---3-----------------------------|--------|--------|--------|
D#|---------------------------------------|--------|--------|--------|