Menu:

 

Search:

 

nuclear assault - surgery:

 



/---------------------------------------------------------------------------
/ The following is the author's own interpretation of the song, to be used -
/ for studying or private use only, removal of any part of this ten line   -
/ header is illegal!!!  Removal of the transcribers name or anything       -
/ relevant to the transcriber is also illegal, as so is the removal of the -
/ place inwhich the tab was downloaded. Publishing as well as printing of  -
/ the tab is illegal without permission of the transcriber and copyright   -
/ owner of the song. Failure to apply to these laws result will in legal   -
/ action from the appropriate parties.                                     -
/---------------------------------------------------------------------------

downloaded from Displacer's Tablature Site at
        http://www.dsrmusic.com/metaltab
join the death/black tab emailing list by filling out the free
subscription form at http://www.dsrmusic.com/metaltab/join.htm


#----------------------------------PLEASE NOTE---------------------------------#
#This file is the author's own work and represents their interpretation of the #
#song. You may only use this file for private study, scholarship, or research. #
#------------------------------------------------------------------------------#

  Visit MetalTabs.com for more metal tablature
  
Nuclear Assault "Surgery" from HANDLE WITH CARE (1989)

Tabbed by Nick S. (Pantera9560@aol.com) If you E-mail me, use the subj. "Surgery tabs" or
"Tabs at metaltabs.com" or something like that. This is the first Nuclear Assault tab at
metaltabs.com and not the last; I plan on doing more stuff from this album, but I don't
know how soon it will be. This is a very easy song to play. Here it is:

Riff 1A
E-0-0-7-9-8-0-7-0-0-0-7-9-8-0-7-0---
  * *           * * *

Riff 1B
A-----9-11-10-0-9-0---
E-0-0-7--9--8-0-7-0---
  * *

Riff 2
D--------------------------------------------------------8--10--11---
A-----8-----8-----8-----8-----------8-----8-----8-----8--6---8---9---
E-0-0-6-0-0-6-0-0-6-0-0-6-0-2-3-0-0-6-0-0-6-0-0-6-0-0-6--------------
  * *   * *   * *   * *         * *   * *   * *   * *

Riff 3
D-8--8--8--11--9-----------
A-6--6--6---9--7-7777777---
                 *******

Riff 4
D-------3-----3-------3-----3------
A-------1-----1-------1-----1--3---
E-0-0-0---000---0-0-0---000----1---
  * * *   ***   * * *   ***

Riff 5
G----------------9------------------------------------------------9------
D-8------9-9/8---7----------8-----9-9/8------------8------9-9/8---7------
A-6------7-7/6--------------6-----7-7/6---7--------6------7-7/6----------
E---------------------------6-------------5------------------------------

Song order:
Riff 1A 6x
Riff 1B 4x
Riff 2 3x
Riff 3 4x
Riff 2 twice
Riff 3 4x
Riff 4 4x
After the 4th time play an E5 chord and let it ring a little, then a pickslide,
then use the whammy bar to get some good feedback.
Riff 5 once
Riff 2 3x
Riff 3 4x
Riff 4 4x then end w/ an E5 chord.

  Visit MetalTabs.com for more metal tablature