Menu:

 

Search:

 

night ranger - when you close your eyes:

 



Title: When You Close Your Eyes
Artist: 
Album: Midnight Madness
Author: Jack Blades, Brad Gillis, Alan Francis Fitzgerald


Track 1: Guitar

E|--------|---------------------|---------------------------|--------------------|
B|--------|---------------------|-12--12--12----------------|--------------------|
G|--------|-14----12--12----14--|-------------14--14--12----|-14----12--12----14-|
D|--------|---------------------|---------------------------|--------------------|
A|--------|---------------------|---------------------------|--------------------|
E|--------|---------------------|---------------------------|--------------------|


E|------------------------------|---------------------|-----------------------|-13------15------17------17---17-17---|
B|-12--12--12-------------------|---------------------|-12--13--15--15--15----|-----13------13------13---------------|
G|-------------14--14--12---0---|-14----12--12----14--|-----------------------|--------------------------------------|
D|------------------------------|---------------------|-----------------------|--------------------------------------|
A|------------------------------|---------------------|-----------------------|--------------------------------------|
E|------------------------------|---------------------|-----------------------|--------------------------------------|


E|-17----17-18-18---18---|-18-----|-18-----|-18-----|--------|--------|--------|---------------------------------|
B|-----------------------|--------|--------|--------|--------|--------|--------|---------------------------------|
G|-----------------------|--------|--------|--------|--------|--------|--------|---------------------------------|
D|-----------------------|--------|--------|--------|--------|--------|--------|---------5---4-------5-------5---|
A|-----------------------|--------|--------|--------|--------|--------|--------|-----5-----------5-------5-------|
E|-----------------------|--------|--------|--------|--------|--------|--------|-3-------------------------------|


E|---------------------------------|---------------------------------|---------------------------------|
B|---------------------------------|---------------------------------|---------------------------------|
G|---------------------------------|---------------------------------|---------------------------------|
D|---------5---4-------5-------5---|-----4---5---4-------5-------5---|-----4---5---4-------5-------5---|
A|-----5-----------5-------5-------|-3---------------3-------3-------|-3---------------3-------3-------|
E|-3-------------------------------|---------------------------------|---------------------------------|


E|---------------------------------|---------------------------------|---------------------------------|
B|---------------------------------|---------------------------------|---------------------------------|
G|---------------------------------|---------------------------------|---------------------------------|
D|-----2---5---2-------5---4---5---|---------5---3-------5---3---5---|---------5---4-------5-------5---|
A|-0---------------0---------------|-----3-----------3---------------|-----5-----------5-------5-------|
E|---------------------------------|-1-------------------------------|-3-------------------------------|


E|-----------------------|---------------------------------|---------------------------------|
B|-----------------------|---------------------------------|---------------------------------|
G|-----5-------7---7-----|---------------------------------|---------------------------------|
D|-----5-------7---7-----|-5-------5---4-------5-------5---|---------5---4-------5---4---2---|
A|-5---3-------5---5-----|-----5-----------5-------5-------|-----5-----------5---------------|
E|-----------------------|---------------------------------|-3-------------------------------|


E|---------------------------------|---------------------------------|---------------------------------|
B|---------------------------------|---------------------------------|---------------------------------|
G|---------------------------------|-----5---------------------------|---------------------------------|
D|-----5---7---4---5---5---5---5---|---------5---4-------5-------5---|-2---5---4---2---4---5-------5---|
A|-3-------------------------------|-3---------------3-------3-------|---------------------------------|
E|---------------------------------|---------------------------------|---------------------------------|


E|---------------------------------|---------------------------------|---------------------------------|
B|---------------------------------|---------------------------------|---------------------------------|
G|-----5-----------5---------------|---------------------------------|---------------------------------|
D|-3-------5---3-------5-------5---|-----5---5---5---5---5---5---5---|-5---5---5---5---5---5---5-------|
A|---------------------------------|-----5---5---5---5---5---5---5---|-5---5---5---5---5---5---5-------|
E|---------------------------------|-3---------------3---3---3---3---|-3---3---3---3---3---3---3-------|


E|---------------------------|---------------------------|---------------------------------|
B|---------------------------|---------------------------|---------------------------------|
G|-3----------------5--------|--------------5---5----8---|-8-------------------------------|
D|-3----------------3----3---|-3------------3---3----8---|-8---8---8---8---8---8---8---8---|
A|-1----1---1---1---1----3---|-3------------3---3----6---|-6---6---6---6---6---6---6---10--|
E|-----------------------1---|-1----1---1----------------|---------------------------------|


E|-----------------------------|------------------------------|---------------------------|
B|-----------------------------|------------------------------|---------------------------|
G|----------8---8---8--8--8----|-3--------------------3-------|---------------------------|
D|-----8----8---8---8--8--8----|-3--------------------3-------|-3----------------3---3----|
A|-----8----6---6---6--6--6----|-1----1---1---1---1---5---3---|-3----3---3---3---3---3----|
E|-----------------------------|------------------------------|-1----1---1---1---1---1----|


E|--------|--------|---------------------|---------------------|---------------------|
B|--------|--------|---------------------|---------------------|---------------------|
G|--------|--------|---------------------|---------------------|---------------------|
D|-5------|-5------|-------5---5---------|-------5---5---------|-------5---5---------|
A|-5------|-5------|-2--------------2----|-3--------------3----|-7--------------7----|
E|-3------|-3------|---------------------|---------------------|---------------------|


E|-------------------|---------------------|------------------------|------------------------------|
B|-------------------|---------------------|------------------------|------------------------------|
G|-------------------|---------------------|------------------------|----------------7----7--------|
D|-4-----5--4--------|-------5---5---------|-------5---5------------|-7-----9--7--9------------9-7-|
A|-------------7-----|-2--------------2----|-3--------------3---5---|------------------------------|
E|-------------------|---------------------|------------------------|------------------------------|


E|-------------|--------|-----------------------|--------|--------------------|-----------------------------3---|
B|-7-----------|--------|-----------------------|--------|--------------------|-------------3---3-------3-------|
G|-7-----------|--------|-----------------------|--------|--------------------|---------2-----------------------|
D|-7-----------|-5------|-5-----5---5---4---2---|-2------|-2-----2--2----2----|-----5---------------5-----------|
A|-------------|-5------|-5-----5---------------|--------|--------------------|---------------------------------|
E|--------10---|-3------|-3-----3---------------|--------|--------------------|---------------------------------|


E|-3--------------|-----------------------------3---|-3------|-----------------------------3---|
B|----------------|-------------3---3-------3-------|--------|-------------3---3-------3-------|
G|-----2---2------|-2-------2-----------------------|--------|---------2-----------------------|
D|----------------|-----5---------------5-----------|--------|-----5---------------5-----------|
A|----------------|---------------------------------|--------|---------------------------------|
E|----------------|---------------------------------|--------|---------------------------------|


E|-3--------------|-----------------------------3---|-3------|-----------------------------3---|
B|----------------|-------------3---3-------3-------|--------|-------------3---3-------3-------|
G|-----2---2------|-2-------2-----------------------|--------|---------2-----------------------|
D|----------------|-----5---------------5-----------|--------|-----5---------------5-----------|
A|----------------|---------------------------------|--------|---------------------------------|
E|----------------|---------------------------------|--------|---------------------------------|


E|-3--------------|-----------------------------3---|-3------|-----------------------------3---|
B|----------------|-------------3---3-------3-------|--------|-------------3---3-------3-------|
G|-----2---2------|-2-------2-----------------------|--------|---------2-----------------------|
D|----------------|-----5---------------5-----------|--------|-----5---------------5-----------|
A|----------------|---------------------------------|--------|---------------------------------|
E|----------------|---------------------------------|--------|---------------------------------|


E|-3--------------|---------------------------------|---------------------------------|
B|----------------|---------------------------------|---------------------------------|
G|-----2---2------|---------------------------------|---------------------------------|
D|----------------|-----5---5---5---5---5---5---5---|-5---5---5---5---5---5---5-------|
A|----------------|-----5---5---5---5---5---5---5---|-5---5---5---5---5---5---5-------|
E|----------------|-3---------------3---3---3---3---|-3---3---3---3---3---3---3-------|


E|---------------------------|---------------------------|---------------------------------|
B|---------------------------|---------------------------|---------------------------------|
G|-3----------------5--------|--------------5---5----8---|-8-------------------------------|
D|-3----------------3----3---|-3------------3---3----8---|-8---8---8---8---8---8---8---8---|
A|-1----1---1---1---1----3---|-3------------3---3----6---|-6---6---6---6---6---6---6---10--|
E|-----------------------1---|-1----1---1----------------|---------------------------------|


E|-----------------------------|------------------------------|---------------------------|
B|-----------------------------|------------------------------|---------------------------|
G|----------8---8---8--8--8----|-3--------------------3-------|---------------------------|
D|-----8----8---8---8--8--8----|-3--------------------3-------|-3----------------3---3----|
A|-----8----6---6---6--6--6----|-1----1---1---1---1---5---3---|-3----3---3---3---3---3----|
E|-----------------------------|------------------------------|-1----1---1---1---1---1----|


E|--------|--------|---------------------|---------------------|---------------------|
B|--------|--------|---------------------|---------------------|---------------------|
G|--------|--------|---------------------|---------------------|---------------------|
D|-5------|-5------|-------5---5---------|-------5---5---------|-------5---5---------|
A|-5------|-5------|-2--------------2----|-3--------------3----|-7--------------7----|
E|-3------|-3------|---------------------|---------------------|---------------------|


E|-------------------|---------------------|------------------------|------------------------------|
B|-------------------|---------------------|------------------------|------------------------------|
G|-------------------|---------------------|------------------------|----------------7----7--------|
D|-4-----5--4--------|-------5---5---------|-------5---5------------|-7-----9--7--9------------9-7-|
A|-------------7-----|-2--------------2----|-3--------------3---5---|------------------------------|
E|-------------------|---------------------|------------------------|------------------------------|


E|-------------|---------------------|---------------------|---------------------|
B|-7-----------|---------------------|---------------------|---------------------|
G|-7-----------|---------------------|---------------------|---------------------|
D|-7-----------|-------5---5---------|-------5---5---------|-------5---5---------|
A|-------------|-2--------------2----|-3--------------3----|-7--------------7----|
E|--------10---|---------------------|---------------------|---------------------|


E|-------------------|---------------------|------------------------|-------------------------|
B|-------------------|---------------------|------------------------|-------------8-----7--7--|
G|-------------------|---------------------|------------------------|-7-----------7-----7--7--|
D|-4-----5--4--------|-------5---5---------|-------5---5------------|-7-----9--7--7-----7--7--|
A|-------------7-----|-2--------------2----|-3--------------3---5---|-5-----------5-----5--5--|
E|-------------------|---------------------|------------------------|-------------------------|


E|-------------|--------------------|---------------------------|--------------------|
B|-7------7----|--------------------|-12--12--12----------------|--------------------|
G|-7------7----|-14----12--12----14-|-------------14--14--12----|-14----12--12----14-|
D|-7------7----|--------------------|---------------------------|--------------------|
A|-5------5----|--------------------|---------------------------|--------------------|
E|-------------|--------------------|---------------------------|--------------------|


E|---------------------------|---------------------|-----------------------|-13------15------17------17---17-17---|
B|-12--12--12----------------|---------------------|-12--13--15--15--15----|-----13------13------13---------------|
G|-------------14--14--12----|-14----12--12----14--|-----------------------|--------------------------------------|
D|---------------------------|---------------------|-----------------------|--------------------------------------|
A|---------------------------|---------------------|-----------------------|--------------------------------------|
E|---------------------------|---------------------|-----------------------|--------------------------------------|


E|-17-----|--------|--------|--------|--------|--------|--------|--------|--------|
B|--------|--------|--------|--------|--------|--------|--------|--------|--------|
G|--------|--------|--------|--------|--------|--------|--------|--------|--------|
D|--------|--------|--------|--------|--------|--------|--------|--------|--------|
A|--------|--------|--------|--------|--------|--------|--------|--------|--------|
E|--------|--------|--------|--------|--------|--------|--------|--------|--------|


E|--------|--------|--------|--------|--------|--------|--------|--------|---------------------|
B|--------|--------|--------|--------|--------|--------|--------|--------|---------------------|
G|--------|--------|--------|--------|--------|--------|--------|--------|---------------------|
D|--------|--------|--------|--------|--------|--------|--------|--------|-------5---5---------|
A|--------|--------|--------|--------|--------|--------|--------|--------|-2--------------2----|
E|--------|--------|--------|--------|--------|--------|--------|--------|---------------------|


E|---------------------|---------------------|-------------------|---------------------|
B|---------------------|---------------------|-------------------|---------------------|
G|---------------------|---------------------|-------------------|---------------------|
D|-------5---5---------|-------5---5---------|-4-----5--4--------|-------5---5---------|
A|-3--------------3----|-7--------------7----|-------------7-----|-2--------------2----|
E|---------------------|---------------------|-------------------|---------------------|


E|------------------------|------------------------------|-------------|--------|-----------------------|
B|------------------------|------------------------------|-7-----------|--------|-----------------------|
G|------------------------|----------------7----7--------|-7-----------|--------|-----------------------|
D|-------5---5------------|-7-----9--7--9------------9-7-|-7-----------|-5------|-5-----5---5---4---2---|
A|-3--------------3---5---|------------------------------|-------------|-5------|-5-----5---------------|
E|------------------------|------------------------------|--------10---|-3------|-3-----3---------------|


E|--------|--------------------|------------------------------|-------------|---------------------|
B|--------|--------------------|------------------------------|-7-----------|---------------------|
G|--------|--------------------|----------------7----7--------|-7-----------|---------------------|
D|-2------|-2-----2--2----2----|-7-----9--7--9------------9-7-|-7-----------|-------5---5---------|
A|--------|--------------------|------------------------------|-------------|-2--------------2----|
E|--------|--------------------|------------------------------|--------10---|---------------------|


E|---------------------|---------------------|-------------------|---------------------|
B|---------------------|---------------------|-------------------|---------------------|
G|---------------------|---------------------|-------------------|---------------------|
D|-------5---5---------|-------5---5---------|-4-----5--4--------|-------5---5---------|
A|-3--------------3----|-7--------------7----|-------------7-----|-2--------------2----|
E|---------------------|---------------------|-------------------|---------------------|


E|------------------------|-------------------------|------14----15--15---|------14----15--15---|
B|------------------------|-------------8-----7--7--|-15------------------|-15------------------|
G|------------------------|-7-----------7-----7--7--|---------------------|---------------------|
D|-------5---5------------|-7-----9--7--7-----7--7--|---------------------|---------------------|
A|-3--------------3---5---|-5-----------5-----5--5--|---------------------|---------------------|
E|------------------------|-------------------------|---------------------|---------------------|


E|------14----15--15---|------14----15-14------|------14----15--15---|------14----15--15---|
B|-15------------------|------------------17---|---------------------|-15------------------|
G|---------------------|-----------------------|---------------------|---------------------|
D|---------------------|-----------------------|---------------------|---------------------|
A|---------------------|-----------------------|---------------------|---------------------|
E|---------------------|-----------------------|---------------------|---------------------|


E|-15--17--17-----|------17-----|------14----15--15---|------14----15--15---|------14----15--15---|
B|----------------|-------------|---------------------|-15------------------|-15------------------|
G|----------------|-------------|---------------------|---------------------|---------------------|
D|----------------|-------------|---------------------|---------------------|---------------------|
A|----------------|-------------|---------------------|---------------------|---------------------|
E|----------------|-------------|---------------------|---------------------|---------------------|


E|------14----15-14------|------14----15--15---|------14----15--15---|-15--17--17-----|
B|------------------17---|---------------------|-15------------------|----------------|
G|-----------------------|---------------------|---------------------|----------------|
D|-----------------------|---------------------|---------------------|----------------|
A|-----------------------|---------------------|---------------------|----------------|
E|-----------------------|---------------------|---------------------|----------------|


E|------17-----|
B|-------------|
G|-------------|
D|-------------|
A|-------------|
E|-------------|





Track 2: Guitar

E|--------|--------|--------|--------|--------|--------|--------|--------|--------|
B|--------|--------|--------|--------|--------|--------|--------|--------|--------|
G|--------|--------|--------|--------|--------|--------|--------|--------|--------|
D|--------|--------|--------|--------|--------|--------|--------|--------|--------|
A|--------|--------|--------|--------|--------|--------|--------|--------|--------|
E|--------|--------|--------|--------|--------|--------|--------|--------|--------|


E|--------|--------|--------|--------|--------|--------|--------|--------|--------|
B|--------|--------|--------|--------|--------|--------|--------|--------|--------|
G|--------|--------|--------|--------|--------|--------|--------|--------|--------|
D|--------|--------|--------|--------|--------|--------|--------|--------|--------|
A|--------|--------|--------|--------|--------|--------|--------|--------|--------|
E|--------|--------|--------|--------|--------|--------|--------|--------|--------|


E|--------|--------|--------|--------|--------|--------|--------|--------|--------|
B|--------|--------|--------|--------|--------|--------|--------|--------|--------|
G|--------|--------|--------|--------|--------|--------|--------|--------|--------|
D|--------|--------|--------|--------|--------|--------|--------|--------|--------|
A|--------|--------|--------|--------|--------|--------|--------|--------|--------|
E|--------|--------|--------|--------|--------|--------|--------|--------|--------|


E|--------|--------|--------|--------|--------|--------|--------|--------|--------|
B|--------|--------|--------|--------|--------|--------|--------|--------|--------|
G|--------|--------|--------|--------|--------|--------|--------|--------|--------|
D|--------|--------|--------|--------|--------|--------|--------|--------|--------|
A|--------|--------|--------|--------|--------|--------|--------|--------|--------|
E|--------|--------|--------|--------|--------|--------|--------|--------|--------|


E|--------|--------|--------|--------|--------|--------|--------|--------|--------|
B|--------|--------|--------|--------|--------|--------|--------|--------|--------|
G|--------|--------|--------|--------|--------|--------|--------|--------|--------|
D|--------|--------|--------|--------|--------|--------|--------|--------|--------|
A|--------|--------|--------|--------|--------|--------|--------|--------|--------|
E|--------|--------|--------|--------|--------|--------|--------|--------|--------|


E|--------|--------|--------|--------|--------|--------|--------|--------|--------|
B|--------|--------|--------|--------|--------|--------|--------|--------|--------|
G|--------|--------|--------|--------|--------|--------|--------|--------|--------|
D|--------|--------|--------|--------|--------|--------|--------|--------|--------|
A|--------|--------|--------|--------|--------|--------|--------|--------|--------|
E|--------|--------|--------|--------|--------|--------|--------|--------|--------|


E|--------|--------|--------|--------|--------|---------------------------------|---------------------------------|
B|--------|--------|--------|--------|--------|---------------------------------|---------------------------------|
G|--------|--------|--------|--------|--------|---------------------------------|---------------------------------|
D|--------|--------|--------|--------|--------|-5-------5---4-------5-------5---|---------5---4-------5---4---2---|
A|--------|--------|--------|--------|--------|-----5-----------5-------5-------|-----5-----------5---------------|
E|--------|--------|--------|--------|--------|---------------------------------|-3-------------------------------|


E|---------------------------------|---------------------------------|---------------------------------|
B|---------------------------------|---------------------------------|---------------------------------|
G|---------------------------------|-----5---------------------------|---------------------------------|
D|-----5---7---4---5---5---5---5---|---------5---4-------5-------5---|-2---5---4---2---4---5-------5---|
A|-3-------------------------------|-3---------------3-------3-------|---------------------------------|
E|---------------------------------|---------------------------------|---------------------------------|


E|---------------------------------|--------|--------|--------|--------|--------|--------|
B|---------------------------------|--------|--------|--------|--------|--------|--------|
G|-----5-----------5---------------|--------|--------|--------|--------|--------|--------|
D|-3-------5---3-------5-------5---|--------|--------|--------|--------|--------|--------|
A|---------------------------------|--------|--------|--------|--------|--------|--------|
E|---------------------------------|--------|--------|--------|--------|--------|--------|


E|--------|--------|--------|--------|--------|--------|--------|--------|--------|
B|--------|--------|--------|--------|--------|--------|--------|--------|--------|
G|--------|--------|--------|--------|--------|--------|--------|--------|--------|
D|--------|--------|--------|--------|--------|--------|--------|--------|--------|
A|--------|--------|--------|--------|--------|--------|--------|--------|--------|
E|--------|--------|--------|--------|--------|--------|--------|--------|--------|


E|--------|--------|--------|--------|--------|--------|--------|--------|--------|
B|--------|--------|--------|--------|--------|--------|--------|--------|--------|
G|--------|--------|--------|--------|--------|--------|--------|--------|--------|
D|--------|--------|--------|--------|--------|--------|--------|--------|--------|
A|--------|--------|--------|--------|--------|--------|--------|--------|--------|
E|--------|--------|--------|--------|--------|--------|--------|--------|--------|


E|--------|--------|--------|--------|--------|--------|--------|--------|--------|
B|--------|--------|--------|--------|--------|--------|--------|--------|--------|
G|--------|--------|--------|--------|--------|--------|--------|--------|--------|
D|--------|--------|--------|--------|--------|--------|--------|--------|--------|
A|--------|--------|--------|--------|--------|--------|--------|--------|--------|
E|--------|--------|--------|--------|--------|--------|--------|--------|--------|


E|--------|--------|--------|--------|--------|--------|--------|--------|--------|
B|--------|--------|--------|--------|--------|--------|--------|--------|--------|
G|--------|--------|--------|--------|--------|--------|--------|--------|--------|
D|--------|--------|--------|--------|--------|--------|--------|--------|--------|
A|--------|--------|--------|--------|--------|--------|--------|--------|--------|
E|--------|--------|--------|--------|--------|--------|--------|--------|--------|


E|--------|--------|--------|--------|--------|--------|--------|--------|--------|
B|--------|--------|--------|--------|--------|--------|--------|--------|--------|
G|--------|--------|--------|--------|--------|--------|--------|--------|--------|
D|--------|--------|--------|--------|--------|--------|--------|--------|--------|
A|--------|--------|--------|--------|--------|--------|--------|--------|--------|
E|--------|--------|--------|--------|--------|--------|--------|--------|--------|


E|--------|--------|--------|--------|--------|--------|--------|--------|--------|
B|--------|--------|--------|--------|--------|--------|--------|--------|--------|
G|--------|--------|--------|--------|--------|--------|--------|--------|--------|
D|--------|--------|--------|--------|--------|--------|--------|--------|--------|
A|--------|--------|--------|--------|--------|--------|--------|--------|--------|
E|--------|--------|--------|--------|--------|--------|--------|--------|--------|


E|--------|--------|--------|--------|--------|--------|--------|--------|--------|
B|--------|--------|--------|--------|--------|--------|--------|--------|--------|
G|--------|--------|--------|--------|--------|--------|--------|--------|--------|
D|--------|--------|--------|--------|--------|--------|--------|--------|--------|
A|--------|--------|--------|--------|--------|--------|--------|--------|--------|
E|--------|--------|--------|--------|--------|--------|--------|--------|--------|


E|--------|--------|---------------------|---------------------|---------------------|
B|--------|--------|------------8---8----|------------8---8----|------------12--12---|
G|--------|--------|---------------------|---------------------|------9--------------|
D|--------|--------|------9--------------|-9----10-------------|-10------------------|
A|--------|--------|---------------------|---------------------|---------------------|
E|--------|--------|---------------------|---------------------|---------------------|


E|-----------------------|---------------------|-------------|----------------|-------------|
B|-12---10----12-10-8----|------------8---8----|-8----5------|-5---7---8------|------7------|
G|-----------------------|-9----7--------------|-7----5------|-5---7---7------|------7------|
D|-----------------------|---------------------|-------------|---------7------|------7------|
A|-----------------------|---------------------|-------------|---------5------|------5------|
E|-----------------------|---------------------|-------------|----------------|-------------|


E|---------------------|---------------------|---------------------|-----------------------|
B|------------8---8----|------------8---8----|------------12--12---|-12---10----12-10-8----|
G|---------------------|---------------------|------9--------------|-----------------------|
D|------9--------------|-9----10-------------|-10------------------|-----------------------|
A|---------------------|---------------------|---------------------|-----------------------|
E|---------------------|---------------------|---------------------|-----------------------|


E|---------------------|-------------|----------------|-------------|
B|------------8---8----|-8----5------|-5---7---8------|------7------|
G|-9----7--------------|-7----5------|-5---7---7------|------7------|
D|---------------------|-------------|---------7------|------7------|
A|---------------------|-------------|---------5------|------5------|
E|---------------------|-------------|----------------|-------------|





Track 3: Keybd.

E|--------|--------|--------|--------|--------|--------|--------|--------|--------|
B|--------|--------|--------|--------|--------|--------|--------|--------|--------|
G|--------|--------|--------|--------|--------|--------|--------|--------|--------|
D|--------|--------|--------|--------|--------|--------|--------|--------|--------|
A|--------|--------|--------|--------|--------|--------|--------|--------|--------|
E|--------|--------|--------|--------|--------|--------|--------|--------|--------|


E|--------|--------|-----------------------------3---|-3--------------|-----------------------------3---|
B|--------|--------|-------------3---3-------3-------|----------------|-------------3---3-------3-------|
G|--------|--------|---------2-----------------------|-----2---2------|-2-------2-----------------------|
D|--------|--------|-----5---------------5-----------|----------------|-----5---------------5-----------|
A|--------|--------|---------------------------------|----------------|---------------------------------|
E|--------|--------|---------------------------------|----------------|---------------------------------|


E|-3------|-----------------------------3---|-3--------------|-----------------------------3---|
B|--------|-------------3---3-------3-------|----------------|-------------3---3-------3-------|
G|--------|---------2-----------------------|-----2---2------|-2-------2-----------------------|
D|--------|-----5---------------5-----------|----------------|-----5---------------5-----------|
A|--------|---------------------------------|----------------|---------------------------------|
E|--------|---------------------------------|----------------|---------------------------------|


E|-3------|-----------------------------3---|-3--------------|-----------------------------3---|
B|--------|-------------3---3-------3-------|----------------|-------------3---3-------3-------|
G|--------|---------2-----------------------|-----2---2------|-2-------2-----------------------|
D|--------|-----5---------------5-----------|----------------|-----5---------------5-----------|
A|--------|---------------------------------|----------------|---------------------------------|
E|--------|---------------------------------|----------------|---------------------------------|


E|-3------|-----------------------------3---|-3--------------|-----------------------------3---|
B|--------|-------------3---3-------3-------|----------------|-------------3---3-------3-------|
G|--------|---------2-----------------------|-----2---2------|-2-------2-----------------------|
D|--------|-----5---------------5-----------|----------------|-----5---------------5-----------|
A|--------|---------------------------------|----------------|---------------------------------|
E|--------|---------------------------------|----------------|---------------------------------|


E|-3------|-----------------------------3---|-3--------------|--------|--------|--------|
B|--------|-------------3---3-------3-------|----------------|--------|--------|--------|
G|--------|---------2-----------------------|-----2---2------|--------|--------|--------|
D|--------|-----5---------------5-----------|----------------|--------|--------|--------|
A|--------|---------------------------------|----------------|--------|--------|--------|
E|--------|---------------------------------|----------------|--------|--------|--------|


E|--------|--------|--------|--------|--------|--------|--------|-------------|-------------|
B|--------|--------|--------|--------|--------|--------|--------|-3------3----|-5------5----|
G|--------|--------|--------|--------|--------|--------|--------|-4------4----|-5------5----|
D|--------|--------|--------|--------|--------|--------|--------|-------------|-------------|
A|--------|--------|--------|--------|--------|--------|--------|-------------|-------------|
E|--------|--------|--------|--------|--------|--------|--------|-------------|-------------|


E|-------------|-----------------|-------------|-------------|------------------------------|
B|-5------5----|-3-----5---5-----|-3------3----|-5------5----|-8----8---8---8---8---8---7---|
G|-4------4----|-2-----5---5-----|-4------4----|-5------5----|-7----7---7---7---7---7---7---|
D|-------------|-----------------|-------------|-------------|-7----7---7---7---7---7---7---|
A|-------------|-----------------|-------------|-------------|-5----5---5---5---5---5---5---|
E|-------------|-----------------|-------------|-------------|------------------------------|


E|--------|--------|--------|--------|--------|--------|--------|--------|--------|
B|-7------|--------|--------|--------|--------|--------|--------|--------|--------|
G|-7------|--------|--------|--------|--------|--------|--------|--------|--------|
D|-7------|--------|--------|--------|--------|--------|--------|--------|--------|
A|-5------|--------|--------|--------|--------|--------|--------|--------|--------|
E|--------|--------|--------|--------|--------|--------|--------|--------|--------|


E|--------|--------|--------|--------|--------|--------|--------|--------|--------|
B|--------|--------|--------|--------|--------|--------|--------|--------|--------|
G|--------|--------|--------|--------|--------|--------|--------|--------|--------|
D|--------|--------|--------|--------|--------|--------|--------|--------|--------|
A|--------|--------|--------|--------|--------|--------|--------|--------|--------|
E|--------|--------|--------|--------|--------|--------|--------|--------|--------|


E|--------|--------|--------|--------|--------|--------|--------|--------|--------|
B|--------|--------|--------|--------|--------|--------|--------|--------|--------|
G|--------|--------|--------|--------|--------|--------|--------|--------|--------|
D|--------|--------|--------|--------|--------|--------|--------|--------|--------|
A|--------|--------|--------|--------|--------|--------|--------|--------|--------|
E|--------|--------|--------|--------|--------|--------|--------|--------|--------|


E|--------|--------|-------------|-------------|-------------|-----------------|-------------|
B|--------|--------|-3------3----|-5------5----|-5------5----|-3-----5---5-----|-3------3----|
G|--------|--------|-4------4----|-5------5----|-4------4----|-2-----5---5-----|-4------4----|
D|--------|--------|-------------|-------------|-------------|-----------------|-------------|
A|--------|--------|-------------|-------------|-------------|-----------------|-------------|
E|--------|--------|-------------|-------------|-------------|-----------------|-------------|


E|-------------|--------|--------|--------|--------|--------|--------|--------|--------|
B|-5------5----|--------|--------|--------|--------|--------|--------|--------|--------|
G|-5------5----|--------|--------|--------|--------|--------|--------|--------|--------|
D|-------------|--------|--------|--------|--------|--------|--------|--------|--------|
A|-------------|--------|--------|--------|--------|--------|--------|--------|--------|
E|-------------|--------|--------|--------|--------|--------|--------|--------|--------|


E|--------|--------|--------|--------|--------|--------|--------|--------|--------|
B|--------|--------|--------|--------|--------|--------|--------|--------|--------|
G|--------|--------|--------|--------|--------|--------|--------|--------|--------|
D|--------|--------|--------|--------|--------|--------|--------|--------|--------|
A|--------|--------|--------|--------|--------|--------|--------|--------|--------|
E|--------|--------|--------|--------|--------|--------|--------|--------|--------|


E|--------|--------|--------|--------|--------|--------|--------|--------|--------|
B|--------|--------|--------|--------|--------|--------|--------|--------|--------|
G|--------|--------|--------|--------|--------|--------|--------|--------|--------|
D|--------|--------|--------|--------|--------|--------|--------|--------|--------|
A|--------|--------|--------|--------|--------|--------|--------|--------|--------|
E|--------|--------|--------|--------|--------|--------|--------|--------|--------|


E|--------|--------|--------|--------|--------|--------|--------|--------|-------------|
B|--------|--------|--------|--------|--------|--------|--------|--------|-3------3----|
G|--------|--------|--------|--------|--------|--------|--------|--------|-4------4----|
D|--------|--------|--------|--------|--------|--------|--------|--------|-------------|
A|--------|--------|--------|--------|--------|--------|--------|--------|-------------|
E|--------|--------|--------|--------|--------|--------|--------|--------|-------------|


E|-------------|-------------|-----------------|-------------|-------------|------------------------------|
B|-5------5----|-5------5----|-3-----5---5-----|-3------3----|-5------5----|-8----8---8---8---8---8---7---|
G|-5------5----|-4------4----|-2-----5---5-----|-4------4----|-5------5----|-7----7---7---7---7---7---7---|
D|-------------|-------------|-----------------|-------------|-------------|-7----7---7---7---7---7---7---|
A|-------------|-------------|-----------------|-------------|-------------|-5----5---5---5---5---5---5---|
E|-------------|-------------|-----------------|-------------|-------------|------------------------------|


E|--------|--------|--------|--------|--------|--------|--------|--------|--------|
B|-7------|--------|--------|--------|--------|--------|--------|--------|--------|
G|-7------|--------|--------|--------|--------|--------|--------|--------|--------|
D|-7------|--------|--------|--------|--------|--------|--------|--------|--------|
A|-5------|--------|--------|--------|--------|--------|--------|--------|--------|
E|--------|--------|--------|--------|--------|--------|--------|--------|--------|


E|--------|--------|--------|--------|--------|--------|--------|--------|--------|
B|--------|--------|--------|--------|--------|--------|--------|--------|--------|
G|--------|--------|--------|--------|--------|--------|--------|--------|--------|
D|--------|--------|--------|--------|--------|--------|--------|--------|--------|
A|--------|--------|--------|--------|--------|--------|--------|--------|--------|
E|--------|--------|--------|--------|--------|--------|--------|--------|--------|


E|--------|--------|--------|--------|--------|--------|--------|--------|--------|
B|--------|--------|--------|--------|--------|--------|--------|--------|--------|
G|--------|--------|--------|--------|--------|--------|--------|--------|--------|
D|--------|--------|--------|--------|--------|--------|--------|--------|--------|
A|--------|--------|--------|--------|--------|--------|--------|--------|--------|
E|--------|--------|--------|--------|--------|--------|--------|--------|--------|


E|--------|--------|--------|
B|--------|--------|--------|
G|--------|--------|--------|
D|--------|--------|--------|
A|--------|--------|--------|
E|--------|--------|--------|





Track 4: Gtr.2

E|--------|--------|--------|--------|--------|--------|--------|--------|--------|
B|--------|--------|--------|--------|--------|--------|--------|--------|--------|
G|--------|--------|--------|--------|--------|--------|--------|--------|--------|
D|--------|--------|--------|--------|--------|--------|--------|--------|--------|
A|--------|--------|--------|--------|--------|--------|--------|--------|--------|
E|--------|--------|--------|--------|--------|--------|--------|--------|--------|


E|--------|--------|--------|--------|--------|--------|--------|--------|--------|
B|--------|--------|--------|--------|--------|--------|--------|--------|--------|
G|--------|--------|--------|--------|--------|--------|--------|--------|--------|
D|--------|--------|--------|--------|--------|--------|--------|--------|--------|
A|--------|--------|--------|--------|--------|--------|--------|--------|--------|
E|--------|--------|--------|--------|--------|--------|--------|--------|--------|


E|--------|--------|--------|--------|--------|--------|--------|--------|--------|
B|--------|--------|--------|--------|--------|--------|--------|--------|--------|
G|--------|--------|--------|--------|--------|--------|--------|--------|--------|
D|--------|--------|--------|--------|--------|--------|--------|--------|--------|
A|--------|--------|--------|--------|--------|--------|--------|--------|--------|
E|--------|--------|--------|--------|--------|--------|--------|--------|--------|


E|--------|--------|--------|--------|--------|--------|--------|--------|--------|
B|--------|--------|--------|--------|--------|--------|--------|--------|--------|
G|--------|--------|--------|--------|--------|--------|--------|--------|--------|
D|--------|--------|--------|--------|--------|--------|--------|--------|--------|
A|--------|--------|--------|--------|--------|--------|--------|--------|--------|
E|--------|--------|--------|--------|--------|--------|--------|--------|--------|


E|--------|---------------------------|----------------|---------------------|---------------------|
B|--------|---------------------------|-----8---8------|-------8---8---------|-------8---8---------|
G|--------|----------4---4---5----7---|-7---7---7------|---------------------|---------------------|
D|--------|----------5---5---7----9---|-9--------------|-9--------------9----|-10-------------10---|
A|--------|---------------------------|----------------|---------------------|---------------------|
E|--------|---------------------------|----------------|---------------------|---------------------|


E|---------------------|-----------------------|---------------------|----------------|
B|-------12--12---12---|-10----12-10-8---------|-------8---8----8----|-5------5---7---|
G|-9-------------------|------------------9----|-7--------------7----|-5------5---7---|
D|---------------------|-----------------------|---------------------|----------------|
A|---------------------|-----------------------|---------------------|----------------|
E|---------------------|-----------------------|---------------------|----------------|


E|--------|--------|-3------|-3-----3---------------|--------|--------------------|
B|-8------|-7------|-3------|-3-----3---------------|--------|--------------------|
G|-7------|-7------|-0------|-0-----0---------------|--------|--------------------|
D|-7------|-7------|-0------|-0-----0---------------|--------|--------------------|
A|-5------|-5------|-3------|-3-----3-------5---3---|-3------|-3-----3--5----5----|
E|--------|--------|-3------|-3-----3---3-----------|--------|--------------------|


E|---------------------------------|---------------------------------|---------------------------------|
B|---------------------------------|---------------------------------|---------------------------------|
G|---------------------------------|---------------------------------|---------------------------------|
D|---------5---4-------5-------5---|---------5---4-------5-------5---|-----4---5---4-------5-------5---|
A|-----5-----------5-------5-------|-----5-----------5-------5-------|-3---------------3-------3-------|
E|-3-------------------------------|-3-------------------------------|---------------------------------|


E|---------------------------------|---------------------------------|---------------------------------|
B|---------------------------------|---------------------------------|---------------------------------|
G|---------------------------------|---------------------------------|---------------------------------|
D|-----4---5---4-------5-------5---|-----2---5---2-------5---4---5---|---------5---3-------5---3---5---|
A|-3---------------3-------3-------|-0---------------0---------------|-----3-----------3---------------|
E|---------------------------------|---------------------------------|-1-------------------------------|


E|---------------------------------|-----------------------|--------|--------|--------|
B|---------------------------------|-----------------------|--------|--------|--------|
G|---------------------------------|-----5-------7---7-----|--------|--------|--------|
D|---------5---4-------5-------5---|-----5-------7---7-----|--------|--------|--------|
A|-----5-----------5-------5-------|-5---3-------5---5-----|--------|--------|--------|
E|-3-------------------------------|-----------------------|--------|--------|--------|


E|--------|--------|--------|--------|--------|--------|--------|--------|--------|
B|--------|--------|--------|--------|--------|--------|--------|--------|--------|
G|--------|--------|--------|--------|--------|--------|--------|--------|--------|
D|--------|--------|--------|--------|--------|--------|--------|--------|--------|
A|--------|--------|--------|--------|--------|--------|--------|--------|--------|
E|--------|--------|--------|--------|--------|--------|--------|--------|--------|


E|--------|--------|---------------------------|----------------|---------------------|
B|--------|--------|---------------------------|-----8---8------|-------8---8---------|
G|--------|--------|----------4---4---5----7---|-7---7---7------|---------------------|
D|--------|--------|----------5---5---7----9---|-9--------------|-9--------------9----|
A|--------|--------|---------------------------|----------------|---------------------|
E|--------|--------|---------------------------|----------------|---------------------|


E|---------------------|---------------------|-----------------------|---------------------|
B|-------8---8---------|-------12--12---12---|-10----12-10-8---------|-------8---8----8----|
G|---------------------|-9-------------------|------------------9----|-7--------------7----|
D|-10-------------10---|---------------------|-----------------------|---------------------|
A|---------------------|---------------------|-----------------------|---------------------|
E|---------------------|---------------------|-----------------------|---------------------|


E|----------------|--------|-------------|-14----15--15--------|-14----15--15--------|
B|-5------5---7---|-8------|-7------15---|----------------15---|----------------15---|
G|-5------5---7---|-7------|-7-----------|---------------------|---------------------|
D|----------------|-7------|-7-----------|---------------------|---------------------|
A|----------------|-5------|-5-----------|---------------------|---------------------|
E|----------------|--------|-------------|---------------------|---------------------|


E|-14----15--15---15---|-14----15-14-------|-14----15--15--------|-14----15--15---15--17--|
B|---------------------|-------------17----|----------------15---|------------------------|
G|---------------------|-------------------|---------------------|------------------------|
D|---------------------|-------------------|---------------------|------------------------|
A|---------------------|-------------------|---------------------|------------------------|
E|---------------------|-------------------|---------------------|------------------------|


E|-17-----|-17----------|--------|--------|--------|--------|--------|--------|--------|
B|--------|-------------|--------|--------|--------|--------|--------|--------|--------|
G|--------|-------------|--------|--------|--------|--------|--------|--------|--------|
D|--------|-------------|--------|--------|--------|--------|--------|--------|--------|
A|--------|-------------|--------|--------|--------|--------|--------|--------|--------|
E|--------|-------------|--------|--------|--------|--------|--------|--------|--------|


E|---------------------------|-------------------------|---------------------------------|
B|---------------------------|-------------------------|-----5---6-----------------------|
G|-----------7--7--7--7--5---|-7--7--7--7---7-----7----|-7-----------7---7---5---4---5---|
D|---------------------------|-------------------------|---------------------------------|
A|---------------------------|-------------------------|---------------------------------|
E|---------------------------|-------------------------|---------------------------------|


E|---------------------------------|-----------------------------------|----------------------------------|
B|---------------------------------|-------------------------------6---|-6----5--6--5-----------------6---|
G|-4-------------------------------|---------5---7--7--7---7---5-------|---------------7--7---7---5-------|
D|-----5-----------------------7---|-7---7-----------------------------|----------------------------------|
A|---------5---7---5---3---2-------|-----------------------------------|----------------------------------|
E|---------------------------------|-----------------------------------|----------------------------------|


E|-----------------------------------|------5--------------------------------|---------------------------------|
B|-6---5--6--5------5---8--8----8----|-8--------8---5---8---5----------------|---------------------------------|
G|--------------7--------------------|--------------------------7---7----5---|-7---7---7---5---4---5---4-------|
D|-----------------------------------|---------------------------------------|-----------------------------5---|
A|-----------------------------------|---------------------------------------|---------------------------------|
E|-----------------------------------|---------------------------------------|---------------------------------|


E|---------------------------|---------------------------|---------------------------------|
B|---------------------------|---------------------------|---------------------------------|
G|-3----------------5--------|--------------5---5----8---|-8-------------------------------|
D|-3----------------3----3---|-3------------3---3----8---|-8---8---8---8---8---8---8---8---|
A|-1----1---1---1---1----3---|-3------------3---3----6---|-6---6---6---6---6---6---6---10--|
E|-----------------------1---|-1----1---1----------------|---------------------------------|


E|-----------------------------|------------------------------|---------------------------|
B|-----------------------------|------------------------------|---------------------------|
G|----------8---8---8--8--8----|-3--------------------3-------|---------------------------|
D|-----8----8---8---8--8--8----|-3--------------------3-------|-3----------------3---3----|
A|-----8----6---6---6--6--6----|-1----1---1---1---1---5---3---|-3----3---3---3---3---3----|
E|-----------------------------|------------------------------|-1----1---1---1---1---1----|


E|--------|--------|---------------------|---------------------|---------------------|
B|--------|--------|-------8---8---------|-------8---8---------|-------12--12---12---|
G|--------|--------|---------------------|---------------------|-9-------------------|
D|-5------|-5------|-9--------------9----|-10-------------10---|---------------------|
A|-5------|-5------|---------------------|---------------------|---------------------|
E|-3------|-3------|---------------------|---------------------|---------------------|


E|-----------------------|---------------------|----------------|--------|--------|
B|-10----12-10-8---------|-------8---8----8----|-5------5---7---|-8------|-7------|
G|------------------9----|-7--------------7----|-5------5---7---|-7------|-7------|
D|-----------------------|---------------------|----------------|-7------|-7------|
A|-----------------------|---------------------|----------------|-5------|-5------|
E|-----------------------|---------------------|----------------|--------|--------|


E|-3------|-3-----3---------------|--------|--------------------|--------|-------------|
B|-3------|-3-----3---------------|--------|--------------------|-8------|-7------15---|
G|-0------|-0-----0---------------|--------|--------------------|-7------|-7-----------|
D|-0------|-0-----0---------------|--------|--------------------|-7------|-7-----------|
A|-3------|-3-----3-------5---3---|-3------|-3-----3--5----5----|-5------|-5-----------|
E|-3------|-3-----3---3-----------|--------|--------------------|--------|-------------|


E|-14----15--15--------|-14----15--15--------|-14----15--15---15---|-14----15-14-------|
B|----------------15---|----------------15---|---------------------|-------------17----|
G|---------------------|---------------------|---------------------|-------------------|
D|---------------------|---------------------|---------------------|-------------------|
A|---------------------|---------------------|---------------------|-------------------|
E|---------------------|---------------------|---------------------|-------------------|


E|-14----15--15--------|-14----15--15---15--17--|-17-----|--------|--------|--------|
B|----------------15---|------------------------|--------|--------|--------|--------|
G|---------------------|------------------------|--------|--------|--------|--------|
D|---------------------|------------------------|--------|--------|--------|--------|
A|---------------------|------------------------|--------|--------|--------|--------|
E|---------------------|------------------------|--------|--------|--------|--------|


E|--------|--------|--------|--------|--------|--------|--------|--------|--------|
B|--------|--------|--------|--------|--------|--------|--------|--------|--------|
G|--------|--------|--------|--------|--------|--------|--------|--------|--------|
D|--------|--------|--------|--------|--------|--------|--------|--------|--------|
A|--------|--------|--------|--------|--------|--------|--------|--------|--------|
E|--------|--------|--------|--------|--------|--------|--------|--------|--------|


E|--------|--------|--------|--------|
B|--------|--------|--------|--------|
G|--------|--------|--------|--------|
D|--------|--------|--------|--------|
A|--------|--------|--------|--------|
E|--------|--------|--------|--------|





Track 5: Guitar

E|--------|--------|--------|--------|--------|--------|--------|--------|--------|
B|--------|--------|--------|--------|--------|--------|--------|--------|--------|
G|--------|--------|--------|--------|--------|--------|--------|--------|--------|
D|--------|--------|--------|--------|--------|--------|--------|--------|--------|
A|--------|--------|--------|--------|--------|--------|--------|--------|--------|
E|--------|--------|--------|--------|--------|--------|--------|--------|--------|


E|--------|--------|--------|--------|--------|--------|--------|--------|--------|
B|--------|--------|--------|--------|--------|--------|--------|--------|--------|
G|--------|--------|--------|--------|--------|--------|--------|--------|--------|
D|--------|--------|--------|--------|--------|--------|--------|--------|--------|
A|--------|--------|--------|--------|--------|--------|--------|--------|--------|
E|--------|--------|--------|--------|--------|--------|--------|--------|--------|


E|--------|--------|--------|--------|--------|--------|--------|--------|--------|
B|--------|--------|--------|--------|--------|--------|--------|--------|--------|
G|--------|--------|--------|--------|--------|--------|--------|--------|--------|
D|--------|--------|--------|--------|--------|--------|--------|--------|--------|
A|--------|--------|--------|--------|--------|--------|--------|--------|--------|
E|--------|--------|--------|--------|--------|--------|--------|--------|--------|


E|--------|--------|--------|--------|--------|--------|--------|--------|--------|
B|--------|--------|--------|--------|--------|--------|--------|--------|--------|
G|--------|--------|--------|--------|--------|--------|--------|--------|--------|
D|--------|--------|--------|--------|--------|--------|--------|--------|--------|
A|--------|--------|--------|--------|--------|--------|--------|--------|--------|
E|--------|--------|--------|--------|--------|--------|--------|--------|--------|


E|--------|--------|--------|--------|--------|--------|--------|--------|--------|
B|--------|--------|--------|--------|--------|--------|--------|--------|--------|
G|--------|--------|--------|--------|--------|--------|--------|--------|--------|
D|--------|--------|--------|--------|--------|--------|--------|--------|--------|
A|--------|--------|--------|--------|--------|--------|--------|--------|--------|
E|--------|--------|--------|--------|--------|--------|--------|--------|--------|


E|--------|--------|--------|--------|--------|--------|--------|--------|--------|
B|--------|--------|--------|--------|--------|--------|--------|--------|--------|
G|--------|--------|--------|--------|--------|--------|--------|--------|--------|
D|--------|--------|--------|--------|--------|--------|--------|--------|--------|
A|--------|--------|--------|--------|--------|--------|--------|--------|--------|
E|--------|--------|--------|--------|--------|--------|--------|--------|--------|


E|--------|--------|--------|--------|--------|--------|--------|--------|--------|
B|--------|--------|--------|--------|--------|--------|--------|--------|--------|
G|--------|--------|--------|--------|--------|--------|--------|--------|--------|
D|--------|--------|--------|--------|--------|--------|--------|--------|--------|
A|--------|--------|--------|--------|--------|--------|--------|--------|--------|
E|--------|--------|--------|--------|--------|--------|--------|--------|--------|


E|--------|--------|--------|--------|--------|--------|--------|--------|--------|
B|--------|--------|--------|--------|--------|--------|--------|--------|--------|
G|--------|--------|--------|--------|--------|--------|--------|--------|--------|
D|--------|--------|--------|--------|--------|--------|--------|--------|--------|
A|--------|--------|--------|--------|--------|--------|--------|--------|--------|
E|--------|--------|--------|--------|--------|--------|--------|--------|--------|


E|--------|--------|--------|--------|--------|--------|--------|--------|--------|
B|--------|--------|--------|--------|--------|--------|--------|--------|--------|
G|--------|--------|--------|--------|--------|--------|--------|--------|--------|
D|--------|--------|--------|--------|--------|--------|--------|--------|--------|
A|--------|--------|--------|--------|--------|--------|--------|--------|--------|
E|--------|--------|--------|--------|--------|--------|--------|--------|--------|


E|--------|--------|--------|--------|--------|--------|--------|--------|--------|
B|--------|--------|--------|--------|--------|--------|--------|--------|--------|
G|--------|--------|--------|--------|--------|--------|--------|--------|--------|
D|--------|--------|--------|--------|--------|--------|--------|--------|--------|
A|--------|--------|--------|--------|--------|--------|--------|--------|--------|
E|--------|--------|--------|--------|--------|--------|--------|--------|--------|


E|--------|--------|--------|--------|--------|--------|--------|--------|--------|
B|--------|--------|--------|--------|--------|--------|--------|--------|--------|
G|--------|--------|--------|--------|--------|--------|--------|--------|--------|
D|--------|--------|--------|--------|--------|--------|--------|--------|--------|
A|--------|--------|--------|--------|--------|--------|--------|--------|--------|
E|--------|--------|--------|--------|--------|--------|--------|--------|--------|


E|--------|--------|--------|--------|--------|--------|--------|--------|--------|
B|--------|--------|--------|--------|--------|--------|--------|--------|--------|
G|--------|--------|--------|--------|--------|--------|--------|--------|--------|
D|--------|--------|--------|--------|--------|--------|--------|--------|--------|
A|--------|--------|--------|--------|--------|--------|--------|--------|--------|
E|--------|--------|--------|--------|--------|--------|--------|--------|--------|


E|--------|--------|--------|--------|--------|--------|--------|--------|--------|
B|--------|--------|--------|--------|--------|--------|--------|--------|--------|
G|--------|--------|--------|--------|--------|--------|--------|--------|--------|
D|--------|--------|--------|--------|--------|--------|--------|--------|--------|
A|--------|--------|--------|--------|--------|--------|--------|--------|--------|
E|--------|--------|--------|--------|--------|--------|--------|--------|--------|


E|--------|--------|--------|--------|--------|--------|--------|--------|--------|
B|--------|--------|--------|--------|--------|--------|--------|--------|--------|
G|--------|--------|--------|--------|--------|--------|--------|--------|--------|
D|--------|--------|--------|--------|--------|--------|--------|--------|--------|
A|--------|--------|--------|--------|--------|--------|--------|--------|--------|
E|--------|--------|--------|--------|--------|--------|--------|--------|--------|


E|--------|--------|--------|--------|--------|--------|--------|--------|--------|
B|--------|--------|--------|--------|--------|--------|--------|--------|--------|
G|--------|--------|--------|--------|--------|--------|--------|--------|--------|
D|--------|--------|--------|--------|--------|--------|--------|--------|--------|
A|--------|--------|--------|--------|--------|--------|--------|--------|--------|
E|--------|--------|--------|--------|--------|--------|--------|--------|--------|


E|--------|--------|--------|--------|--------|--------|--------|--------|--------|
B|--------|--------|--------|--------|--------|--------|--------|--------|--------|
G|--------|--------|--------|--------|--------|--------|--------|--------|--------|
D|--------|--------|--------|--------|--------|--------|--------|--------|--------|
A|--------|--------|--------|--------|--------|--------|--------|--------|--------|
E|--------|--------|--------|--------|--------|--------|--------|--------|--------|


E|--------|--------|--------|--------|--------|--------|--------|--------|
B|--------|--------|--------|--------|--------|--------|--------|--------|
G|--------|--------|--------|--------|--------|--------|--------|--------|
D|--------|--------|--------|--------|--------|--------|--------|--------|
A|--------|--------|--------|--------|--------|--------|--------|--------|
E|--------|--------|--------|--------|--------|--------|--------|--------|





Track 6: Untitled

E|--------|--------|--------|--------|--------|--------|--------|--------|--------|
B|--------|--------|--------|--------|--------|--------|--------|--------|--------|
G|--------|--------|--------|--------|--------|--------|--------|--------|--------|
D|--------|--------|--------|--------|--------|--------|--------|--------|--------|
A|--------|--------|--------|--------|--------|--------|--------|--------|--------|
E|--------|--------|--------|--------|--------|--------|--------|--------|--------|


E|--------|--------|--------|--------|--------|--------|--------|--------|--------|
B|--------|--------|--------|--------|--------|--------|--------|--------|--------|
G|--------|--------|--------|--------|--------|--------|--------|--------|--------|
D|--------|--------|--------|--------|--------|--------|--------|--------|--------|
A|--------|--------|--------|--------|--------|--------|--------|--------|--------|
E|--------|--------|--------|--------|--------|--------|--------|--------|--------|


E|--------|--------|--------|--------|--------|--------|--------|--------|--------|
B|--------|--------|--------|--------|--------|--------|--------|--------|--------|
G|--------|--------|--------|--------|--------|--------|--------|--------|--------|
D|--------|--------|--------|--------|--------|--------|--------|--------|--------|
A|--------|--------|--------|--------|--------|--------|--------|--------|--------|
E|--------|--------|--------|--------|--------|--------|--------|--------|--------|


E|--------|--------|--------|--------|--------|--------|--------|--------|--------|
B|--------|--------|--------|--------|--------|--------|--------|--------|--------|
G|--------|--------|--------|--------|--------|--------|--------|--------|--------|
D|--------|--------|--------|--------|--------|--------|--------|--------|--------|
A|--------|--------|--------|--------|--------|--------|--------|--------|--------|
E|--------|--------|--------|--------|--------|--------|--------|--------|--------|


E|--------|--------|------------|--------|--------|--------|--------|--------|--------|
B|--------|--------|------------|--------|--------|--------|--------|--------|--------|
G|--------|--------|-5------5---|--------|--------|--------|--------|--------|--------|
D|--------|--------|------------|--------|--------|--------|--------|--------|--------|
A|--------|--------|------------|--------|--------|--------|--------|--------|--------|
E|--------|--------|------------|--------|--------|--------|--------|--------|--------|


E|--------|--------|--------|--------|--------|--------|--------|--------|--------|
B|--------|--------|--------|--------|--------|--------|--------|--------|--------|
G|--------|--------|--------|--------|--------|--------|--------|--------|--------|
D|--------|--------|--------|--------|--------|--------|--------|--------|--------|
A|--------|--------|--------|--------|--------|--------|--------|--------|--------|
E|--------|--------|--------|--------|--------|--------|--------|--------|--------|


E|--------|--------|--------|--------|--------|--------|--------|--------|--------|
B|--------|--------|--------|--------|--------|--------|--------|--------|--------|
G|--------|--------|--------|--------|--------|--------|--------|--------|--------|
D|--------|--------|--------|--------|--------|--------|--------|--------|--------|
A|--------|--------|--------|--------|--------|--------|--------|--------|--------|
E|--------|--------|--------|--------|--------|--------|--------|--------|--------|


E|--------|--------|--------|--------|--------|--------|--------|--------|--------|
B|--------|--------|--------|--------|--------|--------|--------|--------|--------|
G|--------|--------|--------|--------|--------|--------|--------|--------|--------|
D|--------|--------|--------|--------|--------|--------|--------|--------|--------|
A|--------|--------|--------|--------|--------|--------|--------|--------|--------|
E|--------|--------|--------|--------|--------|--------|--------|--------|--------|


E|--------|--------|------------|--------|--------|--------|--------|--------|--------|
B|--------|--------|------------|--------|--------|--------|--------|--------|--------|
G|--------|--------|-5------5---|--------|--------|--------|--------|--------|--------|
D|--------|--------|------------|--------|--------|--------|--------|--------|--------|
A|--------|--------|------------|--------|--------|--------|--------|--------|--------|
E|--------|--------|------------|--------|--------|--------|--------|--------|--------|


E|--------|--------|--------|--------|--------|--------|--------|--------|--------|
B|--------|--------|--------|--------|--------|--------|--------|--------|--------|
G|--------|--------|--------|--------|--------|--------|--------|--------|--------|
D|--------|--------|--------|--------|--------|--------|--------|--------|--------|
A|--------|--------|--------|--------|--------|--------|--------|--------|--------|
E|--------|--------|--------|--------|--------|--------|--------|--------|--------|


E|--------|--------|--------|--------|--------|--------|--------|--------|--------|
B|--------|--------|--------|--------|--------|--------|--------|--------|--------|
G|--------|--------|--------|--------|--------|--------|--------|--------|--------|
D|--------|--------|--------|--------|--------|--------|--------|--------|--------|
A|--------|--------|--------|--------|--------|--------|--------|--------|--------|
E|--------|--------|--------|--------|--------|--------|--------|--------|--------|


E|--------|--------|--------|--------|--------|--------|--------|--------|--------|
B|--------|--------|--------|--------|--------|--------|--------|--------|--------|
G|--------|--------|--------|--------|--------|--------|--------|--------|--------|
D|--------|--------|--------|--------|--------|--------|--------|--------|--------|
A|--------|--------|--------|--------|--------|--------|--------|--------|--------|
E|--------|--------|--------|--------|--------|--------|--------|--------|--------|


E|--------|--------|--------|--------|--------|--------|------------|--------|--------|
B|--------|--------|--------|--------|--------|--------|------------|--------|--------|
G|--------|--------|--------|--------|--------|--------|-5------5---|--------|--------|
D|--------|--------|--------|--------|--------|--------|------------|--------|--------|
A|--------|--------|--------|--------|--------|--------|------------|--------|--------|
E|--------|--------|--------|--------|--------|--------|------------|--------|--------|


E|--------|--------|--------|--------|--------|--------|--------|--------|--------|
B|--------|--------|--------|--------|--------|--------|--------|--------|--------|
G|--------|--------|--------|--------|--------|--------|--------|--------|--------|
D|--------|--------|--------|--------|--------|--------|--------|--------|--------|
A|--------|--------|--------|--------|--------|--------|--------|--------|--------|
E|--------|--------|--------|--------|--------|--------|--------|--------|--------|


E|--------|--------|--------|--------|--------|--------|--------|--------|--------|
B|--------|--------|--------|--------|--------|--------|--------|--------|--------|
G|--------|--------|--------|--------|--------|--------|--------|--------|--------|
D|--------|--------|--------|--------|--------|--------|--------|--------|--------|
A|--------|--------|--------|--------|--------|--------|--------|--------|--------|
E|--------|--------|--------|--------|--------|--------|--------|--------|--------|


E|--------|-------------|-------------|-------------|---------------------|-------------|
B|--------|------3------|-3----5------|-5----5------|-5----3-----5---5----|------3------|
G|--------|------4------|-4----5------|-5----4------|-4----2-----5---5----|------4------|
D|--------|-------------|-------------|-------------|---------------------|-------------|
A|--------|-------------|-------------|-------------|---------------------|-------------|
E|--------|-------------|-------------|-------------|---------------------|-------------|


E|-------------|---------------------------|----------------|-------------|-------------|
B|-3----5------|-5----8----8---8---8---8---|-8---7---7------|------3------|-3----5------|
G|-4----5------|-5----7----7---7---7---7---|-7---7---7------|------4------|-4----5------|
D|-------------|------7----7---7---7---7---|-7---7---7------|-------------|-------------|
A|-------------|------5----5---5---5---5---|-5---5---5------|-------------|-------------|
E|-------------|---------------------------|----------------|-------------|-------------|


E|-------------|---------------------|-------------|-------------|---------------------------|
B|-5----5------|-5----3-----5---5----|------3------|-3----5------|-5----8----8---8---8---8---|
G|-5----4------|-4----2-----5---5----|------4------|-4----5------|-5----7----7---7---7---7---|
D|-------------|---------------------|-------------|-------------|------7----7---7---7---7---|
A|-------------|---------------------|-------------|-------------|------5----5---5---5---5---|
E|-------------|---------------------|-------------|-------------|---------------------------|


E|----------------|
B|-8---7---7------|
G|-7---7---7------|
D|-7---7---7------|
A|-5---5---5------|
E|----------------|





Track 7: Guitar

E|--------|--------|--------|--------|--------|--------|--------|--------|--------|
B|--------|--------|--------|--------|--------|--------|--------|--------|--------|
G|--------|--------|--------|--------|--------|--------|--------|--------|--------|
D|--------|--------|--------|--------|--------|--------|--------|--------|--------|
A|--------|--------|--------|--------|--------|--------|--------|--------|--------|
E|--------|--------|--------|--------|--------|--------|--------|--------|--------|


E|--------|--------|--------|--------|--------|--------|--------|--------|--------|
B|--------|--------|--------|--------|--------|--------|--------|--------|--------|
G|--------|--------|--------|--------|--------|--------|--------|--------|--------|
D|--------|--------|--------|--------|--------|--------|--------|--------|--------|
A|--------|--------|--------|--------|--------|--------|--------|--------|--------|
E|--------|--------|--------|--------|--------|--------|--------|--------|--------|


E|--------|--------|--------|--------|--------|--------|--------|--------|--------|
B|--------|--------|--------|--------|--------|--------|--------|--------|--------|
G|--------|--------|--------|--------|--------|--------|--------|--------|--------|
D|--------|--------|--------|--------|--------|--------|--------|--------|--------|
A|--------|--------|--------|--------|--------|--------|--------|--------|--------|
E|--------|--------|--------|--------|--------|--------|--------|--------|--------|


E|--------|--------|--------|--------|--------|--------|--------|--------|--------|
B|--------|--------|--------|--------|--------|--------|--------|--------|--------|
G|--------|--------|--------|--------|--------|--------|--------|--------|--------|
D|--------|--------|--------|--------|--------|--------|--------|--------|--------|
A|--------|--------|--------|--------|--------|--------|--------|--------|--------|
E|--------|--------|--------|--------|--------|--------|--------|--------|--------|


E|--------|--------|--------|--------|--------|--------|--------|--------|--------|
B|--------|--------|--------|--------|--------|--------|--------|--------|--------|
G|--------|--------|--------|--------|--------|--------|--------|--------|--------|
D|--------|--------|--------|--------|--------|--------|--------|--------|--------|
A|--------|--------|--------|--------|--------|--------|--------|--------|--------|
E|--------|--------|--------|--------|--------|--------|--------|--------|--------|


E|--------|--------|--------|--------|--------|--------|--------|--------|--------|
B|--------|--------|--------|--------|--------|--------|--------|--------|--------|
G|--------|--------|--------|--------|--------|--------|--------|--------|--------|
D|--------|--------|--------|--------|--------|--------|--------|--------|--------|
A|--------|--------|--------|--------|--------|--------|--------|--------|--------|
E|--------|--------|--------|--------|--------|--------|--------|--------|--------|


E|--------|--------|--------|--------|--------|--------|--------|--------|--------|
B|--------|--------|--------|--------|--------|--------|--------|--------|--------|
G|--------|--------|--------|--------|--------|--------|--------|--------|--------|
D|--------|--------|--------|--------|--------|--------|--------|--------|--------|
A|--------|--------|--------|--------|--------|--------|--------|--------|--------|
E|--------|--------|--------|--------|--------|--------|--------|--------|--------|


E|--------|--------|--------|--------|--------|--------|--------|--------|--------|
B|--------|--------|--------|--------|--------|--------|--------|--------|--------|
G|--------|--------|--------|--------|--------|--------|--------|--------|--------|
D|--------|--------|--------|--------|--------|--------|--------|--------|--------|
A|--------|--------|--------|--------|--------|--------|--------|--------|--------|
E|--------|--------|--------|--------|--------|--------|--------|--------|--------|


E|--------|--------|--------|--------|--------|--------|--------|--------|--------|
B|--------|--------|--------|--------|--------|--------|--------|--------|--------|
G|--------|--------|--------|--------|--------|--------|--------|--------|--------|
D|--------|--------|--------|--------|--------|--------|--------|--------|--------|
A|--------|--------|--------|--------|--------|--------|--------|--------|--------|
E|--------|--------|--------|--------|--------|--------|--------|--------|--------|


E|--------|--------|--------|--------|--------|--------|--------|--------|--------|
B|--------|--------|--------|--------|--------|--------|--------|--------|--------|
G|--------|--------|--------|--------|--------|--------|--------|--------|--------|
D|--------|--------|--------|--------|--------|--------|--------|--------|--------|
A|--------|--------|--------|--------|--------|--------|--------|--------|--------|
E|--------|--------|--------|--------|--------|--------|--------|--------|--------|


E|--------|--------|--------|--------|--------|--------|--------|--------|--------|
B|--------|--------|--------|--------|--------|--------|--------|--------|--------|
G|--------|--------|--------|--------|--------|--------|--------|--------|--------|
D|--------|--------|--------|--------|--------|--------|--------|--------|--------|
A|--------|--------|--------|--------|--------|--------|--------|--------|--------|
E|--------|--------|--------|--------|--------|--------|--------|--------|--------|


E|--------|--------|--------|--------|--------|--------|--------|--------|--------|
B|--------|--------|--------|--------|--------|--------|--------|--------|--------|
G|--------|--------|--------|--------|--------|--------|--------|--------|--------|
D|--------|--------|--------|--------|--------|--------|--------|--------|--------|
A|--------|--------|--------|--------|--------|--------|--------|--------|--------|
E|--------|--------|--------|--------|--------|--------|--------|--------|--------|


E|--------|--------|--------|--------|--------|--------|--------|--------|--------|
B|--------|--------|--------|--------|--------|--------|--------|--------|--------|
G|--------|--------|--------|--------|--------|--------|--------|--------|--------|
D|--------|--------|--------|--------|--------|--------|--------|--------|--------|
A|--------|--------|--------|--------|--------|--------|--------|--------|--------|
E|--------|--------|--------|--------|--------|--------|--------|--------|--------|


E|--------|--------|--------|--------|--------|--------|--------|--------|--------|
B|--------|--------|--------|--------|--------|--------|--------|--------|--------|
G|--------|--------|--------|--------|--------|--------|--------|--------|--------|
D|--------|--------|--------|--------|--------|--------|--------|--------|--------|
A|--------|--------|--------|--------|--------|--------|--------|--------|--------|
E|--------|--------|--------|--------|--------|--------|--------|--------|--------|


E|--------|--------|--------|--------|--------|--------|--------|--------|--------|
B|--------|--------|--------|--------|--------|--------|--------|--------|--------|
G|--------|--------|--------|--------|--------|--------|--------|--------|--------|
D|--------|--------|--------|--------|--------|--------|--------|--------|--------|
A|--------|--------|--------|--------|--------|--------|--------|--------|--------|
E|--------|--------|--------|--------|--------|--------|--------|--------|--------|


E|--------|--------|--------|--------|--------|--------|--------|--------|--------|
B|--------|--------|--------|--------|--------|--------|--------|--------|--------|
G|--------|--------|--------|--------|--------|--------|--------|--------|--------|
D|--------|--------|--------|--------|--------|--------|--------|--------|--------|
A|--------|--------|--------|--------|--------|--------|--------|--------|--------|
E|--------|--------|--------|--------|--------|--------|--------|--------|--------|


E|--------|--------|--------|--------|--------|--------|--------|--------|
B|--------|--------|--------|--------|--------|--------|--------|--------|
G|--------|--------|--------|--------|--------|--------|--------|--------|
D|--------|--------|--------|--------|--------|--------|--------|--------|
A|--------|--------|--------|--------|--------|--------|--------|--------|
E|--------|--------|--------|--------|--------|--------|--------|--------|





Track 8: Gtr.2

E|--------|--------|--------|--------|--------|--------|--------|--------|--------|
B|--------|--------|--------|--------|--------|--------|--------|--------|--------|
G|--------|--------|--------|--------|--------|--------|--------|--------|--------|
D|--------|--------|--------|--------|--------|--------|--------|--------|--------|
A|--------|--------|--------|--------|--------|--------|--------|--------|--------|
E|--------|--------|--------|--------|--------|--------|--------|--------|--------|


E|--------|--------|--------|--------|--------|--------|--------|--------|--------|
B|--------|--------|--------|--------|--------|--------|--------|--------|--------|
G|--------|--------|--------|--------|--------|--------|--------|--------|--------|
D|--------|--------|--------|--------|--------|--------|--------|--------|--------|
A|--------|--------|--------|--------|--------|--------|--------|--------|--------|
E|--------|--------|--------|--------|--------|--------|--------|--------|--------|


E|--------|--------|--------|--------|--------|--------|--------|--------|--------|
B|--------|--------|--------|--------|--------|--------|--------|--------|--------|
G|--------|--------|--------|--------|--------|--------|--------|--------|--------|
D|--------|--------|--------|--------|--------|--------|--------|--------|--------|
A|--------|--------|--------|--------|--------|--------|--------|--------|--------|
E|--------|--------|--------|--------|--------|--------|--------|--------|--------|


E|--------|--------|--------|--------|--------|--------|--------|--------|--------|
B|--------|--------|--------|--------|--------|--------|--------|--------|--------|
G|--------|--------|--------|--------|--------|--------|--------|--------|--------|
D|--------|--------|--------|--------|--------|--------|--------|--------|--------|
A|--------|--------|--------|--------|--------|--------|--------|--------|--------|
E|--------|--------|--------|--------|--------|--------|--------|--------|--------|


E|--------|--------|--------|--------|--------|--------|--------|--------|--------|
B|--------|--------|--------|--------|--------|--------|--------|--------|--------|
G|--------|--------|--------|--------|--------|--------|--------|--------|--------|
D|--------|--------|--------|--------|--------|--------|--------|--------|--------|
A|--------|--------|--------|--------|--------|--------|--------|--------|--------|
E|--------|--------|--------|--------|--------|--------|--------|--------|--------|


E|--------|--------|--------|--------|--------|--------|--------|--------|--------|
B|--------|--------|--------|--------|--------|--------|--------|--------|--------|
G|--------|--------|--------|--------|--------|--------|--------|--------|--------|
D|--------|--------|--------|--------|--------|--------|--------|--------|--------|
A|--------|--------|--------|--------|--------|--------|--------|--------|--------|
E|--------|--------|--------|--------|--------|--------|--------|--------|--------|


E|--------|--------|--------|--------|--------|--------|--------|--------|--------|
B|--------|--------|--------|--------|--------|--------|--------|--------|--------|
G|--------|--------|--------|--------|--------|--------|--------|--------|--------|
D|--------|--------|--------|--------|--------|--------|--------|--------|--------|
A|--------|--------|--------|--------|--------|--------|--------|--------|--------|
E|--------|--------|--------|--------|--------|--------|--------|--------|--------|


E|--------|--------|--------|--------|--------|--------|--------|--------|--------|
B|--------|--------|--------|--------|--------|--------|--------|--------|--------|
G|--------|--------|--------|--------|--------|--------|--------|--------|--------|
D|--------|--------|--------|--------|--------|--------|--------|--------|--------|
A|--------|--------|--------|--------|--------|--------|--------|--------|--------|
E|--------|--------|--------|--------|--------|--------|--------|--------|--------|


E|--------|--------|--------|--------|--------|--------|--------|--------|--------|
B|--------|--------|--------|--------|--------|--------|--------|--------|--------|
G|--------|--------|--------|--------|--------|--------|--------|--------|--------|
D|--------|--------|--------|--------|--------|--------|--------|--------|--------|
A|--------|--------|--------|--------|--------|--------|--------|--------|--------|
E|--------|--------|--------|--------|--------|--------|--------|--------|--------|


E|--------|--------|--------|--------|--------|--------|--------|--------|--------|
B|--------|--------|--------|--------|--------|--------|--------|--------|--------|
G|--------|--------|--------|--------|--------|--------|--------|--------|--------|
D|--------|--------|--------|--------|--------|--------|--------|--------|--------|
A|--------|--------|--------|--------|--------|--------|--------|--------|--------|
E|--------|--------|--------|--------|--------|--------|--------|--------|--------|


E|--------|--------|--------|--------|--------|--------|--------|--------|--------|
B|--------|--------|--------|--------|--------|--------|--------|--------|--------|
G|--------|--------|--------|--------|--------|--------|--------|--------|--------|
D|--------|--------|--------|--------|--------|--------|--------|--------|--------|
A|--------|--------|--------|--------|--------|--------|--------|--------|--------|
E|--------|--------|--------|--------|--------|--------|--------|--------|--------|


E|--------|--------|--------|--------|--------|--------|--------|--------|--------|
B|--------|--------|--------|--------|--------|--------|--------|--------|--------|
G|--------|--------|--------|--------|--------|--------|--------|--------|--------|
D|--------|--------|--------|--------|--------|--------|--------|--------|--------|
A|--------|--------|--------|--------|--------|--------|--------|--------|--------|
E|--------|--------|--------|--------|--------|--------|--------|--------|--------|


E|--------|--------|--------|--------|--------|---------------------------|----------------|
B|--------|--------|--------|--------|--------|---------------------------|-----8---8------|
G|--------|--------|--------|--------|--------|----------4---4---5----7---|-7---7---7------|
D|--------|--------|--------|--------|--------|----------5---5---7----9---|-9--------------|
A|--------|--------|--------|--------|--------|---------------------------|----------------|
E|--------|--------|--------|--------|--------|---------------------------|----------------|


E|--------|--------|--------|--------|--------|--------|--------|--------|--------|
B|--------|--------|--------|--------|--------|--------|--------|--------|--------|
G|--------|--------|--------|--------|--------|--------|--------|--------|--------|
D|--------|--------|--------|--------|--------|--------|--------|--------|--------|
A|--------|--------|--------|--------|--------|--------|--------|--------|--------|
E|--------|--------|--------|--------|--------|--------|--------|--------|--------|


E|--------|--------|--------|--------|--------|--------|--------|--------|--------|
B|--------|--------|--------|--------|--------|--------|--------|--------|--------|
G|--------|--------|--------|--------|--------|--------|--------|--------|--------|
D|--------|--------|--------|--------|--------|--------|--------|--------|--------|
A|--------|--------|--------|--------|--------|--------|--------|--------|--------|
E|--------|--------|--------|--------|--------|--------|--------|--------|--------|


E|--------|--------|--------|--------|--------|--------|--------|--------|--------|
B|--------|--------|--------|--------|--------|--------|--------|--------|--------|
G|--------|--------|--------|--------|--------|--------|--------|--------|--------|
D|--------|--------|--------|--------|--------|--------|--------|--------|--------|
A|--------|--------|--------|--------|--------|--------|--------|--------|--------|
E|--------|--------|--------|--------|--------|--------|--------|--------|--------|


E|--------|--------|--------|--------|--------|--------|--------|--------|--------|
B|--------|--------|--------|--------|--------|--------|--------|--------|--------|
G|--------|--------|--------|--------|--------|--------|--------|--------|--------|
D|--------|--------|--------|--------|--------|--------|--------|--------|--------|
A|--------|--------|--------|--------|--------|--------|--------|--------|--------|
E|--------|--------|--------|--------|--------|--------|--------|--------|--------|


E|--------|
B|--------|
G|--------|
D|--------|
A|--------|
E|--------|





Track 9: Guitar

E|--------|--------|--------|--------|--------|--------|--------|--------|--------|
B|--------|--------|--------|--------|--------|--------|--------|--------|--------|
G|--------|--------|--------|--------|--------|--------|--------|--------|--------|
D|--------|--------|--------|--------|--------|--------|--------|--------|--------|
A|--------|--------|--------|--------|--------|--------|--------|--------|--------|
E|--------|--------|--------|--------|--------|--------|--------|--------|--------|


E|--------|--------|--------|--------|--------|--------|--------|--------|--------|
B|--------|--------|--------|--------|--------|--------|--------|--------|--------|
G|--------|--------|--------|--------|--------|--------|--------|--------|--------|
D|--------|--------|--------|--------|--------|--------|--------|--------|--------|
A|--------|--------|--------|--------|--------|--------|--------|--------|--------|
E|--------|--------|--------|--------|--------|--------|--------|--------|--------|


E|--------|--------|--------|--------|--------|--------|--------|--------|--------|
B|--------|--------|--------|--------|--------|--------|--------|--------|--------|
G|--------|--------|--------|--------|--------|--------|--------|--------|--------|
D|--------|--------|--------|--------|--------|--------|--------|--------|--------|
A|--------|--------|--------|--------|--------|--------|--------|--------|--------|
E|--------|--------|--------|--------|--------|--------|--------|--------|--------|


E|--------|--------|--------|--------|--------|--------|--------|--------|--------|
B|--------|--------|--------|--------|--------|--------|--------|--------|--------|
G|--------|--------|--------|--------|--------|--------|--------|--------|--------|
D|--------|--------|--------|--------|--------|--------|--------|--------|--------|
A|--------|--------|--------|--------|--------|--------|--------|--------|--------|
E|--------|--------|--------|--------|--------|--------|--------|--------|--------|


E|--------|--------|--------|--------|--------|--------|--------|--------|--------|
B|--------|--------|--------|--------|--------|--------|--------|--------|--------|
G|--------|--------|--------|--------|--------|--------|--------|--------|--------|
D|--------|--------|--------|--------|--------|--------|--------|--------|--------|
A|--------|--------|--------|--------|--------|--------|--------|--------|--------|
E|--------|--------|--------|--------|--------|--------|--------|--------|--------|


E|--------|--------|--------|--------|--------|--------|--------|--------|--------|
B|--------|--------|--------|--------|--------|--------|--------|--------|--------|
G|--------|--------|--------|--------|--------|--------|--------|--------|--------|
D|--------|--------|--------|--------|--------|--------|--------|--------|--------|
A|--------|--------|--------|--------|--------|--------|--------|--------|--------|
E|--------|--------|--------|--------|--------|--------|--------|--------|--------|


E|--------|--------|--------|--------|--------|--------|--------|--------|--------|
B|--------|--------|--------|--------|--------|--------|--------|--------|--------|
G|--------|--------|--------|--------|--------|--------|--------|--------|--------|
D|--------|--------|--------|--------|--------|--------|--------|--------|--------|
A|--------|--------|--------|--------|--------|--------|--------|--------|--------|
E|--------|--------|--------|--------|--------|--------|--------|--------|--------|


E|--------|--------|--------|--------|--------|--------|--------|--------|--------|
B|--------|--------|--------|--------|--------|--------|--------|--------|--------|
G|--------|--------|--------|--------|--------|--------|--------|--------|--------|
D|--------|--------|--------|--------|--------|--------|--------|--------|--------|
A|--------|--------|--------|--------|--------|--------|--------|--------|--------|
E|--------|--------|--------|--------|--------|--------|--------|--------|--------|


E|--------|--------|--------|--------|--------|--------|--------|--------|--------|
B|--------|--------|--------|--------|--------|--------|--------|--------|--------|
G|--------|--------|--------|--------|--------|--------|--------|--------|--------|
D|--------|--------|--------|--------|--------|--------|--------|--------|--------|
A|--------|--------|--------|--------|--------|--------|--------|--------|--------|
E|--------|--------|--------|--------|--------|--------|--------|--------|--------|


E|--------|--------|--------|--------|--------|--------|--------|--------|--------|
B|--------|--------|--------|--------|--------|--------|--------|--------|--------|
G|--------|--------|--------|--------|--------|--------|--------|--------|--------|
D|--------|--------|--------|--------|--------|--------|--------|--------|--------|
A|--------|--------|--------|--------|--------|--------|--------|--------|--------|
E|--------|--------|--------|--------|--------|--------|--------|--------|--------|


E|--------|--------|--------|--------|--------|--------|--------|--------|--------|
B|--------|--------|--------|--------|--------|--------|--------|--------|--------|
G|--------|--------|--------|--------|--------|--------|--------|--------|--------|
D|--------|--------|--------|--------|--------|--------|--------|--------|--------|
A|--------|--------|--------|--------|--------|--------|--------|--------|--------|
E|--------|--------|--------|--------|--------|--------|--------|--------|--------|


E|--------|--------|--------|--------|--------|--------|--------|--------|--------|
B|--------|--------|--------|--------|--------|--------|--------|--------|--------|
G|--------|--------|--------|--------|--------|--------|--------|--------|--------|
D|--------|--------|--------|--------|--------|--------|--------|--------|--------|
A|--------|--------|--------|--------|--------|--------|--------|--------|--------|
E|--------|--------|--------|--------|--------|--------|--------|--------|--------|


E|--------|--------|--------|--------|--------|--------|--------|--------|--------|
B|--------|--------|--------|--------|--------|--------|--------|--------|--------|
G|--------|--------|--------|--------|--------|--------|--------|--------|--------|
D|--------|--------|--------|--------|--------|--------|--------|--------|--------|
A|--------|--------|--------|--------|--------|--------|--------|--------|--------|
E|--------|--------|--------|--------|--------|--------|--------|--------|--------|


E|--------|--------|--------|--------|--------|--------|--------|--------|--------|
B|--------|--------|--------|--------|--------|--------|--------|--------|--------|
G|--------|--------|--------|--------|--------|--------|--------|--------|--------|
D|--------|--------|--------|--------|--------|--------|--------|--------|--------|
A|--------|--------|--------|--------|--------|--------|--------|--------|--------|
E|--------|--------|--------|--------|--------|--------|--------|--------|--------|


E|--------|--------|--------|--------|--------|--------|--------|--------|--------|
B|--------|--------|--------|--------|--------|--------|--------|--------|--------|
G|--------|--------|--------|--------|--------|--------|--------|--------|--------|
D|--------|--------|--------|--------|--------|--------|--------|--------|--------|
A|--------|--------|--------|--------|--------|--------|--------|--------|--------|
E|--------|--------|--------|--------|--------|--------|--------|--------|--------|


E|--------|--------|--------|--------|--------|--------|--------|--------|--------|
B|--------|--------|--------|--------|--------|--------|--------|--------|--------|
G|--------|--------|--------|--------|--------|--------|--------|--------|--------|
D|--------|--------|--------|--------|--------|--------|--------|--------|--------|
A|--------|--------|--------|--------|--------|--------|--------|--------|--------|
E|--------|--------|--------|--------|--------|--------|--------|--------|--------|


E|--------|--------|--------|--------|--------|--------|--------|--------|
B|--------|--------|--------|--------|--------|--------|--------|--------|
G|--------|--------|--------|--------|--------|--------|--------|--------|
D|--------|--------|--------|--------|--------|--------|--------|--------|
A|--------|--------|--------|--------|--------|--------|--------|--------|
E|--------|--------|--------|--------|--------|--------|--------|--------|





Track 10: Bass

G|--------------------|--------|-----------------|--------|-----------------|--------|
D|--------------------|--------|-----------------|--------|-------------2---|--------|
A|----------------2---|-2------|-2-----2-----2---|-3------|-3-----3---------|--------|
E|--------------------|--------|-----------------|--------|-----------------|-0------|


G|-----------------|--------|--------|--------|--------|--------|-----------------|
D|-----------------|--------|--------|--------|--------|--------|-----------------|
A|-----------------|-5------|-5------|--------|--------|--------|-------------5---|
E|-0-----0-----0---|--------|--------|-5------|-5------|-3------|-3-----3---------|


G|--------|-----------------|--------|--------------------|--------|-----------------|
D|--------|-----------------|--------|--------------------|--------|-----------------|
A|--------|-------------5---|--------|-----------5---5----|-3------|-3-----3-----2---|
E|-3------|-3-----3---------|-3------|-3-----3------------|--------|-----------------|


G|--------|-----------------|-----------------|---------------------|--------|--------------------|
D|--------|-----------------|-----------------|---------------------|--------|--------------------|
A|-0------|-----------------|-----------------|-3-----3---5-----5---|--------|-----------5---5----|
E|--------|-1-----1-----1---|-3-----3-----3---|---------------------|-3------|-3-----3------------|


G|--------|-----------------|--------|-----------------|---------------------------------|
D|--------|-----------------|--------|-3-----3-----3---|---------------------------------|
A|-3------|-3-----3-----2---|-0------|-----------------|---------------------------------|
E|--------|-----------------|--------|-----------------|-3---3---3---3---3---3---3---3---|


G|---------------------------------|------------------------------|------------------------------|
D|---------5-------5-----------5---|------------------------------|------------------------------|
A|-----5---------------5-----------|-1----1---1---1---1---1---3---|------------------------------|
E|-3-----------3-----------3-------|------------------------------|-1----1---1---1---1---1---1---|


G|---------------------------------|---------------------------------|------------------------------|
D|---------------------------------|---------------------------------|------------------------------|
A|-6---6---6---6---6---6---6---6---|-6---6---6---6---6---6---6---6---|-1----1---1---1---1---1---3---|
E|---------------------------------|---------------------------------|------------------------------|


G|------------------------------|------------------------------|---------------------------------|
D|------------------------------|------------------------------|-----5---4-------5---4-----------|
A|------------------------------|------------------------------|-------------5-----------5---3---|
E|-1----1---1---1---1---1---1---|-3----3---3---3---3---3---3---|-3-------------------------------|


G|---------------------|---------------------|---------------------|------------------------|
D|---------------------|-----------------0---|-2-----2---2-----0---|------------------------|
A|-2-----2---2-----2---|-3-----3---3---------|---------------------|-3-----3---3----5---3---|
E|---------------------|---------------------|---------------------|------------------------|


G|---------------------|---------------------|------------------------------|---------------------------------|
D|---------------------|---------------------|------------------------------|---------------------------------|
A|-2-----2---2-----2---|-3-----3---3-----3---|-5----5---5---5---5---5---5---|-5---5---5---5---5---5---5-------|
E|---------------------|---------------------|------------------------------|-----------------------------3---|


G|--------|-----------------------|--------|-------------|---------------------|---------------------|
D|--------|-----------------------|--------|-------------|---------------------|---------------------|
A|--------|---------------5---3---|-3------|-3-----5-----|---------------------|-----------------2---|
E|-3------|-3-----3---3-----------|--------|-------------|-3-----3---3-----3---|-3-----3---3---------|


G|---------------------|---------------------|---------------------|---------------------|
D|---------------------|---------------------|---------------------|---------------------|
A|-3-----3---3-----3---|-3-----3---3-----2---|-0-----0---0---------|---------------------|
E|---------------------|---------------------|-----------------0---|-1-----1---1-----1---|


G|---------------------|------------------------|---------------------|---------------------|
D|---------------------|------------------------|---------------------|---------------------|
A|---------------------|-----3----3---5-----5---|---------------------|-----------------2---|
E|-3-----3---3-----3---|------------------------|-3-----3---3-----3---|-3-----3---3---------|


G|---------------------|---------------------|---------------------|---------------------|
D|---------------------|---------------------|---------------------|---------------------|
A|-3-----3---3-----3---|-3-----3---3-----2---|-0-----0---0---------|---------------------|
E|---------------------|---------------------|-----------------0---|-1-----1---1-----1---|


G|---------------------------------|---------------------------------|------------------------------|
D|---------------------------------|---------5-------5-----------5---|------------------------------|
A|---------------------------------|-----5---------------5-----------|-1----1---1---1---1---1---3---|
E|-3---3---3---3---3---3---3---3---|-3-----------3-----------3-------|------------------------------|


G|------------------------------|---------------------------------|---------------------------------|
D|------------------------------|---------------------------------|---------------------------------|
A|------------------------------|-6---6---6---6---6---6---6---6---|-6---6---6---6---6---6---6---6---|
E|-1----1---1---1---1---1---1---|---------------------------------|---------------------------------|


G|------------------------------|------------------------------|------------------------------|
D|------------------------------|------------------------------|------------------------------|
A|-1----1---1---1---1---1---3---|------------------------------|------------------------------|
E|------------------------------|-1----1---1---1---1---1---1---|-3----3---3---3---3---3---3---|


G|---------------------------------|---------------------|---------------------|---------------------|
D|-----5---4-------5---4-----------|---------------------|-----------------0---|-2-----2---2-----0---|
A|-------------5-----------5---3---|-2-----2---2-----2---|-3-----3---3---------|---------------------|
E|-3-------------------------------|---------------------|---------------------|---------------------|


G|------------------------|---------------------|---------------------|------------------------------|
D|------------------------|---------------------|---------------------|------------------------------|
A|-3-----3---3----5---3---|-2-----2---2-----2---|-3-----3---3-----3---|-5----5---5---5---5---5---5---|
E|------------------------|---------------------|---------------------|------------------------------|


G|---------------------------------|---------------------|---------------------|---------------------|
D|-----5---4-------5---4-----------|---------------------|-----------------0---|-2-----2---2-----0---|
A|-------------5-----------5---3---|-2-----2---2-----2---|-3-----3---3---------|---------------------|
E|-3-------------------------------|---------------------|---------------------|---------------------|


G|------------------------|---------------------|---------------------|------------------------------|
D|------------------------|---------------------|---------------------|------------------------------|
A|-3-----3---3----5---3---|-2-----2---2-----2---|-3-----3---3-----3---|-5----5---5---5---5---5---5---|
E|------------------------|---------------------|---------------------|------------------------------|


G|---------------------------------|--------|-----------------|--------|-----------------|
D|---------------------------------|--------|-----------------|--------|-------------2---|
A|-5---5---5---5---5---5---5---2---|-2------|-2-----2-----2---|-3------|-3-----3---------|
E|---------------------------------|--------|-----------------|--------|-----------------|


G|--------|-----------------|--------|--------|---------------------|---------------------|
D|--------|-----------------|--------|--------|---------------------|---------------------|
A|--------|-----------------|-5------|-5------|-3-----3---3-----3---|-3-----3---3-----3---|
E|-0------|-0-----0-----0---|--------|--------|---------------------|---------------------|


G|---------------------|---------------------|---------------------|------------------------|
D|---------------------|---------------------|---------------------|------------------------|
A|-0-----0---0-----0---|-0-----0---0---------|---------------------|----------------2---3---|
E|---------------------|-----------------3---|-1-----1---1-----1---|-1-----1---1------------|


G|---------------------|------------------------------|------------------------------|
D|---------------------|------------------------------|------------------------------|
A|-5-----5---5-----5---|------------------------------|-1----1---1---1---1---1---3---|
E|---------------------|-3----3---3---3---3---3---3---|------------------------------|


G|------------------------------|---------------------------------|---------------------------------|
D|------------------------------|---------------------------------|---------------------------------|
A|------------------------------|-6---6---6---6---6---6---6---6---|-6---6---6---6---6---6---6---6---|
E|-1----1---1---1---1---1---1---|---------------------------------|---------------------------------|


G|------------------------------|------------------------------|------------------------------|
D|------------------------------|------------------------------|------------------------------|
A|-1----1---1---1---1---1---3---|------------------------------|------------------------------|
E|------------------------------|-1----1---1---1---1---1---1---|-3----3---3---3---3---3---3---|


G|---------------------------------|---------------------|---------------------|---------------------|
D|-----5---4-------5---4-----------|---------------------|-----------------0---|-2-----2---2-----0---|
A|-------------5-----------5---3---|-2-----2---2-----2---|-3-----3---3---------|---------------------|
E|-3-------------------------------|---------------------|---------------------|---------------------|


G|------------------------|---------------------|---------------------|------------------------------|
D|------------------------|---------------------|---------------------|------------------------------|
A|-3-----3---3----5---3---|-2-----2---2-----2---|-3-----3---3-----3---|-5----5---5---5---5---5---5---|
E|------------------------|---------------------|---------------------|------------------------------|


G|---------------------------------|---------------------|---------------------|---------------------|
D|---------------------------------|---------------------|-----------------0---|-2-----2---2-----0---|
A|-5---5---5---5---5---5---5---5---|-2-----2---2-----2---|-3-----3---3---------|---------------------|
E|---------------------------------|---------------------|---------------------|---------------------|


G|------------------------|---------------------|---------------------|------------------------------|
D|------------------------|---------------------|---------------------|------------------------------|
A|-3-----3---3----5---3---|-2-----2---2-----2---|-3-----3---3-----3---|-5----5---5---5---5---5---5---|
E|------------------------|---------------------|---------------------|------------------------------|


G|---------------------------------|---------------------|---------------------|---------------------|
D|-----5---4-------5---4-----------|---------------------|-----------------0---|-2-----2---2-----0---|
A|-------------5-----------5---3---|-2-----2---2-----2---|-3-----3---3---------|---------------------|
E|-3-------------------------------|---------------------|---------------------|---------------------|


G|------------------------|---------------------|---------------------|------------------------------|
D|------------------------|---------------------|---------------------|------------------------------|
A|-3-----3---3----5---3---|-2-----2---2-----2---|-3-----3---3-----3---|-5----5---5---5---5---5---5---|
E|------------------------|---------------------|---------------------|------------------------------|


G|---------------------------------|---------------------|---------------------|---------------------|
D|-----5---4-------5---4-----------|---------------------|-----------------0---|-2-----2---2-----0---|
A|-------------5-----------5---3---|-2-----2---2-----2---|-3-----3---3---------|---------------------|
E|-3-------------------------------|---------------------|---------------------|---------------------|


G|------------------------|---------------------|---------------------|------------------------------|
D|------------------------|---------------------|---------------------|------------------------------|
A|-3-----3---3----5---3---|-2-----2---2-----2---|-3-----3---3-----3---|-5----5---5---5---5---5---5---|
E|------------------------|---------------------|---------------------|------------------------------|


G|---------------------------------|--------|--------|--------|--------|--------|
D|-----5---4-------5---4-----------|--------|--------|--------|--------|--------|
A|-------------5-----------5---3---|--------|--------|--------|--------|--------|
E|-3-------------------------------|--------|--------|--------|--------|--------|