Menu:

 

Search:

 

narciso saul - boulevard san jorge:

 



Title: Boulevard San Jorge
Artist: 
Album: Guitar Music of Argentina
Author: Narciso Saul


Track 1: Drop D

E|---------------------------|---------------0---0----|------------------------|------------------------------|
B|-----3---3---------3-------|-----0------------------|------------------------|-----3---3------------3-------|
G|---------------1---1-------|-------------------3----|-----0-----1-------2----|------------------1---1-------|
D|---------3-------------2---|------------------------|---------------2--------|---------3----------------2---|
A|---------------------------|------------------------|------------------------|------------------------------|
D|---------------------------|------------------------|------------------------|-0------------0---------------|


E|------------------0---0----|---------------------------|------------------------------|
B|-----0---------------------|---------------------------|-----3---3------------3-------|
G|----------------------3----|-----0--------1-------2----|------------------1---1-------|
D|---------------------------|------------------2--------|---------3----------------2---|
A|---------------------------|---------------------------|------------------------------|
D|-0------------0------------|-0------------0------------|-0-------0----0-------2-------|


E|------------------0---0----|---------------------------|-----10---------------------7--10----7---|
B|-----0---------------------|---------------------------|----------------------9--10-------8------|
G|----------------------3----|-----0--------1-------2----|---------10-9--10--10--------------------|
D|---------------------------|------------------2--------|---------0-------------------------------|
A|---------------------------|----------------------4----|-------------------------------7---------|
D|-0-------6----0-------2----|-0-------1----0------------|-0-----------------0---------------------|


E|----------5--7------------1--0--------3--------|-----3--1--3-----1--3--3--4--------5----|
B|----7--9--------5--6---6--------3--2-----------|--------------4--------------4----------|
G|-----------------------------------------3--2--|-0------------------------------2--2----|
D|-------------6---------------------2-----------|-----------1----------------------------|
A|-----------------------------------------------|-----------------------------------4----|
D|-0---------------------0-----------------------|-0---------------------0----------------|


E|------------------------------|------------------0--------|---------------------------|
B|-----3----------------3-------|-----0---------------------|---------------------------|
G|------------------1-----------|-----3----------------3----|-----0--------1-------2----|
D|---------3----------------2---|---------------------------|-----4------------2--------|
A|---------0------------2-------|---------2-----------------|----------------------4----|
D|-0------------3---------------|-2------------6-------2----|-5-------1----2------------|


E|---------------------------------|-------------12------0-----------|-------------19--------------5---|
B|-----3-------------------3-------|-----0-----------------------19--|-----------------------------5---|
G|-------------19------1-----------|-----3-------------------3-------|-----0-----------1-----------8---|
D|---------3-------------------2---|---------------------------------|-----4---------------2---7-------|
A|---------0---------------2-------|---------2-----------------------|-------------------------0-------|
D|-0---------------3---------------|-2---------------6-------2-------|-5-------2-------2---------------|


E|-5----------------------------|---------------------------------|---------------------------------|
B|-5----6-------5-----------6---|-----5-----------6---5-----------|---------6-------5-----------6---|
G|-8--------7-------7-----------|-7-------7---------------7-------|-----7-------7-------7-----------|
D|-7--------------------7-------|-------------7---------------7---|-6-----------------------6-------|
A|-0----------------------------|---------------------------------|---------------------------------|
D|------------------------------|---------------------------------|---------------------------------|


E|---------------------------------|---------------------------------|-----------------0-----------------------|
B|-----5-----------6---5-----------|---------6-------5-----------6---|-----5--------------3--------------------|
G|-7-------7---------------7-------|-----7-------7-------7-----------|-7-------6-------------2-----------------|
D|-------------6---------------6---|-5-----------------------5-------|-------------5------------3--2--0--------|
A|---------------------------------|---------------------------------|-----------------------------------0-----|
D|---------------------------------|---------------------------------|--------------------------------------3--|


E|---------1-------0-----------1---|-----0-----------1---0-----------|---------1-------0-----------1---|
B|-----3-------3-------3-----------|-3-------3---------------3-------|-----3-------3-------3-----------|
G|-2-----------------------2-------|-------------2---------------2---|-1-----------------------1-------|
D|---------------------------------|---------------------------------|---------------------------------|
A|---------------------------------|---------------------------------|---------------------------------|
D|-0-------------------------------|-0---------------0-------3-------|-2-------------------------------|


E|-----0-----------1---0-----------|---------1-------0-----------1---|-----0-----------1--------------------|
B|-3-------3---------------3-------|-----3-------3-------3-----------|-3-------2-----------2-------3--4--5--|
G|-------------1---------------1---|-0-----------------------0-------|-------------0-----------0------------|
D|---------------------------------|---------------------------------|--------------------------------------|
A|---------------------------------|---------------------------------|--------------------------------------|
D|-2-------------------2-------2---|-1-------------------------------|-1---------------1--------------------|


E|---------------------------------|-------------------------6---5---|-4-------------------------------|
B|-6-------------------------------|-----------------3---6-----------|-----3-------------------3---0---|
G|---------------------------------|-------------2-------------------|---------4-------4---------------|
D|---------3-------2---0-------3---|-3---2---0-----------------------|-------------3-------2-----------|
A|-----0-------0-----------0-------|-------------0-------------------|---------------------------------|
D|-0-------------------------------|-0-----------------------0-------|-2-------------------------------|


E|-------------------------7--6--5--4--|-3-------------------------------|-------------2-------3-----------0---|
B|-----------------0---3---------------|-----3-----------3-----------3---|-2-----------------------1---3-------|
G|-------------1-----------------------|---------3---------------3-------|-----3-------------------------------|
D|-----1---2---------------------------|-------------3-------2-----------|---------2---------------------------|
A|-------------------------------------|---------------------------------|-0-----------------------------------|
D|-2-----------------------------------|---------------------------------|-------------------------------------|


E|-1-------------------------------|-------------------------3---1---|-0-------------------------------|
B|---------------------------------|---------------------3-----------|---------------------------------|
G|-------------2-------------------|-------------1---2---------------|-------------1-------------------|
D|---------3-------2---0-------3---|-3---0---------------------------|---------3-------2---------------|
A|-----0-------------------0-------|---------0-----------------------|-----2---------------2-------8---|
D|-0-------------------------------|-3-------------------------------|-2-----------------------2-------|


E|---------------------------------|-0-------------------------------|---------------------0---4---5---|
B|-----------------------------6---|---------------------------------|---------------------------------|
G|-------------------------7-------|-------------0-------0-----------|---------3---5---6---------------|
D|---------0-----------6-----------|-----------------8-------2---0---|-----5---------------------------|
A|-8---7-------6---7---------------|-----5---7-----------------------|-4-----------0-----------3---4---|
D|-6-------------------------------|-5-------------------------------|---------------------------------|


E|------------------------------|------------------0--------|---------------------------|
B|-----3----------------3-------|-----0---------------------|---------------------------|
G|------------------1-----------|-----3----------------3----|-----0--------1-------2----|
D|---------3----------------2---|---------------------------|-----4------------2--------|
A|---------0------------2-------|---------2-----------------|----------------------4----|
D|-0------------3---------------|-2------------6-------2----|-5-------1----2------------|


E|---------------------------------|-------------12------0-----------|-------------19--------------5---|
B|-----3-------------------3-------|-----0-----------------------19--|-----------------------------5---|
G|-------------19------1-----------|-----3-------------------3-------|-----0-----------1-----------8---|
D|---------3-------------------2---|---------------------------------|-----4---------------2---7-------|
A|---------0---------------2-------|---------2-----------------------|-------------------------0-------|
D|-0---------------3---------------|-2---------------6-------2-------|-5-------2-------2---------------|


E|-5----13------12----------13--|-----12----------13--12----------|---------13------12----------13--|
B|-5----------------------------|---------------------------------|---------------------------------|
G|-8--------19------19----------|-19------19--------------19------|-----13------19------19--13------|
D|-7--------------------19------|-------------19--------------19--|-12------------------------------|
A|-0----------------------------|---------------------------------|---------------------------------|
D|------------------------------|---------------------------------|---------------------------------|


E|-----12----------13--12----------|---------13------12----------13--|-----12----------13-12-10----0-----------|
B|---------------------------------|---------------------------------|--------------------------10----3--------|
G|-19------19--13----------19--13--|-----12------19------19--12------|-19------19--12--------------------2-----|
D|---------------------------------|-12------------------------------|--------------------------------------3--|
A|---------------------------------|---------------------------------|-----------------------------------------|
D|---------------------------------|---------------------------------|-----------------------------------------|


E|---------1-------0-----------1---|-----0-----------1---0-----------|---------1-------0-----------1---|
B|-----3-------3-------3-----------|-3-------3---------------3-------|-----3-------3-------3-----------|
G|-2-----------------------2-------|-------------2---------------2---|-1-----------------------1-------|
D|---------------------------------|---------------------------------|---------------------------------|
A|---------------------------------|---------------------------------|---------------------------------|
D|-0-------------------------------|-0---------------0-------3-------|-2-------------------------------|


E|-----0-----------1---0-----------|---------1-------0-----------1---|-----0-----------1--------------------|
B|-3-------3---------------3-------|-----3-------3-------3-----------|-3-------2-----------2-------3--4--5--|
G|-------------1---------------1---|-0-----------------------0-------|-------------0-----------0------------|
D|---------------------------------|---------------------------------|--------------------------------------|
A|---------------------------------|---------------------------------|--------------------------------------|
D|-2-------------------2-------2---|-1-------------------------------|-1---------------1--------------------|


E|---------------------------------|-------------------------6---5---|-4-------------------------------|
B|-6-------------------------------|-----------------3---6-----------|-----3-------------------3---0---|
G|---------------------------------|-------------2-------------------|---------4-------4---------------|
D|---------3-------2---0-------3---|-3---2---0-----------------------|-------------3-------2-----------|
A|-----0-------0-----------0-------|-------------0-------------------|---------------------------------|
D|-0-------------------------------|-0-----------------------0-------|-2-------------------------------|


E|-------------------------7--6--5--4--|-3-------------------------------|-------------2-------3-----------0---|
B|-----------------0---3---------------|-----3-----------3-----------3---|-2-----------------------1---3-------|
G|-------------1-----------------------|---------3---------------3-------|-----3-------------------------------|
D|-----1---2---------------------------|-------------3-------2-----------|---------2---------------------------|
A|-------------------------------------|---------------------------------|-0-----------------------------------|
D|-2-----------------------------------|---------------------------------|-------------------------------------|


E|-1-------------------------------|-------------------------3---1---|-0-------------------------------|
B|---------------------------------|---------------------3-----------|---------------------------------|
G|-------------2-------------------|-------------1---2---------------|-------------1-------------------|
D|---------3-------2---0-------3---|-3---0---------------------------|---------3-------2---------------|
A|-----0-------------------0-------|---------0-----------------------|-----2---------------2-------8---|
D|-0-------------------------------|-3-------------------------------|-2-----------------------2-------|


E|---------------------------------|-0-------------------------------|---------------------0---4---5---|
B|-----------------------------6---|---------------------------------|---------------------------------|
G|-------------------------7-------|-------------0-------0-----------|---------3---5---6---------------|
D|---------0-----------6-----------|-----------------8-------2---0---|-----5---------------------------|
A|-8---7-------6---7---------------|-----5---7-----------------------|-4-----------0-----------3---4---|
D|-6-------------------------------|-5-------------------------------|---------------------------------|


E|-----10----------12----------9---|---------9-----------10----------|-----10----------12----------9---|
B|---------10----------10----------|-10----------10----------10------|---------9-----------9-----------|
G|-------------10----------10------|-----10----------10----------10--|-------------10----------10------|
D|---------------------------------|---------------------------------|---------------------------------|
A|---------------------------------|---------------------------------|---------------------------------|
D|-0-------------------------------|-0---------------------------0---|-0-------------------------------|


E|---------9-----------10----------|-----10----------12----------9---|---------9-----------10----------|
B|-9-----------9-----------9-------|---------8-----------8-----------|-8-----------8-----------8-------|
G|-----10----------10----------10--|-------------10----------10------|-----10----------10----------10--|
D|---------------------------------|---------------------------------|---------------------------------|
A|---------------------------------|---------------------------------|---------------------------------|
D|-0---------------------------0---|-0-------------------------------|-0---------------------------0---|


E|-----10----------12----------9---|---------9-----------10----------|-----10----------12----------9---|
B|---------10----------10----------|-10----------10----------10------|---------9-----------9-----------|
G|-------------10----------10------|-----10----------10----------10--|-------------10----------10------|
D|---------------------------------|---------------------------------|---------------------------------|
A|---------------------------------|---------------------------------|---------------------------------|
D|-0-----------0---0-----------0---|-0-----------0---0-----------0---|-0-----------0---0-----------0---|


E|---------9-----------10----------|-----10----------12----------9---|---------9-----------10----------|
B|-9-----------9-----------9-------|---------8-----------8-----------|-8-----------8-----------8-------|
G|-----10----------10----------10--|-------------10----------10------|-----10----------10----------10--|
D|---------------------------------|---------------------------------|---------------------------------|
A|---------------------------------|---------------------------------|---------------------------------|
D|-0-----------0---0-----------0---|-0-----------0---0-----------0---|-0-----------0---0-----------0---|


E|-----9---9-------9---9-------9---|-9-------9---9---9-----|-9---------------10------|
B|-----10--10------10--10------10--|-10------10--10--10----|-10--------9--10---------|
G|-----10--10------10--10------10--|-10------10--10--10----|-10--------------7-------|
D|---------------------------------|-----------------------|-----------6--7----------|
A|-------------0-------------------|-----0-----------------|-------------------------|
D|-0-----------------------0-------|-----------------------|---------------------0---|





Track 2: Untitled

G|--------|--------|--------|--------|--------|--------|--------|--------|--------|
D|--------|--------|--------|--------|--------|--------|--------|--------|--------|
A|--------|--------|--------|--------|--------|--------|--------|--------|--------|
E|--------|--------|--------|--------|--------|--------|--------|--------|--------|


G|--------|--------|--------|--------|--------|--------|--------|--------|--------|
D|--------|--------|--------|--------|--------|--------|--------|--------|--------|
A|--------|--------|--------|--------|--------|--------|--------|--------|--------|
E|--------|--------|--------|--------|--------|--------|--------|--------|--------|


G|--------|--------|--------|--------|--------|--------|--------|--------|--------|
D|--------|--------|--------|--------|--------|--------|--------|--------|--------|
A|--------|--------|--------|--------|--------|--------|--------|--------|--------|
E|--------|--------|--------|--------|--------|--------|--------|--------|--------|


G|--------|--------|--------|--------|--------|--------|--------|--------|--------|
D|--------|--------|--------|--------|--------|--------|--------|--------|--------|
A|--------|--------|--------|--------|--------|--------|--------|--------|--------|
E|--------|--------|--------|--------|--------|--------|--------|--------|--------|


G|--------|--------|--------|--------|--------|--------|--------|--------|--------|
D|--------|--------|--------|--------|--------|--------|--------|--------|--------|
A|--------|--------|--------|--------|--------|--------|--------|--------|--------|
E|--------|--------|--------|--------|--------|--------|--------|--------|--------|


G|--------|--------|--------|--------|--------|--------|--------|--------|--------|
D|--------|--------|--------|--------|--------|--------|--------|--------|--------|
A|--------|--------|--------|--------|--------|--------|--------|--------|--------|
E|--------|--------|--------|--------|--------|--------|--------|--------|--------|


G|--------|--------|--------|--------|--------|--------|--------|--------|--------|
D|--------|--------|--------|--------|--------|--------|--------|--------|--------|
A|--------|--------|--------|--------|--------|--------|--------|--------|--------|
E|--------|--------|--------|--------|--------|--------|--------|--------|--------|


G|--------|--------|--------|--------|--------|--------|--------|--------|--------|
D|--------|--------|--------|--------|--------|--------|--------|--------|--------|
A|--------|--------|--------|--------|--------|--------|--------|--------|--------|
E|--------|--------|--------|--------|--------|--------|--------|--------|--------|


G|--------|--------|--------|--------|--------|--------|--------|--------|--------|
D|--------|--------|--------|--------|--------|--------|--------|--------|--------|
A|--------|--------|--------|--------|--------|--------|--------|--------|--------|
E|--------|--------|--------|--------|--------|--------|--------|--------|--------|


G|--------|--------|--------|--------|--------|--------|
D|--------|--------|--------|--------|--------|--------|
A|--------|--------|--------|--------|--------|--------|
E|--------|--------|--------|--------|--------|--------|