Menu:

 

Search:

 

muddy waters - sad sad day live:

 



Title: Sad,Sad Day
Artist: 
Album: 
Author: McKinley Morgenfield ( Muddy Waters)


Track 1: Muddy- Slide Std Tuning

E|-------------|-12--12---12--12---12--12--|-10------------------|-12---12--12--10-----------|
B|-------------|---------------------------|-----12--12----------|------------------12--12---|
G|-------------|---------------------------|---------------------|---------------------------|
D|-------------|---------------------------|---------------------|---------------------------|
A|-------------|---------------------------|---------------------|---------------------------|
E|-------------|---------------------------|---------------------|---------------------------|


E|---------------------------|---------------------------|---------------------------|
B|---------------------------|---------------------------|---------------------------|
G|-----2---0-----------------|---------------------------|---------------------------|
D|-------------2---2---------|---------------------------|---------------------------|
A|---------------------------|---------------------------|----------0---1---2---2----|
E|-----------------------4---|-----4---5----5---6----6---|-7----3--------------------|


E|-------------|--------|--------|-------------|--------|--------|-------------|--------|
B|-------------|--------|--------|-------------|--------|--------|-------------|--------|
G|-------------|--------|--------|-------------|--------|--------|-------------|--------|
D|-------------|--------|--------|-------------|--------|--------|-------------|--------|
A|-------------|--------|--------|-------------|--------|--------|-------------|--------|
E|-------------|--------|--------|-------------|--------|--------|-------------|--------|


E|--------|-----------------|---------------------------|---------------------------------|
B|--------|-----------------|-10---10---10--8-------9---|-----------10--11--12--12--12-12-|
G|--------|-----------------|-------------------9-------|-9-----9-------------------------|
D|--------|-----------------|---------------------------|---------------------------------|
A|--------|-----------------|---------------------------|---------------------------------|
E|--------|-----------------|---------------------------|---------------------------------|


E|------------------------|-------7--7--------|--------|-----------------|---------------------------|
B|-12-12-12-12-12---------|-------10-10-------|--------|-----------------|-10---10---10--8-------9---|
G|------------------------|-------8--8--------|--------|-----------------|-------------------9-------|
D|------------------------|-------------------|--------|-----------------|---------------------------|
A|------------------------|-------------------|--------|-----------------|---------------------------|
E|------------------------|-------------------|--------|-----------------|---------------------------|


E|-------------------------------|---------------------------|---------------------------|
B|-5-----------------------------|---------------------------|---------------------------|
G|-------------------------------|-----4---------------------|---------------------------|
D|-------------------------------|-----4---------2---2---0---|-0---0---0---2---2---------|
A|------------0--1--2---2---2----|-----2---------------------|---------------------------|
E|------3--4---------------------|---------------------------|---------------------------|


E|-----------------|-----------------7---7---7---7---|-7---7---7---7---7---5---5---5---|
B|-----------------|-----------------5---5---5---5---|-5---5---5---5---5---4---4---4---|
G|-2---------------|--------2--------7---7---7---7---|-7---7---7---7---7---5---5---5---|
D|-----------------|---------------------------------|---------------------------------|
A|-------------0---|-3---4---------------------------|---------------------------------|
E|-----------------|---------------------------------|---------------------------------|


E|-------------0----0---0----|-----7---7-------7---7---7---7---|-7---7---7---7---7---7---7---7---|
B|-----0---3---3----3---3----|-----5---5-------5---5---5---5---|-5---5---8---8---8---5---5---5---|
G|-1-------------------------|-----7---7-------6---6---6---6---|-6---6---6---6---6---6---6---6---|
D|---------------------------|---------------------------------|---------------------------------|
A|---------------------------|---------------------------------|---------------------------------|
E|---------------------------|---------------------------------|---------------------------------|


E|-7---7---7---7---7---7---7---7---|-7---5---5---5---0-----|---------------------------|
B|-5---5---5---5---5---5---5---5---|-5---4---4---4---0-----|-10---10---10--8-------9---|
G|-7---7---7---7---7---7---7---7---|-7---5---5---5---0-----|-------------------9-------|
D|---------------------------------|-----------------------|---------------------------|
A|---------------------------------|-----------------------|---------------------------|
E|---------------------------------|-----------------------|---------------------------|


E|---------------------------|-----------------------------|-------------|-------------|
B|-----------9---10--12--12--|-----12--10--10-12-10--------|-------------|-------------|
G|-9-----9-------------------|-----------------------------|-------------|-------------|
D|---------------------------|-----------------------------|-------------|-------------|
A|---------------------------|-----------------------------|-------------|-0-----------|
E|---------------------------|-----------------------------|-------------|-------------|


E|---------------------------|-------------------------------------------|---------------------------|
B|---------------------------|-------------------------------------------|---------------------------|
G|-------------0---1---------|-4--4--4--4--4--4--4--4--4--4--2---0-------|---------------------------|
D|-----0---2-----------------|---------------------------------------2---|---------------------------|
A|---------------------------|-------------------------------------------|----------0---1---2---2----|
E|---------------------------|-------------------------------------------|-0----4--------------------|


E|--------------12---12--12--|-12---12--10--12---12--12---|-12---10-----------------------|
B|--------------12---12--12--|-12---12--10--12---12-------|-12---10--9---8----------------|
G|---------------------------|----------------------------|-----------------9--9--9--9----|
D|---------------------------|----------------------------|-------------------------------|
A|-2---2---------------------|----------------------------|-------------------------------|
E|---------------------------|----------------------------|-------------------------------|


E|-----------12---12--12--|-12---12--12-12-12-12-12-12-12-10---|---------------------------|
B|-----------12---12--12--|-12---------------------------------|-12---11--10--8------------|
G|------------------------|------------------------------------|------------------9---9----|
D|------------------------|------------------------------------|---------------------------|
A|------------------------|------------------------------------|---------------------------|
E|------------------------|------------------------------------|---------------------------|


E|---------------15---12--|-12---------------------------|-------------------------------------------------|
B|------------------------|------------------------------|----5--5--5--5--5--5--5--5--5--5--5--5--5--3-----|
G|-9---9------------------|----12-12-12-12-12-12---------|----------------------------------------------4--|
D|------------------------|------------------------------|-------------------------------------------------|
A|------------------------|------------------------------|-------------------------------------------------|
E|------------------------|------------------------------|-------------------------------------------------|


E|-------------------------------|-----------------------------------------|-------------------------------------|
B|-------------------------------|-----------------------------------------|-------------------------------------|
G|-2--2--2---0-------------------|-----------------------------------------|-------------------------------------|
D|--------------2----2-----5--7--|-9---9---9--9--9--9--9--8--7---5--2--2---|-2-----5--7--9--9--9--9--9--9--9--9--|
A|-------------------------------|-----------------------------------------|-------------------------------------|
E|-------------------------------|-----------------------------------------|-------------------------------------|


E|-----------------------------------------------|-----------------------|-------------------------------------------|
B|-----------------------------------------------|-----------------------|-------------------------------------------|
G|-----------------------------------------------|-----------------------|-----9---9--9--9--9--9--9--9--9---9--4--4--|
D|-9--7--5---7--7--7--8--9--9--9--9--9--9--9--9--|-9--9--8---7-----------|-------------------------------------------|
A|-----------------------------------------------|-----------------------|-------------------------------------------|
E|-----------------------------------------------|-----------------------|-------------------------------------------|


E|-----------------------------|---------------------------|---------------------------|
B|-------------------------3---|-3---3---2----2---1----1---|-0-------------------------|
G|----3---2---0------------4---|-4---4---3----3---2----2---|-0-------------------------|
D|---------------2---2-----6---|-6---6---5----5------------|---------------------------|
A|-----------------------------|---------------------------|----------0---1---2---2----|
E|-----------------------------|---------------------------|------4--------------------|


E|-----------0------------|------------------------------|----------7---7---7---7---7---|
B|------------------------|------------------------------|----------5---5---5---5---5---|
G|------------------------|------------------------------|----------6---6---6---6---6---|
D|-----------2------------|------------------2-----------|------------------------------|
A|-2---2------------------|-----2---5----5-------5---2---|-0----0-----------------------|
E|----------------0---3---|-4----------------------------|------------------------------|


E|-7---7---7---7---7---7---7---7---|-7---7---7---7---7---7---7---7---|-7-------7---5----5---3----|
B|-5---5---5---5---5---5---5---5---|-5---5---5---5---5---5---5---5---|-5---5---5---4----4---3----|
G|-6---6---6---6---7---7---7---7---|-7---7---7---7---7---7---7---7---|-7-------7---5----5---4----|
D|---------------------------------|---------------------------------|---------------------------|
A|---------------------------------|---------------------------------|---------------------------|
E|---------------------------------|---------------------------------|---------------------------|


E|-3---3-----------3--------2---|-----2---0-------0---------------|-3-------3---2-------2---0-------|
B|-3---3---1---2---2------------|-------------2-------0---1---2---|-----2-----------2-----------3---|
G|-4---4------------------------|---------------------------------|---------------------------------|
D|------------------------------|---------------------------------|---------------------------------|
A|----------------------0---3---|-----0---------------------------|-----0-----------0---------------|
E|------------------------------|---------------------------------|---------------------------------|


E|--------------------------------------|---------------------------------|---------0-------0---0-------0---|
B|-0------------------------3---3---3---|-3---3---3---3---3---------------|-----------------3---3---3---3---|
G|-----2--3--2--0-------4-----------4---|---------4-----------2---0-------|-----1-------4---4---4---4---4---|
D|------------------2-------------------|-----------------------------2---|-2-------------------------------|
A|--------------------------------------|---------------------------------|---------------------------------|
E|--------------------------------------|---------------------------------|-0-------------------------------|


E|-0------------------------------|-7------------------------0---|-----10----------9-------9---7---|
B|-3------------------------------|------10--7---10--10--7---0---|-12--12--12--10------10--10--8---|
G|-4---2---0----------------------|------8-------8---8-----------|---------------------------------|
D|-------------2--0-----------9---|------------------------------|---------------------------------|
A|------------------------9-------|------------------------------|---------------------------------|
E|-------------------7------------|------------------------------|---------------------------------|


E|---------------------------|---------------------------|---------------------------|
B|-----------------------3---|-3---3---2----2---1----1---|-0-------------------------|
G|-9---------------------4---|-4---4---3----3---2----2---|-0-------------------------|
D|-----7---5---7---2-----6---|-6---6---5----5------------|---------------------------|
A|---------------------------|---------------------------|----------0---1---2---2----|
E|---------------------------|---------------------------|------4--------------------|


E|-----------------|--------|--------|-------------|--------|--------|-------------|
B|-----------------|--------|--------|-------------|--------|--------|-------------|
G|-----------------|--------|--------|-------------|--------|--------|-------------|
D|-----------------|--------|--------|-------------|--------|--------|-------------|
A|-2---2-----------|--------|--------|-------------|--------|--------|-------------|
E|-----------------|--------|--------|-------------|--------|--------|-------------|


E|--------|--------|-----------------|---------------------------|---------------------------------|
B|--------|--------|-----------------|-10---10---10--8-------9---|-----------10--11--12--12--12-12-|
G|--------|--------|-----------------|-------------------9-------|-9-----9-------------------------|
D|--------|--------|-----------------|---------------------------|---------------------------------|
A|--------|--------|-----------------|---------------------------|---------------------------------|
E|--------|--------|-----------------|---------------------------|---------------------------------|


E|------------------------|-------7--7--------|--------|-----------------|---------------------------|
B|-12-12-12-12-12---------|-------10-10-------|--------|-----------------|-10---10---10--8-------9---|
G|------------------------|-------8--8--------|--------|-----------------|-------------------9-------|
D|------------------------|-------------------|--------|-----------------|---------------------------|
A|------------------------|-------------------|--------|-----------------|---------------------------|
E|------------------------|-------------------|--------|-----------------|---------------------------|


E|-------------------------------|---------------------------|---------------------------|
B|-5-----------------------------|---------------------------|---------------------------|
G|-------------------------------|-----4---------------------|---------------------------|
D|-------------------------------|-----4---------2---2---0---|-0---0---0---2---2---------|
A|------------0--1--2---2---2----|-----2---------------------|---------------------------|
E|------3--4---------------------|---------------------------|---------------------------|


E|-------7---7---7---7---7---|-7---7---7---7---5---5---5-------|---------0----0---0-----|
B|-------5---5---5---5---5---|-5---5---5---5---4---4---4-------|-0---3---3----3---3-----|
G|-2-----7---7---7---7---7---|-7---7---7---7---5---5---5---1---|------------------------|
D|---------------------------|---------------------------------|------------------------|
A|---------------------------|---------------------------------|------------------------|
E|---------------------------|---------------------------------|------------------------|


E|-7---7-------7---7---7---7---7---|-7---7---7---7---7---7---7---7---|-7---7---7---7---7---7---7---7---|
B|-5---5-------5---5---5---5---5---|-5---8---8---8---5---5---5---5---|-5---5---5---5---5---5---5---5---|
G|-7---7-------6---6---6---6---6---|-6---6---6---6---6---6---6---7---|-7---7---7---7---7---7---7---7---|
D|---------------------------------|---------------------------------|---------------------------------|
A|---------------------------------|---------------------------------|---------------------------------|
E|---------------------------------|---------------------------------|---------------------------------|


E|-5---5---5---0---------|------------------------------|---------------------------|
B|-4---4---4---0-----10--|-----10---10--8-------9-------|----------9---10--12--12---|
G|-5---5---5---0---------|------------------9-------9---|------9--------------------|
D|-----------------------|------------------------------|---------------------------|
A|-----------------------|------------------------------|---------------------------|
E|-----------------------|------------------------------|---------------------------|


E|--------------------------|----------------|-----------------|-----------------------------|
B|-12--10--10-12-10---------|----------------|-----------------|-----------------------------|
G|--------------------------|----------------|-----------------|---------0---1---------4--4--|
D|--------------------------|----------------|-----------------|-0---2-----------------------|
A|--------------------------|------------0---|-----------------|-----------------------------|
E|--------------------------|----------------|-----------------|-----------------------------|


E|-----------------------------------------|------------------------------|----------12---12--12--12--|
B|-----------------------------------------|------------------------------|----------12---12--12--12--|
G|-4--4--4--4--4--4--4--4--2---0-----------|------------------------------|---------------------------|
D|---------------------------------2-------|------------------------------|---------------------------|
A|-----------------------------------------|---------0---1---2---2----2---|-2-------------------------|
E|-------------------------------------0---|-----4------------------------|---------------------------|


E|-----12--10--12---12--12---12--|-----10------------------------|-------12---12--12--12--|
B|-----12--10--12---12-------12--|-----10--9---8-----------------|-------12---12--12--12--|
G|-------------------------------|----------------9--9--9--9-----|------------------------|
D|-------------------------------|-------------------------------|------------------------|
A|-------------------------------|-------------------------------|------------------------|
E|-------------------------------|-------------------------------|------------------------|


E|-----12--12-12-12-12-12-12-12-10-------|------------------------------|-----------15---12--12----|
B|-----------------------------------12--|-----11--10--8----------------|--------------------------|
G|---------------------------------------|-----------------9---9----9---|-9---------------------12-|
D|---------------------------------------|------------------------------|--------------------------|
A|---------------------------------------|------------------------------|--------------------------|
E|---------------------------------------|------------------------------|--------------------------|


E|------------------------------|-------------------------------------------------|
B|---------------------------5--|-5--5--5--5--5--5--5--5--5--5--5--5--3-----------|
G|-12-12-12-12-12---------------|----------------------------------------4--2--2--|
D|------------------------------|-------------------------------------------------|
A|------------------------------|-------------------------------------------------|
E|------------------------------|-------------------------------------------------|


E|-----------------------------|-----------------------------------------|------------------------------------------|
B|-----------------------------|-----------------------------------------|------------------------------------------|
G|-2---0-----------------------|-----------------------------------------|------------------------------------------|
D|--------2----2-----5--7--9---|-9---9--9--9--9--9--8--7---5--2--2---2---|------5--7--9--9--9--9--9--9--9--9--9--7--|
A|-----------------------------|-----------------------------------------|------------------------------------------|
E|-----------------------------|-----------------------------------------|------------------------------------------|


E|-----------------------------------------------|---------------------|-------------------------------------------|
B|-----------------------------------------------|---------------------|-------------------------------------------|
G|-----------------------------------------------|---------------------|-9---9--9--9--9--9--9--9--9---9--4--4---3--|
D|-5---7--7--7--8--9--9--9--9--9--9--9--9--9--9--|-8---7---------------|-------------------------------------------|
A|-----------------------------------------------|---------------------|-------------------------------------------|
E|-----------------------------------------------|---------------------|-------------------------------------------|


E|-----------------------------|---------------------------|------------------------------|
B|---------------------3---3---|-3---2----2---1----1---0---|------------------------------|
G|----2---0------------4---4---|-4---3----3---2----2---0---|------------------------------|
D|-----------2---2-----6---6---|-6---5----5----------------|------------------------------|
A|-----------------------------|---------------------------|---------0---1---2---2----2---|
E|-----------------------------|---------------------------|-----4------------------------|


E|-------0----------------|------------------------------|---------7---7---7---7---7---7---|
B|------------------------|------------------------------|---------5---5---5---5---5---5---|
G|------------------------|------------------------------|---------6---6---6---6---6---6---|
D|-------2----------------|--------------2---------------|---------------------------------|
A|-2----------------------|-2---5----5-------5---2---0---|-----0---------------------------|
E|------------0---3---4---|------------------------------|---------------------------------|


E|-7---7---7---7---7---7---7---7---|-7---7---7---7---7---7---7---7---|-----7---5----5---3----3---|
B|-5---5---5---5---5---5---5---5---|-5---5---5---5---5---5---5---5---|-5---5---4----4---3----3---|
G|-6---6---6---7---7---7---7---7---|-7---7---7---7---7---7---7---7---|-----7---5----5---4----4---|
D|---------------------------------|---------------------------------|---------------------------|
A|---------------------------------|---------------------------------|---------------------------|
E|---------------------------------|---------------------------------|---------------------------|


E|-3-----------3--------2----|-2---0-------0---------------3---|-----3---2-------2---0-----------|
B|-3---1---2---2-------------|---------2-------0---1---2-------|-2-----------2-----------3---0---|
G|-4-------------------------|---------------------------------|---------------------------------|
D|---------------------------|---------------------------------|---------------------------------|
A|------------------0---3----|-0-------------------------------|-0-----------0-------------------|
E|---------------------------|---------------------------------|---------------------------------|


E|--------------------------------------|---------------------------------|-----0-------0---0-------0---0---|
B|----------------------3---3---3---3---|-3---3---3---3-------------------|-------------3---3---3---3---3---|
G|-2--3--2--0-------4-----------4-------|-----4-----------2---0-----------|-1-------4---4---4---4---4---4---|
D|--------------2-----------------------|-------------------------2---2---|---------------------------------|
A|--------------------------------------|---------------------------------|---------------------------------|
E|--------------------------------------|-----------------------------0---|---------------------------------|


E|----------------------------7---|-------------------------0-------|-10----------9-------9---7-------|
B|--------------------------------|-----10--7---10--10--7---0---12--|-12--12--10------10--10--8-------|
G|-2---0--------------------------|-----8-------8---8---------------|-----------------------------9---|
D|---------2--0-----------9-------|---------------------------------|---------------------------------|
A|--------------------9-----------|---------------------------------|---------------------------------|
E|---------------7----------------|---------------------------------|---------------------------------|


E|---------------------------|---------------------------|------------------------------|
B|-------------------3---3---|-3---2----2---1----1---0---|------------------------------|
G|-------------------4---4---|-4---3----3---2----2---0---|------------------------------|
D|-7---5---7---2-----6---6---|-6---5----5----------------|------------------------------|
A|---------------------------|---------------------------|---------0---1---2---2----2---|
E|---------------------------|---------------------------|-----4------------------------|


E|------------------------|------------------------------|------------------------------|
B|------------------------|------------------------------|------------------------------|
G|------------------------|------------------------------|------------------------------|
D|------------------------|-----0--------2-----------2---|---------------------0--------|
A|-2----------------------|-2----------------5---2-------|-----------------2---5--------|
E|------------0---3---4---|------------------------------|-----0---3---4----------------|


E|---------------------------|------------------------------|---------------------------|
B|---------------------------|------------------------------|---------------------------|
G|---------------------------|--------------0---------------|---------------------------|
D|-2-------------------------|-----2----2-------0---2-------|------------------2----2---|
A|-----5---2---0----0---4----|-4------------------------0---|-----0---4----4------------|
E|---------------------------|------------------------------|---------------------------|


E|---------------------------|------------------------------|----------------------------------------|
B|-----------------------10--|-----10---10--10------9-------|---------9--10-12-12-12-12-12-12-12-10--|
G|-0-------------------------|------------------9-------9---|------9---------------------------------|
D|-----0---2---2-------------|------------------------------|----------------------------------------|
A|---------------------------|------------------------------|----------------------------------------|
E|---------------------------|------------------------------|----------------------------------------|


E|--------------|----------------|--------|---------------------|---------------------------|
B|-10-----------|----------------|--------|------------12--11---|-11--11---11--11---9-------|
G|--------------|----------------|--------|---------------------|-----------------------9---|
D|--------------|----------------|--------|---------------------|---------------------------|
A|--------------|----------------|--------|---------------------|---------------------------|
E|--------------|----------------|--------|---------------------|---------------------------|


E|--------------9---9-----|-------9---------|-----------------|
B|------8---9---9---9-----|-------9---------|-----------------|
G|------8---9---9---9-----|-------9---------|-----------------|
D|------8---9-------------|-----------------|-----------------|
A|------------------------|-----------------|-----------------|
E|------------------------|-----------------|-----------------|





Track 2: Johnny Winter Gtr 2

E|--------|-------------|-----------------0---|-----10--10--10--10--10-------9--|-----9---7---------0---------|
B|--------|-------------|---------------------|-12--12--12--12--12--12--10------|-10--10--8-------------------|
G|--------|-------------|---------------------|---------------------------------|-------------9--7--------1---|
D|--------|-------------|---------------------|---------------------------------|-----------------------------|
A|--------|-------------|---------------------|---------------------------------|-----------------------------|
E|--------|-------------|---------------------|---------------------------------|-----------------------------|


E|-0----------------------------|-----0---------------------------|-----------------7---7---7---7---|
B|-----3-------3----------------|---------3-----------3---0-------|-0---0-----------5---5---5---5---|
G|---------4--------2----0------|-1---------------------------0---|---------0---2---7---7---7---7---|
D|--------------------------2---|---------------------------------|---------------------------------|
A|------------------------------|-------------0---1---------------|---------------------------------|
E|------------------------------|---------------------------------|---------------------------------|


E|-7---7---7---7---7---7---7---7---|-7---7---7---7---7---7---7---7---|-7---7---7---7---7---7---7---7---|
B|-5---5---5---5---5---5---5---5---|-5---5---5---5---5---5---8---8---|-8---5---5---5---5---5---5---5---|
G|-7---7---7---7---7---7---7---7---|-6---6---6---6---6---6---6---6---|-6---6---6---6---7---7---7---7---|
D|---------------------------------|---------------------------------|---------------------------------|
A|---------------------------------|---------------------------------|---------------------------------|
E|---------------------------------|---------------------------------|---------------------------------|


E|-7---7---7---7---7---5---5---5---|---------12--10------------------|---------------------------|
B|-5---5---5---5---5---4---4---4---|-------------9---12--10----------|---------------------------|
G|-7---7---7---7---7---5---5---5---|-----9-------------------12--9---|---------------------------|
D|---------------------------------|-9-------------------------------|-0-------------------------|
A|---------------------------------|---------------------------------|---------------------------|
E|---------------------------------|---------------------------------|-----0---3---4---5---------|


E|--------5-------------------------|------5---3-------3---3-------|-3--------------------0-------|
B|-5--7------7--5--5----------------|------2---2---5---2---2---5---|-2----------------------------|
G|----------------------------------|------------------------------|-----------------0--------4---|
D|------------------------------2---|------------------------------|-------------2----------------|
A|----------------------3---4-------|-0----------------------------|-----0------------------------|
E|----------------------------------|------------------------------|---------3--------------------|


E|-----0-----------0---------------|--------------12--10----------|---------------------------|
B|-3-----------3-------------------|------------------9---12--10--|---------------------------|
G|---------4-----------2---0-------|-1----0---9-------------------|-12--9---------------------|
D|-----------------------------2---|------------------------------|---------12--9---13--------|
A|---------------------------------|------------------------------|---------------------------|
E|---------------------------------|------------------------------|---------------------------|


E|-----11----------11----------10--|-9-------------------------|-------------------0---------|
B|---------10----------10------8---|-8-------------------------|-----------------------------|
G|-11----------11----------11--10--|-9---------2---2---2---2---|-2---2---2--0------------1---|
D|---------------------------------|---------------------------|---------------2---2-----0---|
A|---------------------------------|---------------------------|-----------------------------|
E|---------------------------------|---------------------------|-----------------------------|


E|--------------------------------|-----0---------------------------|-----------------7---7---7---7---|
B|-------------------------0------|---------2---------------0-------|-----0-------2---5---5---5---5---|
G|-2---2---2----0---2---2--0------|-1---------------------------2---|-2---2---1-------7---7---7---7---|
D|----------------------------2---|-----------------------------1---|-1---1---------------------------|
A|--------------------------------|-------------0---1---2-----------|---------------------------------|
E|--------------------------------|---------------------------------|---------------------------------|


E|-7---7---7---7---7---7---7---7---|-7---7---7---7---7---7---7---7---|-7---7---7---7---------|
B|-5---5---5---5---5---5---5---5---|-8---8---8---8---8---8---8---8---|-8---5---5---5---------|
G|-7---7---7---7---7---7---7---7---|-6---6---6---6---6---6---6---6---|-6---6---6---6---------|
D|---------------------------------|---------------------------------|-----------------0-----|
A|---------------------------------|---------------------------------|-----------------------|
E|---------------------------------|---------------------------------|-----------------------|


E|------------------------------|-12-------12-------12------|-----------------------------|
B|--------------------------12--|-----15-------15-------15--|-----------------------------|
G|----------------------14------|---------------------------|-14--14--14-12-----12--------|
D|------0---0---2---------------|---------------------------|---------------14------------|
A|------------------------------|---------------------------|-----------------------------|
E|------------------------------|---------------------------|-----------------------------|


E|----------9---9-------7-------|-0------------------------|-0---------------0---0-----------|
B|------------------10------8---|-------0--------------3---|-3---------------0---3-----------|
G|------------------------------|----------2--4----4-------|-----2---0-------0---0-----------|
D|------------------------------|--------------------------|-------------2-------------------|
A|------------------------------|--------------------------|---------------------------------|
E|------------------------------|--------------------------|---------------------------------|


E|---------------------------------|-0-------------------------|-----------------------------|
B|-3---3---3---3---3---------------|-----------3---3---3---3---|-3---------------------------|
G|-4-------4-------4---2---0--1----|-1-----4-------4---4-------|-4---2---0-------------------|
D|----------------------------2----|-2-------------------------|-------------2--0--------4---|
A|---------------------------------|---------------------------|-------------------2-----6---|
E|---------------------------------|---------------------------|-----------------------------|


E|-----7---5-------5---5-----------|------3---3---0---3-----------|--------------------------12--|
B|---------4---7---4---4-----------|------2---2-------2-----------|------------------------------|
G|-4-------------------------------|------------------------------|------------------------------|
D|---------------------------------|-2----------------------------|-2---5---0---2--------0---12--|
A|-------------------------3---4---|-0--------------------3---4---|------------------------------|
E|---------------------------------|------------------------------|-----------------0------------|


E|-----12--12---12--12---12--|-12---12----------------------|----------------------0------------|
B|---------------------------|----------------------3---0---|-----------------------------------|
G|---------------------------|------------------------------|-----2--3--2--1--------------------|
D|-----12--11---11--10---10--|-9----------------------------|------------------2---2------------|
A|---------------------------|-11-------0---1---2---2-------|-----------------------------------|
E|---------------------------|------------------------------|---------------------------0---3---|


E|------------------------------|----------7---7---7---7---7---|-7---7---7---7---7---7---7---7---|
B|------------------------------|----------5---5---5---5---5---|-5---5---5---5---5---5---5---5---|
G|------------------------------|----------6---6---6---6---6---|-6---6---6---6---7---7---7---7---|
D|------------------2-----------|------------------------------|---------------------------------|
A|-----2---5----5-------5---2---|-0----0-----------------------|---------------------------------|
E|-4----------------------------|------------------------------|---------------------------------|


E|-7---7---7---7---7---7---7---7---|-7-------7---5----5---3----|-3---3-----------3--------2---|
B|-5---5---5---5---5---5---5---5---|-5---5---5---4----4---3----|-3---3---1---2---2------------|
G|-7---7---7---7---7---7---7---7---|-7-------7---5----5---4----|-4---4------------------------|
D|---------------------------------|---------------------------|------------------------------|
A|---------------------------------|---------------------------|----------------------0---3---|
E|---------------------------------|---------------------------|------------------------------|


E|-----2---0-------0---------------|-3-------3---2-------2---0-------|--------------------------------------|
B|-------------2-------0---1---2---|-----2-----------2-----------3---|-0------------------------3---3---3---|
G|---------------------------------|---------------------------------|-----2--3--2--0-------4-----------4---|
D|---------------------------------|---------------------------------|------------------2-------------------|
A|---------------------------------|-0---------------0---------------|--------------------------------------|
E|---------------------------------|---------------------------------|--------------------------------------|


E|---------------------------------|---------0-------0---0-------0---|-0------------------------------|
B|-3---3---3---3---3---------------|-----------------3---3---3---3---|-3------------------------------|
G|---------4-----------2---0-------|-----1-------4---4---4---4---4---|-4---2---0----------------------|
D|-----------------------------2---|-2-------------------------------|-------------2--0-----------9---|
A|---------------------------------|---------------------------------|------------------------9-------|
E|---------------------------------|-0-------------------------------|-------------------7------------|


E|-7------------------------0---|-----10----------9-------9---7---|---------------------------|
B|------10--7---10--10--7---0---|-12--12--12--10------10--10--8---|-----------------------12--|
G|------8-------8---8-----------|---------------------------------|-9-------------------------|
D|------------------------------|---------------------------------|-----7---5---7-------------|
A|------------------------------|---------------------------------|-----------------7---------|
E|------------------------------|---------------------------------|---------------------------|


E|-12----------12----------12------|-----12-----------------------|----------------------12----------|
B|-----12--11------11--10------10--|------------------------------|-------------------12----12-15-15-|
G|---------------------------------|-12------12-------------------|--------------14------------------|
D|---------------------------------|------------------------------|----------------------------------|
A|---------------------------------|-------------0---1---2---2----|-2--------7-----------------------|
E|---------------------------------|------------------------------|----------------------------------|


E|----12----------12----------15-----|------15------------------------------|---------------------------------|
B|-------15--15------15--15------15--|-15------15--15-15-12-12--15----------|---------------------15--15--15--|
G|-----------------------------------|------------------------------14--12--|---------------------14--14--14--|
D|-----------------------------------|--------------------------------------|---------14----------------------|
A|-----------------------------------|--------------------------------------|---------------------------------|
E|-----------------------------------|--------------------------------------|---------------------------------|


E|---------------------------------|---------------------------------|----------------------------7--6--5--|
B|-15--15--15--15--15--15----------|-----14--12----------------------|-------------------------5-----------|
G|-14--14--14--14------14--12------|-----14------13--11--------------|---------------------6---------------|
D|-----------------------------14--|-----14--------------14--12------|-------------------------------------|
A|---------------------------------|-14--------------------------14--|-13--12--10--------------------------|
E|---------------------------------|---------------------------------|-------------12--0-------------------|


E|-------7--6--5----------------7--------|-----------12----------12----15-15-15--12-------|
B|-8--5-----------8--5--8---8------------|--------12----12-15-15----12--------------15-12-|
G|---------------------------------------|-----14-----------------------------------------|
D|---------------------------------------|------------------------------------------------|
A|---------------------------------------|------------------------------------------------|
E|---------------------------------------|------------------------------------------------|


E|-------12-------12---------------------------------------|-------------------------------------|
B|----12----12-15----15-12---------------------------------|-------------------------------------|
G|-14----------------------14-14-12----14----12-14---------|-------------------------------------|
D|----------------------------------14----14-------14------|---------------12--14----------------|
A|---------------------------------------------------------|-----12--12-14---------13-12---------|
E|---------------------------------------------------------|-----12----------------------15--12--|


E|---------12----------12-------|---------------12-14-14-14-14-------|-12-14----14----------------------12----|
B|------12---------12------15---|---------12-15----------------------|-------15----15-12----------12-15----12-|
G|-14----------14---------------|------------------------------------|-------------------14-------------------|
D|------------------------------|------------------------------------|----------------------------------------|
A|------------------------------|------------------------------------|----------------------------------------|
E|------------------------------|------------------------------------|----------------------------------------|


E|-15121512--12----15--15--12-15-15-15-12----------|-12------------12-------------------------------------|
B|---------15--1512-----------------------15-12-15-|----15-12--------1512------------------12---------12--|
G|-------------------------------------------------|----------14-14------141412--14--12-14----12--0-------|
D|-------------------------------------------------|---------------------------14--14-------------0-------|
A|-------------------------------------------------|------------------------------------------------------|
E|-------------------------------------------------|------------------------------------------------------|


E|-10--10------10--10--------------|-----0-----------------0-----------|-----------------7---7---7---7---|
B|---------12--12--12--10--9-------|---------3--0------3-------3---0---|-3---------------5---5---5---5---|
G|-----------------------------9---|-1-------------2-------------------|-----2---1-------7---7---7---7---|
D|---------------------------------|-----------------------------------|-------------2-------------------|
A|---------------------------------|-----------------------------------|---------------------------------|
E|---------------------------------|-----------------------------------|---------------------------------|


E|-7---7---7---7---7---7---7---7---|-7---7---7---7---7---7---7---7---|-7---7---7---7---7---7---7---7---|
B|-5---5---5---5---5---5---5---5---|-5---5---5---5---5---5---8---8---|-8---5---5---5---5---5---5---5---|
G|-7---7---7---7---7---7---7---7---|-6---6---6---6---6---6---6---6---|-6---6---6---6---7---7---7---7---|
D|---------------------------------|---------------------------------|---------------------------------|
A|---------------------------------|---------------------------------|---------------------------------|
E|---------------------------------|---------------------------------|---------------------------------|


E|-7---7---7---7---7---5---5---5---|---------12--10------------------|---------------------------|
B|-5---5---5---5---5---4---4---4---|-------------9---12--10----------|---------------------------|
G|-7---7---7---7---7---5---5---5---|-----9-------------------12--9---|---------------------------|
D|---------------------------------|-9-------------------------------|-0-------------------------|
A|---------------------------------|---------------------------------|---------------------------|
E|---------------------------------|---------------------------------|-----0---3---4---5---------|


E|--------5-------------------------|------5---3-------3---3-------|-3--------------------0-------|
B|-5--7------7--5--5----------------|------2---2---5---2---2---5---|-2----------------------------|
G|----------------------------------|------------------------------|-----------------0--------4---|
D|------------------------------2---|------------------------------|-------------2----------------|
A|----------------------3---4-------|-0----------------------------|-----0------------------------|
E|----------------------------------|------------------------------|---------3--------------------|


E|-----0-----------0---------------|--------------12--10----------|---------------------------|
B|-3-----------3-------------------|------------------9---12--10--|---------------------------|
G|---------4-----------2---0-------|-1----0---9-------------------|-12--9---------------------|
D|-----------------------------2---|------------------------------|---------12--9---13--------|
A|---------------------------------|------------------------------|---------------------------|
E|---------------------------------|------------------------------|---------------------------|


E|-----11----------11----------10--|-9-------------------------|-------------------0---------|
B|---------10----------10------8---|-8-------------------------|-----------------------------|
G|-11----------11----------11--10--|-9---------2---2---2---2---|-2---2---2--0------------1---|
D|---------------------------------|---------------------------|---------------2---2-----0---|
A|---------------------------------|---------------------------|-----------------------------|
E|---------------------------------|---------------------------|-----------------------------|


E|--------------------------------|-----0---------------------------|-----------------7---7---7---7---|
B|-------------------------0------|---------2---------------0-------|-----0-------2---5---5---5---5---|
G|-2---2---2----0---2---2--0------|-1---------------------------2---|-2---2---1-------7---7---7---7---|
D|----------------------------2---|-----------------------------1---|-1---1---------------------------|
A|--------------------------------|-------------0---1---2-----------|---------------------------------|
E|--------------------------------|---------------------------------|---------------------------------|


E|-7---7---7---7---7---7---7---7---|-7---7--------------|-----------------------------12--|
B|-5---5---5---5---5---5---5---5---|-8---8--------------|-------------------------12------|
G|-7---7---7---7---7---7---7---7---|-6---6--------------|---------------------14----------|
D|---------------------------------|-------------0------|-----0---0---2-------------------|
A|---------------------------------|--------------------|---------------------------------|
E|---------------------------------|--------------------|---------------------------------|


E|------12-------12----------|--------------------------|------9---9-------7-------0---|
B|-15-------15-------15------|--------------------------|--------------10------8-------|
G|-----------------------14--|-14--14-12-----12---------|------------------------------|
D|---------------------------|-----------14-------------|------------------------------|
A|---------------------------|--------------------------|------------------------------|
E|---------------------------|--------------------------|------------------------------|


E|-------------------------0---|-------------0---0---------------|-----------------------------0---|
B|------0--------------3---3---|-------------0---3-----------3---|-3---3---3---3-------------------|
G|---------2--4----4-----------|-2---0-------0---0-----------4---|-----4-------4---2---0--1----1---|
D|-----------------------------|---------2-----------------------|------------------------2----2---|
A|-----------------------------|---------------------------------|---------------------------------|
E|-----------------------------|---------------------------------|---------------------------------|


E|------------------------------|-----------------------------|-7---5-------5---5---------------|
B|----------3---3---3---3---3---|-----------------------------|-----4---7---4---4---------------|
G|------4-------4---4-------4---|-2---0-------------------4---|---------------------------------|
D|------------------------------|---------2--0--------4-------|-----------------------------2---|
A|------------------------------|---------------2-----6-------|---------------------3---4---0---|
E|------------------------------|-----------------------------|---------------------------------|


E|-----3---3---0---3---------------|----------------------12---|-12--12---12--12---12--12--|
B|-----2---2-------2---------------|---------------------------|---------------------------|
G|---------------------------------|---------------------------|---------------------------|
D|-----------------------------2---|-5---0---2--------0---12---|-12--11---11--10---10--9---|
A|---------------------3---4-------|---------------------------|-----------------------11--|
E|---------------------------------|-------------0-------------|---------------------------|


E|-----12-----------------------|------------------0----------------|------------------------------|
B|---------------------3---0----|-----------------------------------|------------------------------|
G|------------------------------|-2--3--2--1------------------------|------------------------------|
D|------------------------------|--------------2---2----------------|--------------2---------------|
A|---------0---1---2---2--------|-----------------------------------|-2---5----5-------5---2---0---|
E|------------------------------|-----------------------0---3---4---|------------------------------|


E|---------7---7---7---7---7---7---|-7---7---7---7---7---7---7---7---|-7---7---7---7---7---7---7---7---|
B|---------5---5---5---5---5---5---|-5---5---5---5---5---5---5---5---|-5---5---5---5---5---5---5---5---|
G|---------6---6---6---6---6---6---|-6---6---6---7---7---7---7---7---|-7---7---7---7---7---7---7---7---|
D|---------------------------------|---------------------------------|---------------------------------|
A|-----0---------------------------|---------------------------------|---------------------------------|
E|---------------------------------|---------------------------------|---------------------------------|


E|-----7---5----5---3----3---|-3-----------3--------2----|-2---0-------0---------------3---|
B|-5---5---4----4---3----3---|-3---1---2---2-------------|---------2-------0---1---2-------|
G|-----7---5----5---4----4---|-4-------------------------|---------------------------------|
D|---------------------------|---------------------------|---------------------------------|
A|---------------------------|------------------0---3----|-----------------------------0---|
E|---------------------------|---------------------------|---------------------------------|


E|-----3---2-------2---0-----------|--------------------------------------|---------------------------------|
B|-2-----------2-----------3---0---|----------------------3---3---3---3---|-3---3---3---3-------------------|
G|---------------------------------|-2--3--2--0-------4-----------4-------|-----4-----------2---0-----------|
D|---------------------------------|--------------2-----------------------|-------------------------2---2---|
A|-------------0-------------------|--------------------------------------|---------------------------------|
E|---------------------------------|--------------------------------------|-----------------------------0---|


E|-----0-------0---0-------0---0---|----------------------------7---|-------------------------0-------|
B|-------------3---3---3---3---3---|--------------------------------|-----10--7---10--10--7---0---12--|
G|-1-------4---4---4---4---4---4---|-2---0--------------------------|-----8-------8---8---------------|
D|---------------------------------|---------2--0-----------9-------|---------------------------------|
A|---------------------------------|--------------------9-----------|---------------------------------|
E|---------------------------------|---------------7----------------|---------------------------------|


E|-10----------9-------9---7-------|-----------------------12--|---------12----------12----------|
B|-12--12--10------10--10--8-------|-------------------12------|-12--11------11--10------10------|
G|-----------------------------9---|---------------------------|-----------------------------12--|
D|---------------------------------|-7---5---7-----------------|---------------------------------|
A|---------------------------------|-------------7-------------|---------------------------------|
E|---------------------------------|---------------------------|---------------------------------|


E|-12---------------------------|------------------12-----------12-|----------12----------15---------|
B|------------------------------|---------------12----12-15-15-----|-15--15------15--15------15--15--|
G|-----12-----------------------|----------14----------------------|---------------------------------|
D|------------------------------|----------------------------------|---------------------------------|
A|---------0---1---2---2----2---|------7---------------------------|---------------------------------|
E|------------------------------|----------------------------------|---------------------------------|


E|----15-------------------------------|---------------------------------|---------------------------------|
B|-------15--15-15-12-12--15-----------|-----------------15--15--15--15--|-15--15--15--15--15--------------|
G|----------------------------14--12---|-----------------14--14--14--14--|-14--14--14------14--12----------|
D|-------------------------------------|-----14--------------------------|-------------------------14------|
A|-------------------------------------|---------------------------------|-----------------------------14--|
E|-------------------------------------|---------------------------------|---------------------------------|


E|---------------------------------|------------------------7--6--5--------|-7--6--5----------------7------------|
B|-14--12--------------------------|---------------------5-----------8--5--|----------8--5--8---8----------------|
G|-14------13--11------------------|-----------------6---------------------|-------------------------------------|
D|-14--------------14--12----------|---------------------------------------|-------------------------------------|
A|-------------------------14--13--|-12--10--------------------------------|-------------------------------------|
E|---------------------------------|---------12--0-------------------------|-------------------------------------|


E|-------12----------12----15-15-15--12-------------12-|-------12----------------------------------------|
B|----12----12-15-15----12--------------15-12----12----|-12-15----15-12----------------------------------|
G|-14-----------------------------------------14-------|----------------14-14-12----14----12-14----------|
D|-----------------------------------------------------|-------------------------14----14-------14-------|
A|-----------------------------------------------------|-------------------------------------------------|
E|-----------------------------------------------------|-------------------------------------------------|


E|-------------------------------------|-------12----------12--------|-----------12-14-14-14-14-------12-14-|
B|-------------------------------------|----12---------12------15----|-----12-15----------------------------|
G|---------------------------------14--|-----------14----------------|--------------------------------------|
D|-----------12--14--------------------|-----------------------------|--------------------------------------|
A|-12--12-14---------13-12-------------|-----------------------------|--------------------------------------|
E|-12----------------------15--12------|-----------------------------|--------------------------------------|


E|----14----------------------12----15121512|---12----15--15--12-15-15-15-12----------12----|
B|-15----15-12----------12-15----12---------|-15--1512-----------------------15-12-15----15-|
G|-------------14---------------------------|-----------------------------------------------|
D|------------------------------------------|-----------------------------------------------|
A|------------------------------------------|-----------------------------------------------|
E|------------------------------------------|-----------------------------------------------|


E|---------12-------------------------------------10--|-10------10--10------------------|
B|-12--------1512------------------12---------12------|-----12--12--12--10--9-----------|
G|----14-14------141412--14--12-14----12--0-----------|-------------------------9---1---|
D|---------------------14--14-------------0-----------|---------------------------------|
A|----------------------------------------------------|---------------------------------|
E|----------------------------------------------------|---------------------------------|


E|-0-----------------0---------------|-------------10----10---|-----10--10--10------------|
B|-----3--0------3-------3---0---3---|-------------12----12---|-----12--12--12--------12--|
G|-----------2-----------------------|-2---1------------------|---------------------------|
D|-----------------------------------|---------2--------------|---------------------------|
A|-----------------------------------|------------------------|---------------------------|
E|-----------------------------------|------------------------|---------------------------|


E|----10----------9---------7----------|-----------------------------7---|-6---5---------------------------|
B|-------12--10------10--8------8------|---------------------------------|---------8---5-------------------|
G|----------------------------------9--|----7----------------------------|---------------------------------|
D|-------------------------------------|-------9--8--7--5----------------|-------------------------2-------|
A|-------------------------------------|---------------------------------|-----------------3---4-------0---|
E|-------------------------------------|-------------------0-------------|---------------------------------|


E|------7---6---5-----------------|-------------0---------0---|---------------------------------------|
B|------7-----------8---5---------|---------------------------|-3---------0---3--0--------------------|
G|------7-------------------7--4--|-------------------1-------|-----2--4------------4---2--0----------|
D|--------------------------------|-7---5---5-----------------|-------------------------------2-------|
A|--------------------------------|---------------------------|---------------------------------------|
E|--------------------------------|---------------------------|-----------------------------------0---|


E|---------10--7---10--10--7---10--|-7---9---7--------------------|---------------------------------|
B|-----------------9---9-------9---|-8---10--8--------7---7-------|-7---7-------7---7---------------|
G|-----9---------------------------|------------------------------|---------------------------------|
D|-0-------------------------------|------------------7---7-------|-7---7-------7---7---9---7-------|
A|---------------------------------|--------------------------9---|---------9-------------------0---|
E|---------------------------------|------------------------------|---------------------------------|


E|---------------------------------|--------------------------12--|-------------------------------------|
B|---------------------------------|------------------10--12------|-15--15--15-12-15--------------------|
G|---------------------------------|------------------------------|-------------------14--14-12-14--12--|
D|-----------------2---5---2---5---|-0---1---2--------------------|-------------------------------------|
A|-----0---3---4-------------------|------------------------------|-------------------------------------|
E|---------------------------------|------------------------------|-------------------------------------|


E|------------------------|--------------|--------|
B|---------9----9---9-----|--------------|--------|
G|---------6----7---7-----|--------------|--------|
D|---------8----9---9-----|--------------|--------|
A|------------------------|--------------|--------|
E|-----0------------------|--------------|--------|





Track 3: Bob Margolin- Gtr 3

E|--------|-------------|--------|---------------------------------|---------------------------|
B|--------|-------------|--------|---------------------------------|---------------------------|
G|--------|-------------|--------|---------------------------------|---------------------------|
D|--------|-------------|--------|-2---0---2---0---2---2---0-------|---------------------------|
A|--------|-------------|--------|-----------------------------2---|-1---0---------------------|
E|--------|-------------|--------|---------------------------------|---------3---0---0-----4---|


E|---------------------------|---------------------------|-2---2------------------|
B|---------------------------|---------------------------|-4---4------------------|
G|---------------------------|---------------------------|-2---2------------------|
D|---------------------------|---------------------------|------------------------|
A|---------0----0---1----1---|----------0---1---2---2----|------------------------|
E|-----4---------------------|------3--------------------|-----------0----0---4---|


E|------------------------------|------------------------|---------------------------------|
B|------------------------------|------------------------|---------------------------------|
G|------------------------------|------------------------|-----0---------------------------|
D|------------------0-----------|-------------------2----|-2-------0---2---0---1---2---0---|
A|---------2----2-------2-------|-0----0---4----4--------|---------------------------------|
E|-----4--------------------3---|------------------------|---------------------------------|


E|---------------------------------|------------------------|---------------------------|
B|---------------------------------|------------------------|---------------------------|
G|---------------------------------|------------------------|---------------------------|
D|-1---2---1-----------------------|------------------------|-----0----0----------------|
A|-------------2---1---0-----------|-------------------2----|-2------------0----0---3---|
E|-------------------------3---0---|-0----0---3----4--------|---------------------------|


E|---------------------------|---------------------------|------------------------------|
B|---------------------------|---------------------------|------------------------------|
G|---------0----0------------|---------------------------|------------------------------|
D|-----2------------2----2---|------------------2---5----|-5---2-------2---2----2---5---|
A|-4-------------------------|-0----0---3---4------------|---------5--------------------|
E|---------------------------|---------------------------|------------------------------|


E|-----------------------------------|------------------------------|----------------------2---2---|
B|-----3---5---5---3--2--------------|-5----5---5---3---------------|------------------------------|
G|-4---------------------4-------4---|------------------4---4---4---|-4---4---4---3---2------------|
D|---------------------------5-------|------------------------------|------------------------------|
A|-----------------------------------|------------------------------|------------------------------|
E|-----------------------------------|------------------------------|------------------------------|


E|-----2---2----2---2----1---|-0----3---3----3---3----|-3---------------------4---|
B|---------------------------|------------------------|-----5---2---5---5---------|
G|------------------2----1---|-0----------------------|---------------------------|
D|---------------------------|------------------------|---------------------------|
A|---------------------------|------------------------|---------------------------|
E|---------------------------|------------------------|---------------------------|


E|-----4---3-------3---2-------2---|-0-------------------------|-2---2-----------|
B|---------------------------------|---------------------------|-4---4-----------|
G|-4-----------3-----------2-------|---------------------------|-2---2-----------|
D|---------------------------------|---------------------------|-----------------|
A|---------------------------------|----------0---1---2---2----|-----------------|
E|---------------------------------|------3--------------------|-----------------|


E|--------|--------|--------|--------|--------|--------|--------|--------|--------|
B|--------|--------|--------|--------|--------|--------|--------|--------|--------|
G|--------|--------|--------|--------|--------|--------|--------|--------|--------|
D|--------|--------|--------|--------|--------|--------|--------|--------|--------|
A|--------|--------|--------|--------|--------|--------|--------|--------|--------|
E|--------|--------|--------|--------|--------|--------|--------|--------|--------|


E|--------|--------|--------|--------|--------|--------|--------|--------|--------|
B|--------|--------|--------|--------|--------|--------|--------|--------|--------|
G|--------|--------|--------|--------|--------|--------|--------|--------|--------|
D|--------|--------|--------|--------|--------|--------|--------|--------|--------|
A|--------|--------|--------|--------|--------|--------|--------|--------|--------|
E|--------|--------|--------|--------|--------|--------|--------|--------|--------|


E|--------|--------|--------|--------|--------|--------|--------|--------|--------|
B|--------|--------|--------|--------|--------|--------|--------|--------|--------|
G|--------|--------|--------|--------|--------|--------|--------|--------|--------|
D|--------|--------|--------|--------|--------|--------|--------|--------|--------|
A|--------|--------|--------|--------|--------|--------|--------|--------|--------|
E|--------|--------|--------|--------|--------|--------|--------|--------|--------|


E|--------|--------|--------|--------|--------|--------|--------|--------|--------|
B|--------|--------|--------|--------|--------|--------|--------|--------|--------|
G|--------|--------|--------|--------|--------|--------|--------|--------|--------|
D|--------|--------|--------|--------|--------|--------|--------|--------|--------|
A|--------|--------|--------|--------|--------|--------|--------|--------|--------|
E|--------|--------|--------|--------|--------|--------|--------|--------|--------|


E|--------|--------|--------|--------|--------|--------|--------|--------|--------|
B|--------|--------|--------|--------|--------|--------|--------|--------|--------|
G|--------|--------|--------|--------|--------|--------|--------|--------|--------|
D|--------|--------|--------|--------|--------|--------|--------|--------|--------|
A|--------|--------|--------|--------|--------|--------|--------|--------|--------|
E|--------|--------|--------|--------|--------|--------|--------|--------|--------|


E|--------|--------|--------|--------|--------|--------|--------|--------|--------------------|
B|--------|--------|--------|--------|--------|--------|--------|--------|--------------------|
G|--------|--------|--------|--------|--------|--------|--------|--------|--------------------|
D|--------|--------|--------|--------|--------|--------|--------|--------|--------------------|
A|--------|--------|--------|--------|--------|--------|--------|--------|--------------------|
E|--------|--------|--------|--------|--------|--------|--------|--------|-------0----0---4---|


E|------------------------------|------------------------|---------------------------------|
B|------------------------------|------------------------|---------------------------------|
G|------------------------------|------------------------|-----0---------------------------|
D|------------------0-----------|-------------------2----|-2-------0---2---0---1---2---0---|
A|---------2----2-------2-------|-0----0---4----4--------|---------------------------------|
E|-----4--------------------3---|------------------------|---------------------------------|


E|---------------------------------|------------------------|---------------------------|
B|---------------------------------|------------------------|---------------------------|
G|---------------------------------|------------------------|---------------------------|
D|-1---2---1-----------------------|------------------------|-----0----0----------------|
A|-------------2---1---0-----------|-------------------2----|-2------------0----0---3---|
E|-------------------------3---0---|-0----0---3----4--------|---------------------------|


E|---------------------------|---------------------------|------------------------------|
B|---------------------------|---------------------------|------------------------------|
G|---------0----0------------|---------------------------|------------------------------|
D|-----2------------2----2---|------------------2---5----|-5---2-------2---2----2---5---|
A|-4-------------------------|-0----0---3---4------------|---------5--------------------|
E|---------------------------|---------------------------|------------------------------|


E|-----------------------------------|------------------------------|----------------------2---2---|
B|-----3---5---5---3--2--------------|-5----5---5---3---------------|------------------------------|
G|-4---------------------4-------4---|------------------4---4---4---|-4---4---4---3---2------------|
D|---------------------------5-------|------------------------------|------------------------------|
A|-----------------------------------|------------------------------|------------------------------|
E|-----------------------------------|------------------------------|------------------------------|


E|-----2---2----2---2----1---|-0----3---3----3---3----|-3---------------------4---|
B|---------------------------|------------------------|-----5---2---5---5---------|
G|------------------2----1---|-0----------------------|---------------------------|
D|---------------------------|------------------------|---------------------------|
A|---------------------------|------------------------|---------------------------|
E|---------------------------|------------------------|---------------------------|


E|-----4---3-------3---2-------2---|-0-------------------------|-2---2-----------|
B|---------------------------------|---------------------------|-4---4-----------|
G|-4-----------3-----------2-------|---------------------------|-2---2-----------|
D|---------------------------------|---------------------------|-----------------|
A|---------------------------------|----------0---1---2---2----|-----------------|
E|---------------------------------|------3--------------------|-----------------|


E|--------|--------|--------|--------|--------|--------|--------|--------|--------|
B|--------|--------|--------|--------|--------|--------|--------|--------|--------|
G|--------|--------|--------|--------|--------|--------|--------|--------|--------|
D|--------|--------|--------|--------|--------|--------|--------|--------|--------|
A|--------|--------|--------|--------|--------|--------|--------|--------|--------|
E|--------|--------|--------|--------|--------|--------|--------|--------|--------|


E|--------|--------|--------|--------|--------|--------|--------|--------|--------|
B|--------|--------|--------|--------|--------|--------|--------|--------|--------|
G|--------|--------|--------|--------|--------|--------|--------|--------|--------|
D|--------|--------|--------|--------|--------|--------|--------|--------|--------|
A|--------|--------|--------|--------|--------|--------|--------|--------|--------|
E|--------|--------|--------|--------|--------|--------|--------|--------|--------|


E|--------|--------|--------|--------|--------|--------|--------|--------|--------|
B|--------|--------|--------|--------|--------|--------|--------|--------|--------|
G|--------|--------|--------|--------|--------|--------|--------|--------|--------|
D|--------|--------|--------|--------|--------|--------|--------|--------|--------|
A|--------|--------|--------|--------|--------|--------|--------|--------|--------|
E|--------|--------|--------|--------|--------|--------|--------|--------|--------|


E|--------|--------|--------|--------|--------|--------|--------|--------|--------|
B|--------|--------|--------|--------|--------|--------|--------|--------|--------|
G|--------|--------|--------|--------|--------|--------|--------|--------|--------|
D|--------|--------|--------|--------|--------|--------|--------|--------|--------|
A|--------|--------|--------|--------|--------|--------|--------|--------|--------|
E|--------|--------|--------|--------|--------|--------|--------|--------|--------|


E|--------|--------|--------|--------|--------|--------|--------|--------|--------|
B|--------|--------|--------|--------|--------|--------|--------|--------|--------|
G|--------|--------|--------|--------|--------|--------|--------|--------|--------|
D|--------|--------|--------|--------|--------|--------|--------|--------|--------|
A|--------|--------|--------|--------|--------|--------|--------|--------|--------|
E|--------|--------|--------|--------|--------|--------|--------|--------|--------|


E|--------|--------|--------|--------|--------|--------|--------|--------|--------|
B|--------|--------|--------|--------|--------|--------|--------|--------|--------|
G|--------|--------|--------|--------|--------|--------|--------|--------|--------|
D|--------|--------|--------|--------|--------|--------|--------|--------|--------|
A|--------|--------|--------|--------|--------|--------|--------|--------|--------|
E|--------|--------|--------|--------|--------|--------|--------|--------|--------|


E|--------|--------|--------|--------|--------|--------|--------|--------|--------|
B|--------|--------|--------|--------|--------|--------|--------|--------|--------|
G|--------|--------|--------|--------|--------|--------|--------|--------|--------|
D|--------|--------|--------|--------|--------|--------|--------|--------|--------|
A|--------|--------|--------|--------|--------|--------|--------|--------|--------|
E|--------|--------|--------|--------|--------|--------|--------|--------|--------|


E|--------|--------|--------|--------|--------|--------|
B|--------|--------|--------|--------|--------|--------|
G|--------|--------|--------|--------|--------|--------|
D|--------|--------|--------|--------|--------|--------|
A|--------|--------|--------|--------|--------|--------|
E|--------|--------|--------|--------|--------|--------|





Track 4: Untitled

G|--------|--------|--------|--------|--------|--------|--------|--------|--------|
D|--------|--------|--------|--------|--------|--------|--------|--------|--------|
A|--------|--------|--------|--------|--------|--------|--------|--------|--------|
E|--------|--------|--------|--------|--------|--------|--------|--------|--------|


G|--------|--------|--------|--------|--------|--------|--------|--------|--------|
D|--------|--------|--------|--------|--------|--------|--------|--------|--------|
A|--------|--------|--------|--------|--------|--------|--------|--------|--------|
E|--------|--------|--------|--------|--------|--------|--------|--------|--------|


G|--------|--------|--------|--------|--------|--------|--------|--------|--------|
D|--------|--------|--------|--------|--------|--------|--------|--------|--------|
A|--------|--------|--------|--------|--------|--------|--------|--------|--------|
E|--------|--------|--------|--------|--------|--------|--------|--------|--------|


G|--------|--------|--------|--------|--------|--------|--------|--------|--------|
D|--------|--------|--------|--------|--------|--------|--------|--------|--------|
A|--------|--------|--------|--------|--------|--------|--------|--------|--------|
E|--------|--------|--------|--------|--------|--------|--------|--------|--------|


G|--------|--------|--------|--------|--------|--------|--------|--------|--------|
D|--------|--------|--------|--------|--------|--------|--------|--------|--------|
A|--------|--------|--------|--------|--------|--------|--------|--------|--------|
E|--------|--------|--------|--------|--------|--------|--------|--------|--------|


G|--------|--------|--------|--------|--------|--------|--------|--------|--------|
D|--------|--------|--------|--------|--------|--------|--------|--------|--------|
A|--------|--------|--------|--------|--------|--------|--------|--------|--------|
E|--------|--------|--------|--------|--------|--------|--------|--------|--------|


G|--------|--------|--------|--------|--------|--------|--------|--------|--------|
D|--------|--------|--------|--------|--------|--------|--------|--------|--------|
A|--------|--------|--------|--------|--------|--------|--------|--------|--------|
E|--------|--------|--------|--------|--------|--------|--------|--------|--------|


G|--------|--------|--------|--------|--------|--------|--------|--------|--------|
D|--------|--------|--------|--------|--------|--------|--------|--------|--------|
A|--------|--------|--------|--------|--------|--------|--------|--------|--------|
E|--------|--------|--------|--------|--------|--------|--------|--------|--------|


G|--------|--------|--------|--------|--------|--------|--------|--------|--------|
D|--------|--------|--------|--------|--------|--------|--------|--------|--------|
A|--------|--------|--------|--------|--------|--------|--------|--------|--------|
E|--------|--------|--------|--------|--------|--------|--------|--------|--------|


G|--------|--------|--------|--------|--------|--------|--------|--------|--------|
D|--------|--------|--------|--------|--------|--------|--------|--------|--------|
A|--------|--------|--------|--------|--------|--------|--------|--------|--------|
E|--------|--------|--------|--------|--------|--------|--------|--------|--------|


G|--------|--------|--------|--------|--------|--------|--------|--------|--------|
D|--------|--------|--------|--------|--------|--------|--------|--------|--------|
A|--------|--------|--------|--------|--------|--------|--------|--------|--------|
E|--------|--------|--------|--------|--------|--------|--------|--------|--------|


G|--------|--------|--------|--------|--------|--------|--------|--------|--------|
D|--------|--------|--------|--------|--------|--------|--------|--------|--------|
A|--------|--------|--------|--------|--------|--------|--------|--------|--------|
E|--------|--------|--------|--------|--------|--------|--------|--------|--------|


G|--------|--------|--------|--------|--------|--------|--------|--------|--------|
D|--------|--------|--------|--------|--------|--------|--------|--------|--------|
A|--------|--------|--------|--------|--------|--------|--------|--------|--------|
E|--------|--------|--------|--------|--------|--------|--------|--------|--------|


G|--------|--------|--------|--------|--------|--------|--------|--------|--------|
D|--------|--------|--------|--------|--------|--------|--------|--------|--------|
A|--------|--------|--------|--------|--------|--------|--------|--------|--------|
E|--------|--------|--------|--------|--------|--------|--------|--------|--------|


G|--------|--------|--------|--------|--------|--------|--------|--------|--------|
D|--------|--------|--------|--------|--------|--------|--------|--------|--------|
A|--------|--------|--------|--------|--------|--------|--------|--------|--------|
E|--------|--------|--------|--------|--------|--------|--------|--------|--------|


G|--------|--------|--------|--------|--------|--------|--------|--------|--------|
D|--------|--------|--------|--------|--------|--------|--------|--------|--------|
A|--------|--------|--------|--------|--------|--------|--------|--------|--------|
E|--------|--------|--------|--------|--------|--------|--------|--------|--------|


G|--------|--------|--------|--------|--------|--------|--------|--------|--------|
D|--------|--------|--------|--------|--------|--------|--------|--------|--------|
A|--------|--------|--------|--------|--------|--------|--------|--------|--------|
E|--------|--------|--------|--------|--------|--------|--------|--------|--------|


G|--------|--------|--------|--------|--------|--------|--------|--------|--------|
D|--------|--------|--------|--------|--------|--------|--------|--------|--------|
A|--------|--------|--------|--------|--------|--------|--------|--------|--------|
E|--------|--------|--------|--------|--------|--------|--------|--------|--------|


G|--------|--------|--------|--------|--------|
D|--------|--------|--------|--------|--------|
A|--------|--------|--------|--------|--------|
E|--------|--------|--------|--------|--------|