Menu:

 

Search:

 

mike oldfield - tubular bells pt 1 part 2 of 4:

 



Title: Tubular Bells, pt1
Artist: 
Album: Tubular Bells
Author: Mike Oldfield


Track 1: piano

E|-17--21--24--15--19--22--17--21--24--15--19--22--|-17--21--24--15--19--22--17--21--24--15--19--22--|
B|-------------------------------------------------|-------------------------------------------------|
G|-------------------------------------------------|-------------------------------------------------|
D|-------------------------------------------------|-------------------------------------------------|
A|-------------------------------------------------|-------------------------------------------------|
E|-------------------------------------------------|-------------------------------------------------|


E|-17--21--24--15--19--22--17--21--24--15--19--22--|-17--21--24--15--19--22--17--21--24--15--19--22--|
B|-------------------------------------------------|-------------------------------------------------|
G|-------------------------------------------------|-------------------------------------------------|
D|-------------------------------------------------|-------------------------------------------------|
A|-------------------------------------------------|-------------------------------------------------|
E|-------------------------------------------------|-------------------------------------------------|


E|-17--21--24--15--19--22--17--21--24--15--19--22--|-17--21--24--15--19--22--17--21--24--15--19--22--|
B|-------------------------------------------------|-------------------------------------------------|
G|-------------------------------------------------|-------------------------------------------------|
D|-------------------------------------------------|-------------------------------------------------|
A|-------------------------------------------------|-------------------------------------------------|
E|-------------------------------------------------|-------------------------------------------------|


E|-17--21--24--15--19--22--17--21--24--15--19--22--|-17--21--24--15--19--22--17--21--24--15--19--22--|
B|-------------------------------------------------|-------------------------------------------------|
G|-------------------------------------------------|-------------------------------------------------|
D|-------------------------------------------------|-------------------------------------------------|
A|-------------------------------------------------|-------------------------------------------------|
E|-------------------------------------------------|-------------------------------------------------|


E|--------|--------|--------|--------|--------|--------|--------|--------|--------|
B|--------|--------|--------|--------|--------|--------|--------|--------|--------|
G|--------|--------|--------|--------|--------|--------|--------|--------|--------|
D|--------|--------|--------|--------|--------|--------|--------|--------|--------|
A|--------|--------|--------|--------|--------|--------|--------|--------|--------|
E|--------|--------|--------|--------|--------|--------|--------|--------|--------|


E|--------|--------|--------|--------|--------|--------|--------|--------|--------|
B|--------|--------|--------|--------|--------|--------|--------|--------|--------|
G|--------|--------|--------|--------|--------|--------|--------|--------|--------|
D|--------|--------|--------|--------|--------|--------|--------|--------|--------|
A|--------|--------|--------|--------|--------|--------|--------|--------|--------|
E|--------|--------|--------|--------|--------|--------|--------|--------|--------|


E|--------|--------|--------|--------|--------|--------|--------|--------|--------|
B|--------|--------|--------|--------|--------|--------|--------|--------|--------|
G|--------|--------|--------|--------|--------|--------|--------|--------|--------|
D|--------|--------|--------|--------|--------|--------|--------|--------|--------|
A|--------|--------|--------|--------|--------|--------|--------|--------|--------|
E|--------|--------|--------|--------|--------|--------|--------|--------|--------|


E|--------|--------|--------|--------|--------|--------|--------|--------|--------|
B|--------|--------|--------|--------|--------|--------|--------|--------|--------|
G|--------|--------|--------|--------|--------|--------|--------|--------|--------|
D|--------|--------|--------|--------|--------|--------|--------|--------|--------|
A|--------|--------|--------|--------|--------|--------|--------|--------|--------|
E|--------|--------|--------|--------|--------|--------|--------|--------|--------|


E|--------|--------|--------|--------|--------|--------|--------|--------|--------|
B|--------|--------|--------|--------|--------|--------|--------|--------|--------|
G|--------|--------|--------|--------|--------|--------|--------|--------|--------|
D|--------|--------|--------|--------|--------|--------|--------|--------|--------|
A|--------|--------|--------|--------|--------|--------|--------|--------|--------|
E|--------|--------|--------|--------|--------|--------|--------|--------|--------|


E|--------|--------|--------|--------|--------|--------|--------|--------|--------|
B|--------|--------|--------|--------|--------|--------|--------|--------|--------|
G|--------|--------|--------|--------|--------|--------|--------|--------|--------|
D|--------|--------|--------|--------|--------|--------|--------|--------|--------|
A|--------|--------|--------|--------|--------|--------|--------|--------|--------|
E|--------|--------|--------|--------|--------|--------|--------|--------|--------|


E|--------|--------|--------|--------|--------|--------|--------|--------|--------|
B|--------|--------|--------|--------|--------|--------|--------|--------|--------|
G|--------|--------|--------|--------|--------|--------|--------|--------|--------|
D|--------|--------|--------|--------|--------|--------|--------|--------|--------|
A|--------|--------|--------|--------|--------|--------|--------|--------|--------|
E|--------|--------|--------|--------|--------|--------|--------|--------|--------|


E|--------|--------|--------|--------|--------|--------|--------|--------|--------|
B|--------|--------|--------|--------|--------|--------|--------|--------|--------|
G|--------|--------|--------|--------|--------|--------|--------|--------|--------|
D|--------|--------|--------|--------|--------|--------|--------|--------|--------|
A|--------|--------|--------|--------|--------|--------|--------|--------|--------|
E|--------|--------|--------|--------|--------|--------|--------|--------|--------|


E|--------|--------|--------|--------|--------|--------|--------|--------|--------|
B|--------|--------|--------|--------|--------|--------|--------|--------|--------|
G|--------|--------|--------|--------|--------|--------|--------|--------|--------|
D|--------|--------|--------|--------|--------|--------|--------|--------|--------|
A|--------|--------|--------|--------|--------|--------|--------|--------|--------|
E|--------|--------|--------|--------|--------|--------|--------|--------|--------|


E|--------|--------|--------|--------|--------|--------|--------|--------|--------|
B|--------|--------|--------|--------|--------|--------|--------|--------|--------|
G|--------|--------|--------|--------|--------|--------|--------|--------|--------|
D|--------|--------|--------|--------|--------|--------|--------|--------|--------|
A|--------|--------|--------|--------|--------|--------|--------|--------|--------|
E|--------|--------|--------|--------|--------|--------|--------|--------|--------|


E|--------|--------|--------|--------|--------|--------|--------|--------|--------|
B|--------|--------|--------|--------|--------|--------|--------|--------|--------|
G|--------|--------|--------|--------|--------|--------|--------|--------|--------|
D|--------|--------|--------|--------|--------|--------|--------|--------|--------|
A|--------|--------|--------|--------|--------|--------|--------|--------|--------|
E|--------|--------|--------|--------|--------|--------|--------|--------|--------|


E|--------|--------|--------|--------|--------|--------|--------|--------|--------|
B|--------|--------|--------|--------|--------|--------|--------|--------|--------|
G|--------|--------|--------|--------|--------|--------|--------|--------|--------|
D|--------|--------|--------|--------|--------|--------|--------|--------|--------|
A|--------|--------|--------|--------|--------|--------|--------|--------|--------|
E|--------|--------|--------|--------|--------|--------|--------|--------|--------|


E|--------|--------|--------|--------|--------|--------|--------|--------|--------|
B|--------|--------|--------|--------|--------|--------|--------|--------|--------|
G|--------|--------|--------|--------|--------|--------|--------|--------|--------|
D|--------|--------|--------|--------|--------|--------|--------|--------|--------|
A|--------|--------|--------|--------|--------|--------|--------|--------|--------|
E|--------|--------|--------|--------|--------|--------|--------|--------|--------|


E|--------|--------|--------|--------|--------|--------|--------|--------|--------|
B|--------|--------|--------|--------|--------|--------|--------|--------|--------|
G|--------|--------|--------|--------|--------|--------|--------|--------|--------|
D|--------|--------|--------|--------|--------|--------|--------|--------|--------|
A|--------|--------|--------|--------|--------|--------|--------|--------|--------|
E|--------|--------|--------|--------|--------|--------|--------|--------|--------|


E|--------|--------|--------|--------|---------------14------|-----14----------14----------14--|
B|--------|--------|--------|--------|-----------14----------|-14----------14----------14------|
G|--------|--------|--------|--------|-------16----------16--|---------16----------16----------|
D|--------|--------|--------|--------|-----------------------|---------------------------------|
A|--------|--------|--------|--------|-----------------------|---------------------------------|
E|--------|--------|--------|--------|-----------------------|---------------------------------|


E|---------14--------------16------|-----16----------16----------16--|---------16--------------13------|
B|-----14--------------14----------|-14----------14----------14------|-----14--------------14----------|
G|-16----------16--16----------16--|---------16----------16----------|-16----------16--16----------16--|
D|---------------------------------|---------------------------------|---------------------------------|
A|---------------------------------|---------------------------------|---------------------------------|
E|---------------------------------|---------------------------------|---------------------------------|


E|-----13----------13----------13--|---------13--------------13------|-----13----------13----------13--|
B|-14----------14----------14------|-----14--------------14----------|-14----------14----------14------|
G|---------16----------16----------|-16----------16--15----------15--|---------15----------15----------|
D|---------------------------------|---------------------------------|---------------------------------|
A|---------------------------------|---------------------------------|---------------------------------|
E|---------------------------------|---------------------------------|---------------------------------|


E|---------13--------------14------|-----14----------14----------14--|---------14--------------16------|
B|-----14--------------14----------|-14----------14----------14------|-----14--------------14----------|
G|-15----------15--16----------16--|---------16----------16----------|-16----------16--16----------16--|
D|---------------------------------|---------------------------------|---------------------------------|
A|---------------------------------|---------------------------------|---------------------------------|
E|---------------------------------|---------------------------------|---------------------------------|


E|-----16----------16----------16--|---------16--------------13------|-----13----------13----------13--|
B|-14----------14----------14------|-----14--------------14----------|-14----------14----------14------|
G|---------16----------16----------|-16----------16--16----------16--|---------16----------16----------|
D|---------------------------------|---------------------------------|---------------------------------|
A|---------------------------------|---------------------------------|---------------------------------|
E|---------------------------------|---------------------------------|---------------------------------|


E|---------13--------------13------|-----13----------13----------13--|---------13----------17------19--|
B|-----14--------------14----------|-14----------14----------14------|-----14----------17------17------|
G|-16----------16--15----------15--|---------15----------15----------|-15----------15------------------|
D|---------------------------------|---------------------------------|---------------------------------|
A|---------------------------------|---------------------------------|---------------------------------|
E|---------------------------------|---------------------------------|---------------------------------|


E|-----15--17------20------22------|-19--20------17------19------15--|-17------20------22------19--20--|
B|-17----------17------17------17--|---------17------17------17------|-----17------17------17----------|
G|---------------------------------|---------------------------------|---------------------------------|
D|---------------------------------|---------------------------------|---------------------------------|
A|---------------------------------|---------------------------------|---------------------------------|
E|---------------------------------|---------------------------------|---------------------------------|


E|-----19--22------19--20------19--|-----17------19------15--17------|-20------22------19--20------17--|
B|-17----------17----------17------|-17------17------17----------17--|-----17------17----------17------|
G|---------------------------------|---------------------------------|---------------------------------|
D|---------------------------------|---------------------------------|---------------------------------|
A|---------------------------------|---------------------------------|---------------------------------|
E|---------------------------------|---------------------------------|---------------------------------|


E|-----19------15--17------20------|-22------19--20------19--22------|-19--20------19------17------19--|
B|-17------17----------17------17--|-----17----------17----------17--|---------17------17------17------|
G|---------------------------------|---------------------------------|---------------------------------|
D|---------------------------------|---------------------------------|---------------------------------|
A|---------------------------------|---------------------------------|---------------------------------|
E|---------------------------------|---------------------------------|---------------------------------|


E|-----15--17------20------22------|-19--20------17------19------15--|-17------20------22------19--20--|
B|-17----------17------17------17--|---------17------17------17------|-----17------17------17----------|
G|---------------------------------|---------------------------------|---------------------------------|
D|---------------------------------|---------------------------------|---------------------------------|
A|---------------------------------|---------------------------------|---------------------------------|
E|---------------------------------|---------------------------------|---------------------------------|


E|-----19--22------19--20------19--|-----17------19------15--17------|-20------22------19--20------17--|
B|-17----------17----------17------|-17------17------17----------17--|-----17------17----------17------|
G|---------------------------------|---------------------------------|---------------------------------|
D|---------------------------------|---------------------------------|---------------------------------|
A|---------------------------------|---------------------------------|---------------------------------|
E|---------------------------------|---------------------------------|---------------------------------|


E|-----------------|---------------------|---------------------|---------------------|
B|-----------------|---------------------|---------------------|---------------------|
G|-5-----5---------|-5---------5---------|-4---------4---------|-4---------4---------|
D|-7-----7---------|-7---------7---------|-5---------5---------|-5---------5---------|
A|-7----------7----|------7---------7----|------7---------7----|------7---------7----|
E|-5---------------|---------------------|---------------------|---------------------|


E|---------------------|---------------------|---------------------|---------------------|
B|---------------------|---------------------|---------------------|---------------------|
G|-2---------2---------|-2---------2---------|-4---------4---------|-4---------4---------|
D|-3---------3---------|-3---------3---------|-5---------5---------|-5---------5---------|
A|------3---------3----|------3---------3----|------5---------5----|------5---------5----|
E|---------------------|---------------------|---------------------|---------------------|


E|---------------------|---------------------|-----------------|-----------------|
B|---------------------|---------------------|-----------------|-----------------|
G|-2---------2---------|-2---------2---------|-4-----4----4----|-4----4-----4----|
D|-3---------3---------|-3---------3---------|-5-----5----5----|-5----5-----5----|
A|------3---------3----|------3---------3----|-7-----7----7----|-7----7-----7----|
E|---------------------|---------------------|-----------------|-----------------|


E|-------------|-------------|-----------------|-----------------|-------------|-------------|
B|-------------|-------------|-----------------|-----------------|-------------|-------------|
G|-5-----5-----|-5-----5-----|-4-----4----4----|-4----4-----4----|-9-----9-----|-9-----9-----|
D|-7-----7-----|-7-----7-----|-5-----5----5----|-5----5-----5----|-10----10----|-10----10----|
A|-8-----8-----|-8-----8-----|-7-----7----7----|-7----7-----7----|-12----12----|-12----12----|
E|-------------|-------------|-----------------|-----------------|-------------|-------------|


E|-------------|-------------|-------------|-------------|-------------|-------------|
B|-------------|-------------|-------------|-------------|-------------|-------------|
G|-4-----4-----|-4-----4-----|-5-----5-----|-5-----5-----|-4-----4-----|-4-----4-----|
D|-5-----5-----|-5-----5-----|-7-----7-----|-7-----7-----|-5-----5-----|-5-----5-----|
A|-7-----7-----|-7-----7-----|-8-----8-----|-8-----8-----|-7-----7-----|-7-----7-----|
E|-------------|-------------|-------------|-------------|-------------|-------------|


E|-------------|-------------|-------------|-------------|-------------|-------------|
B|-------------|-------------|-------------|-------------|-------------|-------------|
G|-5-----5-----|-5-----5-----|-4-----4-----|-4-----4-----|-5-----5-----|-5-----5-----|
D|-7-----7-----|-7-----7-----|-5-----5-----|-5-----5-----|-7-----7-----|-7-----7-----|
A|-8-----8-----|-8-----8-----|-7-----7-----|-7-----7-----|-8-----8-----|-8-----8-----|
E|-------------|-------------|-------------|-------------|-------------|-------------|


E|-------------|-------------|-------------|-------------|-------------|-------------|
B|-------------|-------------|-------------|-------------|-------------|-------------|
G|-4-----4-----|-4-----4-----|-5-----5-----|-5-----5-----|-4-----4-----|-4-----4-----|
D|-5-----5-----|-5-----5-----|-7-----7-----|-7-----7-----|-5-----5-----|-5-----5-----|
A|-7-----7-----|-7-----7-----|-8-----8-----|-8-----8-----|-7-----7-----|-7-----7-----|
E|-------------|-------------|-------------|-------------|-------------|-------------|


E|-------------|-------------|-------------|-------------|--------|--------|--------|
B|-------------|-------------|-------------|-------------|--------|--------|--------|
G|-5-----5-----|-5-----5-----|-4-----4-----|-4-----4-----|--------|--------|--------|
D|-7-----7-----|-7-----7-----|-5-----5-----|-5-----5-----|--------|--------|--------|
A|-8-----8-----|-8-----8-----|-7-----7-----|-7-----7-----|--------|--------|--------|
E|-------------|-------------|-------------|-------------|--------|--------|--------|


E|--------|--------|--------|--------|--------|
B|--------|--------|--------|--------|--------|
G|--------|--------|--------|--------|--------|
D|--------|--------|--------|--------|--------|
A|--------|--------|--------|--------|--------|
E|--------|--------|--------|--------|--------|





Track 2: distorted guitars

E|--------|--------|--------|--------|--------|--------|--------|--------|-------------------------------|
B|--------|--------|--------|--------|--------|--------|--------|--------|-------------------------------|
G|--------|--------|--------|--------|--------|--------|--------|--------|-------------------------------|
D|--------|--------|--------|--------|--------|--------|--------|--------|-------14--12--10--12--10------|
A|--------|--------|--------|--------|--------|--------|--------|--------|---------------------------14--|
E|--------|--------|--------|--------|--------|--------|--------|--------|-------------------------------|


E|------------------------|-------------------------------|-----------------------------|
B|------------------------|-------------------------------|-----------------------------|
G|------------------------|-------------------------------|-----14---13-14-13-----------|
D|----------10---12--14---|-------12--10--12--14--12--10--|-14-----------------14-------|
A|-12--14-----------------|-------------------------------|-----------------------------|
E|------------------------|-------------------------------|-----------------------------|


E|-------------------------------------------------|-------------------------------------------------|
B|-------------------------------------------------|-------------------------------------------------|
G|-------------------------------------------------|-------------------------------------------------|
D|-13-12-11-10-13-12-11-10-13-12-11-10-13-12-11-10-|-11-12-11-12-11-12-11-12-11-12-11-12-11-12-11-12-|
A|-------------------------------------------------|-------------------------------------------------|
E|-------------------------------------------------|-------------------------------------------------|


E|----------------------------------|-------------|-------------------------------|
B|----------------------------------|-------------|-------------------------------|
G|------------------------------14--|-14----14----|-------------------------------|
D|-13---------------12--13--14------|-------------|-------14--12--10--12--10------|
A|------14--15--16------------------|-------------|---------------------------14--|
E|----------------------------------|-------------|-------------------------------|


E|------------------------|-------------------------------|-----------------------------|
B|------------------------|-------------------------------|-----------------------------|
G|------------------------|-------------------------------|-----14---13-14-13-----------|
D|----------10---12--14---|-------12--10--12--14--12--10--|-14-----------------14-------|
A|-12--14-----------------|-------------------------------|-----------------------------|
E|------------------------|-------------------------------|-----------------------------|


E|-------------------------------------------------|-------------------------------------------------|
B|-------------------------------------------------|-------------------------------------------------|
G|-------------------------------------------------|-------------------------------------------------|
D|-13-12-11-10-13-12-11-10-13-12-11-10-13-12-11-10-|-11-12-11-12-11-12-11-12-11-12-11-12-11-12-11-12-|
A|-------------------------------------------------|-------------------------------------------------|
E|-------------------------------------------------|-------------------------------------------------|


E|----------------------------------|-------------|------------------------|---------------------------|
B|----------------------------------|-------------|------------------------|--------------14--12-------|
G|------------------------------14--|-14----14----|------------------------|---------------------------|
D|-13---------------12--13--14------|-------------|------------------------|-----9----11----------11---|
A|------14--15--16------------------|-------------|---------------9----11--|-11------------------------|
E|----------------------------------|-------------|-9---11---12------------|---------------------------|


E|------------------------|--------------------------------------|-------15------------|
B|------------------------|-----13---15--18--17--15--18--17--15--|-16---------16--16---|
G|---------------12---14--|-14-----------------------------------|---------------------|
D|-12--14---15------------|--------------------------------------|---------------------|
A|------------------------|--------------------------------------|---------------------|
E|------------------------|--------------------------------------|---------------------|


E|-------14------------|-15---------------14--15--16--21--|-21----21--------|------------------------|
B|-15---------15--15---|------16--17--18------------------|-----------------|------------------------|
G|---------------------|----------------------------------|-----------------|------------------------|
D|---------------------|----------------------------------|-----------------|------------------------|
A|---------------------|----------------------------------|-----------------|---------------9----11--|
E|---------------------|----------------------------------|-----------------|-9---11---12------------|


E|---------------------------|------------------------|--------------------------------------|
B|--------------14--12-------|------------------------|-----13---15--18--17--15--18--17--15--|
G|---------------------------|---------------12---14--|-14-----------------------------------|
D|-----9----11----------11---|-12--14---15------------|--------------------------------------|
A|-11------------------------|------------------------|--------------------------------------|
E|---------------------------|------------------------|--------------------------------------|


E|-------15------------|-------14------------|-15---------------14--15--16--21--|-21----21--------|
B|-16---------16--16---|-15---------15--15---|------16--17--18------------------|-----------------|
G|---------------------|---------------------|----------------------------------|-----------------|
D|---------------------|---------------------|----------------------------------|-----------------|
A|---------------------|---------------------|----------------------------------|-----------------|
E|---------------------|---------------------|----------------------------------|-----------------|


E|--------|--------|--------|--------|--------|--------|--------|--------|--------|
B|--------|--------|--------|--------|--------|--------|--------|--------|--------|
G|--------|--------|--------|--------|--------|--------|--------|--------|--------|
D|--------|--------|--------|--------|--------|--------|--------|--------|--------|
A|--------|--------|--------|--------|--------|--------|--------|--------|--------|
E|--------|--------|--------|--------|--------|--------|--------|--------|--------|


E|--------|--------|--------|--------|--------|--------|--------|--------|--------|
B|--------|--------|--------|--------|--------|--------|--------|--------|--------|
G|--------|--------|--------|--------|--------|--------|--------|--------|--------|
D|--------|--------|--------|--------|--------|--------|--------|--------|--------|
A|--------|--------|--------|--------|--------|--------|--------|--------|--------|
E|--------|--------|--------|--------|--------|--------|--------|--------|--------|


E|--------|--------|--------|--------|--------|--------|--------|--------|--------|
B|--------|--------|--------|--------|--------|--------|--------|--------|--------|
G|--------|--------|--------|--------|--------|--------|--------|--------|--------|
D|--------|--------|--------|--------|--------|--------|--------|--------|--------|
A|--------|--------|--------|--------|--------|--------|--------|--------|--------|
E|--------|--------|--------|--------|--------|--------|--------|--------|--------|


E|--------|--------|--------|--------|--------|--------|--------|--------|--------|
B|--------|--------|--------|--------|--------|--------|--------|--------|--------|
G|--------|--------|--------|--------|--------|--------|--------|--------|--------|
D|--------|--------|--------|--------|--------|--------|--------|--------|--------|
A|--------|--------|--------|--------|--------|--------|--------|--------|--------|
E|--------|--------|--------|--------|--------|--------|--------|--------|--------|


E|--------|--------|--------|--------|--------|--------|--------|--------|--------|
B|--------|--------|--------|--------|--------|--------|--------|--------|--------|
G|--------|--------|--------|--------|--------|--------|--------|--------|--------|
D|--------|--------|--------|--------|--------|--------|--------|--------|--------|
A|--------|--------|--------|--------|--------|--------|--------|--------|--------|
E|--------|--------|--------|--------|--------|--------|--------|--------|--------|


E|--------|--------|--------|--------|--------|--------|--------|--------|--------|
B|--------|--------|--------|--------|--------|--------|--------|--------|--------|
G|--------|--------|--------|--------|--------|--------|--------|--------|--------|
D|--------|--------|--------|--------|--------|--------|--------|--------|--------|
A|--------|--------|--------|--------|--------|--------|--------|--------|--------|
E|--------|--------|--------|--------|--------|--------|--------|--------|--------|


E|--------|--------|--------|--------|--------|--------|--------|--------|--------|
B|--------|--------|--------|--------|--------|--------|--------|--------|--------|
G|--------|--------|--------|--------|--------|--------|--------|--------|--------|
D|--------|--------|--------|--------|--------|--------|--------|--------|--------|
A|--------|--------|--------|--------|--------|--------|--------|--------|--------|
E|--------|--------|--------|--------|--------|--------|--------|--------|--------|


E|--------|--------|--------|--------|--------|--------|--------|--------|--------|
B|--------|--------|--------|--------|--------|--------|--------|--------|--------|
G|--------|--------|--------|--------|--------|--------|--------|--------|--------|
D|--------|--------|--------|--------|--------|--------|--------|--------|--------|
A|--------|--------|--------|--------|--------|--------|--------|--------|--------|
E|--------|--------|--------|--------|--------|--------|--------|--------|--------|


E|--------|--------|--------|--------|--------|--------|--------|--------|--------|
B|--------|--------|--------|--------|--------|--------|--------|--------|--------|
G|--------|--------|--------|--------|--------|--------|--------|--------|--------|
D|--------|--------|--------|--------|--------|--------|--------|--------|--------|
A|--------|--------|--------|--------|--------|--------|--------|--------|--------|
E|--------|--------|--------|--------|--------|--------|--------|--------|--------|


E|--------|--------|--------|--------|--------|--------|--------|--------|--------|
B|--------|--------|--------|--------|--------|--------|--------|--------|--------|
G|--------|--------|--------|--------|--------|--------|--------|--------|--------|
D|--------|--------|--------|--------|--------|--------|--------|--------|--------|
A|--------|--------|--------|--------|--------|--------|--------|--------|--------|
E|--------|--------|--------|--------|--------|--------|--------|--------|--------|


E|--------|--------|--------|--------|--------|--------|--------|--------|--------|
B|--------|--------|--------|--------|--------|--------|--------|--------|--------|
G|--------|--------|--------|--------|--------|--------|--------|--------|--------|
D|--------|--------|--------|--------|--------|--------|--------|--------|--------|
A|--------|--------|--------|--------|--------|--------|--------|--------|--------|
E|--------|--------|--------|--------|--------|--------|--------|--------|--------|


E|--------|--------|--------|--------|--------|--------|--------|--------|--------|
B|--------|--------|--------|--------|--------|--------|--------|--------|--------|
G|--------|--------|--------|--------|--------|--------|--------|--------|--------|
D|--------|--------|--------|--------|--------|--------|--------|--------|--------|
A|--------|--------|--------|--------|--------|--------|--------|--------|--------|
E|--------|--------|--------|--------|--------|--------|--------|--------|--------|


E|--------|--------|--------|--------|--------|--------|--------|--------|--------|
B|--------|--------|--------|--------|--------|--------|--------|--------|--------|
G|--------|--------|--------|--------|--------|--------|--------|--------|--------|
D|--------|--------|--------|--------|--------|--------|--------|--------|--------|
A|--------|--------|--------|--------|--------|--------|--------|--------|--------|
E|--------|--------|--------|--------|--------|--------|--------|--------|--------|


E|--------|--------|--------|--------|--------|--------|--------|--------|--------|
B|--------|--------|--------|--------|--------|--------|--------|--------|--------|
G|--------|--------|--------|--------|--------|--------|--------|--------|--------|
D|--------|--------|--------|--------|--------|--------|--------|--------|--------|
A|--------|--------|--------|--------|--------|--------|--------|--------|--------|
E|--------|--------|--------|--------|--------|--------|--------|--------|--------|


E|--------|--------|--------|--------|--------|--------|--------|--------|--------|
B|--------|--------|--------|--------|--------|--------|--------|--------|--------|
G|--------|--------|--------|--------|--------|--------|--------|--------|--------|
D|--------|--------|--------|--------|--------|--------|--------|--------|--------|
A|--------|--------|--------|--------|--------|--------|--------|--------|--------|
E|--------|--------|--------|--------|--------|--------|--------|--------|--------|


E|--------|--------|--------|--------|--------|--------|--------|--------|--------|
B|--------|--------|--------|--------|--------|--------|--------|--------|--------|
G|--------|--------|--------|--------|--------|--------|--------|--------|--------|
D|--------|--------|--------|--------|--------|--------|--------|--------|--------|
A|--------|--------|--------|--------|--------|--------|--------|--------|--------|
E|--------|--------|--------|--------|--------|--------|--------|--------|--------|


E|--------|--------|--------|--------|--------|--------|--------|--------|--------|
B|--------|--------|--------|--------|--------|--------|--------|--------|--------|
G|--------|--------|--------|--------|--------|--------|--------|--------|--------|
D|--------|--------|--------|--------|--------|--------|--------|--------|--------|
A|--------|--------|--------|--------|--------|--------|--------|--------|--------|
E|--------|--------|--------|--------|--------|--------|--------|--------|--------|


E|--------|--------|--------|--------|--------|--------|--------|--------|--------|
B|--------|--------|--------|--------|--------|--------|--------|--------|--------|
G|--------|--------|--------|--------|--------|--------|--------|--------|--------|
D|--------|--------|--------|--------|--------|--------|--------|--------|--------|
A|--------|--------|--------|--------|--------|--------|--------|--------|--------|
E|--------|--------|--------|--------|--------|--------|--------|--------|--------|


E|--------|--------|--------|--------|--------|--------|--------|--------|--------|
B|--------|--------|--------|--------|--------|--------|--------|--------|--------|
G|--------|--------|--------|--------|--------|--------|--------|--------|--------|
D|--------|--------|--------|--------|--------|--------|--------|--------|--------|
A|--------|--------|--------|--------|--------|--------|--------|--------|--------|
E|--------|--------|--------|--------|--------|--------|--------|--------|--------|


E|--------|--------|--------|--------|--------|--------|--------|
B|--------|--------|--------|--------|--------|--------|--------|
G|--------|--------|--------|--------|--------|--------|--------|
D|--------|--------|--------|--------|--------|--------|--------|
A|--------|--------|--------|--------|--------|--------|--------|
E|--------|--------|--------|--------|--------|--------|--------|





Track 3: acoustic  / mandolin

E|--------|--------|--------|--------|--------|--------|--------|--------|--------|
B|--------|--------|--------|--------|--------|--------|--------|--------|--------|
G|--------|--------|--------|--------|--------|--------|--------|--------|--------|
D|--------|--------|--------|--------|--------|--------|--------|--------|--------|
A|--------|--------|--------|--------|--------|--------|--------|--------|--------|
E|--------|--------|--------|--------|--------|--------|--------|--------|--------|


E|--------|--------|--------|--------|--------|--------|--------|--------|--------|
B|--------|--------|--------|--------|--------|--------|--------|--------|--------|
G|--------|--------|--------|--------|--------|--------|--------|--------|--------|
D|--------|--------|--------|--------|--------|--------|--------|--------|--------|
A|--------|--------|--------|--------|--------|--------|--------|--------|--------|
E|--------|--------|--------|--------|--------|--------|--------|--------|--------|


E|--------|--------|--------|--------|--------|--------|--------|--------|--------|
B|--------|--------|--------|--------|--------|--------|--------|--------|--------|
G|--------|--------|--------|--------|--------|--------|--------|--------|--------|
D|--------|--------|--------|--------|--------|--------|--------|--------|--------|
A|--------|--------|--------|--------|--------|--------|--------|--------|--------|
E|--------|--------|--------|--------|--------|--------|--------|--------|--------|


E|--------|--------|--------|--------|--------|--------|--------|--------|--------|
B|--------|--------|--------|--------|--------|--------|--------|--------|--------|
G|--------|--------|--------|--------|--------|--------|--------|--------|--------|
D|--------|--------|--------|--------|--------|--------|--------|--------|--------|
A|--------|--------|--------|--------|--------|--------|--------|--------|--------|
E|--------|--------|--------|--------|--------|--------|--------|--------|--------|


E|--------|--------|--------|--------|--------|--------|--------|--------|--------|
B|--------|--------|--------|--------|--------|--------|--------|--------|--------|
G|--------|--------|--------|--------|--------|--------|--------|--------|--------|
D|--------|--------|--------|--------|--------|--------|--------|--------|--------|
A|--------|--------|--------|--------|--------|--------|--------|--------|--------|
E|--------|--------|--------|--------|--------|--------|--------|--------|--------|


E|--------|--------|--------|--------|--------|--------|--------|--------|--------|
B|--------|--------|--------|--------|--------|--------|--------|--------|--------|
G|--------|--------|--------|--------|--------|--------|--------|--------|--------|
D|--------|--------|--------|--------|--------|--------|--------|--------|--------|
A|--------|--------|--------|--------|--------|--------|--------|--------|--------|
E|--------|--------|--------|--------|--------|--------|--------|--------|--------|


E|--------|--------|--------|--------|--------|--------|--------|--------|--------|
B|--------|--------|--------|--------|--------|--------|--------|--------|--------|
G|--------|--------|--------|--------|--------|--------|--------|--------|--------|
D|--------|--------|--------|--------|--------|--------|--------|--------|--------|
A|--------|--------|--------|--------|--------|--------|--------|--------|--------|
E|--------|--------|--------|--------|--------|--------|--------|--------|--------|


E|--------|--------|--------|--------|--------|-7------7----|-7----7-----7----|-7----7----7----5----|
B|--------|--------|--------|--------|--------|-5------5----|-5----5-----5----|-5----5----5----3----|
G|--------|--------|--------|--------|--------|-5------5----|-5----5-----5----|-5----5----5----3----|
D|--------|--------|--------|--------|--------|-5------5----|-5----5-----5----|-5----5----5----3----|
A|--------|--------|--------|--------|--------|-7------7----|-7----7-----7----|-7----7----7----5----|
E|--------|--------|--------|--------|--------|-5------5----|-5----5-----5----|-5----5----5----3----|


E|-5----5----9-----|-9----9----9----9----|-9----9----9----9----|-9----7-----7----|
B|-3----3----7-----|-7----7----7----7----|-7----7----7----7----|-7----5-----5----|
G|-3----3----7-----|-7----7----7----7----|-7----7----7----7----|-7----5-----5----|
D|-3----3----7-----|-7----7----7----7----|-7----7----7----7----|-7----5-----5----|
A|-5----5----9-----|-9----9----9----9----|-9----9----9----9----|-9----7-----7----|
E|-3----3----7-----|-7----7----7----7----|-7----7----7----7----|-7----5-----5----|


E|-5------5----|-5----5-----5----|-5----5----5----7----|-7----7----9-----|-9----9----9----9----|
B|-3------3----|-3----3-----3----|-3----3----3----5----|-5----5----7-----|-7----7----7----7----|
G|-3------3----|-3----3-----3----|-3----3----3----5----|-5----5----7-----|-7----7----7----7----|
D|-3------3----|-3----3-----3----|-3----3----3----5----|-5----5----7-----|-7----7----7----7----|
A|-5------5----|-5----5-----5----|-5----5----5----7----|-7----7----9-----|-9----9----9----9----|
E|-3------3----|-3----3-----3----|-3----3----3----5----|-5----5----7-----|-7----7----7----7----|


E|-9----9------|-7------|-7-----7-----|------7----7----7----|------7----7----7----|
B|-7----7------|-5------|-5-----5-----|------5----5----5----|------5----5----5----|
G|-7----7------|-5------|-5-----5-----|------5----5----5----|------5----5----5----|
D|-7----7------|-5------|-5-----5-----|------5----5----5----|------5----5----5----|
A|-9----9------|-7------|-7-----7-----|------7----7----7----|------7----7----7----|
E|-7----7------|-5------|-5-----5-----|------5----5----5----|------5----5----5----|


E|-7----5----5----5----|-9-----9----9----|-9----9----9----9----|-9----9----9----7----|
B|-5----3----3----3----|-7-----7----7----|-7----7----7----7----|-7----7----7----5----|
G|-5----3----3----3----|-7-----7----7----|-7----7----7----7----|-7----7----7----5----|
D|-5----3----3----3----|-7-----7----7----|-7----7----7----7----|-7----7----7----5----|
A|-7----5----5----5----|-9-----9----9----|-9----9----9----9----|-9----9----9----7----|
E|-5----3----3----3----|-7-----7----7----|-7----7----7----7----|-7----7----7----5----|


E|------7----5-----|------5----5----5----|------5----5----5----|-5----7----7----7----|
B|------5----3-----|------3----3----3----|------3----3----3----|-3----5----5----5----|
G|------5----3-----|------3----3----3----|------3----3----3----|-3----5----5----5----|
D|------5----3-----|------3----3----3----|------3----3----3----|-3----5----5----5----|
A|------7----5-----|------5----5----5----|------5----5----5----|-5----7----7----7----|
E|------5----3-----|------3----3----3----|------3----3----3----|-3----5----5----5----|


E|-9-----9----9----|-9----9----9----9----|-------7-----|-------7-----|-7------7----|
B|-7-----7----7----|-7----7----7----7----|-------5-----|-------5-----|-5------5----|
G|-7-----7----7----|-7----7----7----7----|-------5-----|-------5-----|-5------5----|
D|-7-----7----7----|-7----7----7----7----|-------5-----|-------5-----|-5------5----|
A|-9-----9----9----|-9----9----9----9----|-------7-----|-------7-----|-7------7----|
E|-7-----7----7----|-7----7----7----7----|-------5-----|-------5-----|-5------5----|


E|-7----7-----7----|-7----7----7----5----|-5----5----9-----|-9----9----9----9----|
B|-5----5-----5----|-5----5----5----3----|-3----3----7-----|-7----7----7----7----|
G|-5----5-----5----|-5----5----5----3----|-3----3----7-----|-7----7----7----7----|
D|-5----5-----5----|-5----5----5----3----|-3----3----7-----|-7----7----7----7----|
A|-7----7-----7----|-7----7----7----5----|-5----5----9-----|-9----9----9----9----|
E|-5----5-----5----|-5----5----5----3----|-3----3----7-----|-7----7----7----7----|


E|-9----9----9----9----|-9----7-----7----|-5------5----|-5----5-----5----|-5----5----5----7----|
B|-7----7----7----7----|-7----5-----5----|-3------3----|-3----3-----3----|-3----3----3----5----|
G|-7----7----7----7----|-7----5-----5----|-3------3----|-3----3-----3----|-3----3----3----5----|
D|-7----7----7----7----|-7----5-----5----|-3------3----|-3----3-----3----|-3----3----3----5----|
A|-9----9----9----9----|-9----7-----7----|-5------5----|-5----5-----5----|-5----5----5----7----|
E|-7----7----7----7----|-7----5-----5----|-3------3----|-3----3-----3----|-3----3----3----5----|


E|-7----7----9-----|-9----9----9----9----|-9----9------|-7------|-7-----7-----|------7----7----7----|
B|-5----5----7-----|-7----7----7----7----|-7----7------|-5------|-5-----5-----|------5----5----5----|
G|-5----5----7-----|-7----7----7----7----|-7----7------|-5------|-5-----5-----|------5----5----5----|
D|-5----5----7-----|-7----7----7----7----|-7----7------|-5------|-5-----5-----|------5----5----5----|
A|-7----7----9-----|-9----9----9----9----|-9----9------|-7------|-7-----7-----|------7----7----7----|
E|-5----5----7-----|-7----7----7----7----|-7----7------|-5------|-5-----5-----|------5----5----5----|


E|------7----7----7----|-7----5----5----5----|-9-----9----9----|-9----9----9----9----|
B|------5----5----5----|-5----3----3----3----|-7-----7----7----|-7----7----7----7----|
G|------5----5----5----|-5----3----3----3----|-7-----7----7----|-7----7----7----7----|
D|------5----5----5----|-5----3----3----3----|-7-----7----7----|-7----7----7----7----|
A|------7----7----7----|-7----5----5----5----|-9-----9----9----|-9----9----9----9----|
E|------5----5----5----|-5----3----3----3----|-7-----7----7----|-7----7----7----7----|


E|-9----9----9----7----|------7----5-----|------5----5----5----|------5----5----5----|
B|-7----7----7----5----|------5----3-----|------3----3----3----|------3----3----3----|
G|-7----7----7----5----|------5----3-----|------3----3----3----|------3----3----3----|
D|-7----7----7----5----|------5----3-----|------3----3----3----|------3----3----3----|
A|-9----9----9----7----|------7----5-----|------5----5----5----|------5----5----5----|
E|-7----7----7----5----|------5----3-----|------3----3----3----|------3----3----3----|


E|-5----7----7----7----|-9-----9----9----|-9----9----9----9----|-------9-----|-------9-----|
B|-3----5----5----5----|-7-----7----7----|-7----7----7----7----|-------7-----|-------7-----|
G|-3----5----5----5----|-7-----7----7----|-7----7----7----7----|-------7-----|-------7-----|
D|-3----5----5----5----|-7-----7----7----|-7----7----7----7----|-------7-----|-------7-----|
A|-5----7----7----7----|-9-----9----9----|-9----9----9----9----|-------9-----|-------9-----|
E|-3----5----5----5----|-7-----7----7----|-7----7----7----7----|-------7-----|-------7-----|


E|-9-----9----9----|-9----9----9----9----|-------9-----|-------9-----|-9-----9----9----|
B|-7-----7----7----|-7----7----7----7----|-------7-----|-------7-----|-9-----9----9----|
G|-7-----7----7----|-7----7----7----7----|-------7-----|-------7-----|-11----11---11---|
D|-7-----7----7----|-7----7----7----7----|-------7-----|-------7-----|-11----11---11---|
A|-9-----9----9----|-9----9----9----9----|-------9-----|-------9-----|-11----11---11---|
E|-7-----7----7----|-7----7----7----7----|-------7-----|-------7-----|-9-----9----9----|


E|-9----9----9----9----|-------9-----|-------9-----|-9-----9----9----|-9----9----9----9----|
B|-9----9----9----9----|-------9-----|-------7-----|-9-----9----9----|-9----9----9----9----|
G|-11---11---11---11---|-------11----|-------7-----|-11----11---11---|-11---11---11---11---|
D|-11---11---11---11---|-------11----|-------7-----|-11----11---11---|-11---11---11---11---|
A|-11---11---11---11---|-------11----|-------9-----|-11----11---11---|-11---11---11---11---|
E|-9----9----9----9----|-------9-----|-------7-----|-9-----9----9----|-9----9----9----9----|


E|-9----9----9----9----|-9----9----9----9----|-9----9----9-----|-9----9---7---9---7---9----|
B|-9----9----9----9----|-9----9----9----9----|-9----9----9-----|---------------------------|
G|-11---11---11---11---|-11---11---11---11---|-11---11---11----|---------------------------|
D|-11---11---11---11---|-11---11---11---11---|-11---11---11----|---------------------------|
A|-11---11---11---11---|-11---11---11---11---|-11---11---11----|---------------------------|
E|-9----9----9----9----|-9----9----9----9----|-9----9----9-----|---------------------------|


E|------11---9-----|-7----9----9----11---|-------11----|-9----9---7---9---7---9----|
B|-----------------|---------------------|-------------|---------------------------|
G|-----------------|---------------------|-------------|---------------------------|
D|-----------------|---------------------|-------------|---------------------------|
A|-----------------|---------------------|-------------|---------------------------|
E|-----------------|---------------------|-------------|---------------------------|


E|------11---9-----|-7----9----9-----|-------9-----|-------7---9---7---9----|------11---9-----|
B|-----------------|-----------------|-------------|------------------------|-----------------|
G|-----------------|-----------------|-------------|------------------------|-----------------|
D|-----------------|-----------------|-------------|------------------------|-----------------|
A|-----------------|-----------------|-------------|------------------------|-----------------|
E|-----------------|-----------------|-------------|------------------------|-----------------|


E|-7----9----9----11---|-------11----|-9----9---7---9---7---9----|------11---9-----|
B|---------------------|-------------|---------------------------|-----------------|
G|---------------------|-------------|---------------------------|-----------------|
D|---------------------|-------------|---------------------------|-----------------|
A|---------------------|-------------|---------------------------|-----------------|
E|---------------------|-------------|---------------------------|-----------------|


E|-7----9----9-----|-------------|------------------------|------------------------|
B|-----------------|-------------|-----------13--13--10---|-10---15--13--15--------|
G|-----------------|-------------|------------------------|------------------------|
D|-----------------|-------------|------------------------|------------------------|
A|-----------------|-------------|------------------------|------------------------|
E|-----------------|-------------|------------------------|------------------------|


E|---------------------|-----------------|---------------------|--------------------|
B|-17---13---12---10---|-8----10---------|------10--------10---|-13---12--10--12----|
G|---------------------|-----------9-----|-----------9---------|--------------------|
D|---------------------|-----------------|---------------------|--------------------|
A|---------------------|-----------------|---------------------|--------------------|
E|---------------------|-----------------|---------------------|--------------------|


E|-----------------|------------17--15--|-17----17--------|---------------------------------|
B|------17----15---|------17------------|------------17---|---------------------------------|
G|-----------------|--------------------|-----------------|---------------------------------|
D|-----------------|--------------------|-----------------|------------------------12--14---|
A|-----------------|--------------------|-----------------|------14-15-14-12-14-15----------|
E|-----------------|--------------------|-----------------|---------------------------------|


E|-------------------------------|---------------------------------|---------------------------------|
B|-------------------------------|---------------------------------|---------------------------------|
G|------14--16--17---16--17--16--|-14--16--16--17--14--16--17--14--|-16--17--14--16--17--16--17--19--|
D|-14----------------------------|---------------------------------|---------------------------------|
A|-------------------------------|---------------------------------|---------------------------------|
E|-------------------------------|---------------------------------|---------------------------------|


E|----------------------------------|--------------------------------|-5------|-5------|
B|----------------------------------|--------------------------------|-5------|-5------|
G|-16---17--16--17--16--14--16------|--------------------------------|-5------|-5------|
D|------------------------------17--|--------------------------------|-7------|-7------|
A|----------------------------------|-19--17--15--14-15-12--14--10---|-7------|-7------|
E|----------------------------------|--------------------------------|-5------|-5------|


E|--------|--------|--------|--------|--------|--------|--------|--------|--------|
B|--------|--------|--------|--------|--------|--------|--------|--------|--------|
G|--------|--------|--------|--------|--------|--------|--------|--------|--------|
D|--------|--------|--------|--------|--------|--------|--------|--------|--------|
A|--------|--------|--------|--------|--------|--------|--------|--------|--------|
E|--------|--------|--------|--------|--------|--------|--------|--------|--------|


E|--------|--------|--------|--------|--------|--------------------|------------------------|
B|--------|--------|--------|--------|--------|--------------------|------------------------|
G|--------|--------|--------|--------|--------|--------------------|--------------5----9----|
D|--------|--------|--------|--------|--------|-------7----7---5---|-7---5---7--------------|
A|--------|--------|--------|--------|--------|--------------------|------------------------|
E|--------|--------|--------|--------|--------|--------------------|------------------------|


E|--------------------------|-------------|--------------------|------------------------|
B|--------------------------|-------------|--------------------|------------------------|
G|-7----7---9--7--5----7----|-7----9------|-9------------------|--------------5----9----|
D|--------------------------|-------------|-------7----7---5---|-7---5---7--------------|
A|--------------------------|-------------|--------------------|------------------------|
E|--------------------------|-------------|--------------------|------------------------|


E|--------------------------|--------|--------------------|------------------------|
B|--------------------------|--------|--------------------|------------------------|
G|-7----7---9--7--5----7----|-7------|-7------------------|--------------5----9----|
D|--------------------------|--------|-------7----7---5---|-7---5---7--------------|
A|--------------------------|--------|--------------------|------------------------|
E|--------------------------|--------|--------------------|------------------------|


E|--------------------------|-------------|--------------------|------------------------|
B|--------------------------|-------------|--------------------|------------------------|
G|-7----7---9--7--5----7----|-7----9------|-9------------------|--------------5----9----|
D|--------------------------|-------------|-------7----7---5---|-7---5---7--------------|
A|--------------------------|-------------|--------------------|------------------------|
E|--------------------------|-------------|--------------------|------------------------|


E|--------------------------|--------|--------------------|------------------------|
B|--------------------------|--------|--------------------|------------------------|
G|-7----7---9--7--5----7----|-7------|-7------------------|--------------5----9----|
D|--------------------------|--------|-------7----7---5---|-7---5---7--------------|
A|--------------------------|--------|--------------------|------------------------|
E|--------------------------|--------|--------------------|------------------------|


E|--------------------------|-------------|--------------------|------------------------|
B|--------------------------|-------------|--------------------|------------------------|
G|-7----7---9--7--5----7----|-7----9------|-9------------------|--------------5----9----|
D|--------------------------|-------------|-------7----7---5---|-7---5---7--------------|
A|--------------------------|-------------|--------------------|------------------------|
E|--------------------------|-------------|--------------------|------------------------|


E|--------------------------|--------|--------|--------|--------|--------|--------|
B|--------------------------|--------|--------|--------|--------|--------|--------|
G|-7----7---9--7--5----7----|-7------|--------|--------|--------|--------|--------|
D|--------------------------|--------|--------|--------|--------|--------|--------|
A|--------------------------|--------|--------|--------|--------|--------|--------|
E|--------------------------|--------|--------|--------|--------|--------|--------|


E|--------|--------|--------|
B|--------|--------|--------|
G|--------|--------|--------|
D|--------|--------|--------|
A|--------|--------|--------|
E|--------|--------|--------|





Track 4: acoustic

E|--------|--------|--------|--------|--------|--------|--------|--------|--------|
B|--------|--------|--------|--------|--------|--------|--------|--------|--------|
G|--------|--------|--------|--------|--------|--------|--------|--------|--------|
D|--------|--------|--------|--------|--------|--------|--------|--------|--------|
A|--------|--------|--------|--------|--------|--------|--------|--------|--------|
E|--------|--------|--------|--------|--------|--------|--------|--------|--------|


E|--------|--------|--------|--------|--------|--------|--------|--------|--------|
B|--------|--------|--------|--------|--------|--------|--------|--------|--------|
G|--------|--------|--------|--------|--------|--------|--------|--------|--------|
D|--------|--------|--------|--------|--------|--------|--------|--------|--------|
A|--------|--------|--------|--------|--------|--------|--------|--------|--------|
E|--------|--------|--------|--------|--------|--------|--------|--------|--------|


E|--------|--------|--------|--------|--------|--------|--------|--------|--------|
B|--------|--------|--------|--------|--------|--------|--------|--------|--------|
G|--------|--------|--------|--------|--------|--------|--------|--------|--------|
D|--------|--------|--------|--------|--------|--------|--------|--------|--------|
A|--------|--------|--------|--------|--------|--------|--------|--------|--------|
E|--------|--------|--------|--------|--------|--------|--------|--------|--------|


E|--------|--------|--------|--------|--------|--------|--------|--------|--------|
B|--------|--------|--------|--------|--------|--------|--------|--------|--------|
G|--------|--------|--------|--------|--------|--------|--------|--------|--------|
D|--------|--------|--------|--------|--------|--------|--------|--------|--------|
A|--------|--------|--------|--------|--------|--------|--------|--------|--------|
E|--------|--------|--------|--------|--------|--------|--------|--------|--------|


E|--------|--------|--------|--------|--------|--------|--------|--------|--------|
B|--------|--------|--------|--------|--------|--------|--------|--------|--------|
G|--------|--------|--------|--------|--------|--------|--------|--------|--------|
D|--------|--------|--------|--------|--------|--------|--------|--------|--------|
A|--------|--------|--------|--------|--------|--------|--------|--------|--------|
E|--------|--------|--------|--------|--------|--------|--------|--------|--------|


E|--------|--------|--------|--------|--------|--------|--------|--------|--------|
B|--------|--------|--------|--------|--------|--------|--------|--------|--------|
G|--------|--------|--------|--------|--------|--------|--------|--------|--------|
D|--------|--------|--------|--------|--------|--------|--------|--------|--------|
A|--------|--------|--------|--------|--------|--------|--------|--------|--------|
E|--------|--------|--------|--------|--------|--------|--------|--------|--------|


E|--------|--------|--------|--------|--------|--------|--------|--------|--------|
B|--------|--------|--------|--------|--------|--------|--------|--------|--------|
G|--------|--------|--------|--------|--------|--------|--------|--------|--------|
D|--------|--------|--------|--------|--------|--------|--------|--------|--------|
A|--------|--------|--------|--------|--------|--------|--------|--------|--------|
E|--------|--------|--------|--------|--------|--------|--------|--------|--------|


E|--------|--------|--------|--------|--------|---------------------|---------------------|
B|--------|--------|--------|--------|--------|-12---13-------------|---------------------|
G|--------|--------|--------|--------|--------|---------------------|---------------------|
D|--------|--------|--------|--------|--------|-----------14---12---|-16---17-------------|
A|--------|--------|--------|--------|--------|---------------------|-----------15---14---|
E|--------|--------|--------|--------|--------|---------------------|---------------------|


E|---------------------|---------------------|---------------------|---------------------|
B|---------------------|-----------14---15---|---------------------|----------------14---|
G|----------------14---|-15------------------|----------------14---|---------------------|
D|---------------------|---------------------|-16---14---18--------|---------------------|
A|------14---15--------|------17-------------|---------------------|-17---16---14--------|
E|-17------------------|---------------------|---------------------|---------------------|


E|---------------------|---------------------|---------------------|---------------------|
B|-15------------------|---------------------|---------------------|---------------------|
G|------16---17--------|-14---15-------------|---------------------|------14---15---16---|
D|----------------14---|---------------------|-14---15-------------|---------------------|
A|---------------------|-----------17---15---|-----------13---12---|---------------------|
E|---------------------|---------------------|---------------------|-15------------------|


E|---------------------|---------------------|-------------|------------------------|
B|---------------------|---------------------|-------------|------------------------|
G|-17--------18---19---|-----------13---14---|-------------|------------------------|
D|------14-------------|-16---14-------------|-12---11-----|------------------------|
A|---------------------|---------------------|-------------|-14----12--14--12--10---|
E|---------------------|---------------------|-------------|------------------------|


E|-----------------|---------------------|---------------------|---------------------|
B|-------12---13---|---------------------|---------------------|---------------------|
G|-----------------|---------------------|---------------------|------14---15--------|
D|-----------------|-14---12---16---17---|---------------------|---------------------|
A|-10--------------|---------------------|-15---14--------14---|-15-------------17---|
E|-----------------|---------------------|-----------17--------|---------------------|


E|---------------------|---------------------|---------------------|---------------------|
B|-14---15-------------|---------------------|------14---15--------|---------------------|
G|---------------------|------14-------------|----------------16---|-17--------14---15---|
D|-----------16---14---|-18------------------|---------------------|------14-------------|
A|---------------------|-----------17---16---|-14------------------|---------------------|
E|---------------------|---------------------|---------------------|---------------------|


E|---------------------|---------------------|---------------------|---------------------|
B|---------------------|---------------------|---------------------|---------------------|
G|---------------------|----------------14---|-15---16---17--------|-18---19-------------|
D|-----------14---15---|---------------------|----------------14---|-----------16---14---|
A|-17---15-------------|-13---12-------------|---------------------|---------------------|
E|---------------------|-----------15--------|---------------------|---------------------|


E|---------------------|-----------------|--------------------|---------------------|
B|---------------------|-----------------|--------------------|-12---13-------------|
G|-13---14-------------|-----------------|--------------------|---------------------|
D|-----------12---11---|-----------------|--------------------|-----------14---12---|
A|---------------------|-------14----12--|-14--12--10---10----|---------------------|
E|---------------------|-----------------|--------------------|---------------------|


E|---------------------|---------------------|---------------------|---------------------|
B|---------------------|---------------------|-----------14---15---|---------------------|
G|---------------------|----------------14---|-15------------------|----------------14---|
D|-16---17-------------|---------------------|---------------------|-16---14---18--------|
A|-----------15---14---|------14---15--------|------17-------------|---------------------|
E|---------------------|-17------------------|---------------------|---------------------|


E|---------------------|---------------------|---------------------|---------------------|
B|----------------14---|-15------------------|---------------------|---------------------|
G|---------------------|------16---17--------|-14---15-------------|---------------------|
D|---------------------|----------------14---|---------------------|-14---15-------------|
A|-17---16---14--------|---------------------|-----------17---15---|-----------13---12---|
E|---------------------|---------------------|---------------------|---------------------|


E|---------------------|---------------------|---------------------|-------------|
B|---------------------|---------------------|---------------------|-------------|
G|------14---15---16---|-17--------18---19---|-----------13---14---|-------------|
D|---------------------|------14-------------|-16---14-------------|-12---11-----|
A|---------------------|---------------------|---------------------|-------------|
E|-15------------------|---------------------|---------------------|-------------|


E|------------------------|-----------------|---------------------|---------------------|
B|------------------------|-------12---13---|---------------------|---------------------|
G|------------------------|-----------------|---------------------|---------------------|
D|------------------------|-----------------|-14---12---16---17---|---------------------|
A|-14----12--14--12--10---|-10--------------|---------------------|-15---14--------14---|
E|------------------------|-----------------|---------------------|-----------17--------|


E|---------------------|---------------------|---------------------|---------------------|
B|---------------------|-14---15-------------|---------------------|------14---15--------|
G|------14---15--------|---------------------|------14-------------|----------------16---|
D|---------------------|-----------16---14---|-18------------------|---------------------|
A|-15-------------17---|---------------------|-----------17---16---|-14------------------|
E|---------------------|---------------------|---------------------|---------------------|


E|---------------------|---------------------|---------------------|---------------------|
B|---------------------|---------------------|---------------------|---------------------|
G|-17--------14---15---|---------------------|----------------14---|-15---16---17--------|
D|------14-------------|-----------14---15---|---------------------|----------------14---|
A|---------------------|-17---15-------------|-13---12-------------|---------------------|
E|---------------------|---------------------|-----------15--------|---------------------|


E|---------------------|---------------------|-------------|-------------|-----------------|
B|---------------------|---------------------|-------------|-------------|-----------------|
G|-18---19-------------|-13---14-------------|-------------|-------------|-----------------|
D|-----------16---14---|-----------12---11---|-------11----|-------11----|-11----11---11---|
A|---------------------|---------------------|-------------|-------------|-----------------|
E|---------------------|---------------------|-------------|-------------|-----------------|


E|---------------------|-------------|-------------|-----------------|---------------------|
B|---------------------|-------------|-------------|-----------------|---------------------|
G|---------------------|-------------|-------------|-----------------|---------------------|
D|-11---11---11---11---|-------11----|-------11----|-11----11---11---|-11---11---11---11---|
A|---------------------|-------------|-------------|-----------------|---------------------|
E|---------------------|-------------|-------------|-----------------|---------------------|


E|-------------|-------------|-----------------|---------------------|---------------------|
B|-------------|-------------|-----------------|---------------------|---------------------|
G|-------------|-------------|-----------------|---------------------|---------------------|
D|-------11----|-------11----|-11----11---11---|-11---11---11---11---|-11---11---11---11---|
A|-------------|-------------|-----------------|---------------------|---------------------|
E|-------------|-------------|-----------------|---------------------|---------------------|


E|---------------------|-----------------|---------------------------|--------------------------|
B|---------------------|-----------------|---------------------------|--------------------------|
G|---------------------|-----------------|-6----6---4---6---4---6----|-6----8----6----6---8--6--|
D|-11---11---11---11---|-11---11---11----|---------------------------|--------------------------|
A|---------------------|-----------------|---------------------------|--------------------------|
E|---------------------|-----------------|---------------------------|--------------------------|


E|---------------------|-------------|---------------------------|--------------------------|
B|---------------------|-------------|---------------------------|--------------------------|
G|-4----6----6----8----|-------8-----|-6----6---4---6---4---6----|-6----8----6----6---8--6--|
D|---------------------|-------------|---------------------------|--------------------------|
A|---------------------|-------------|---------------------------|--------------------------|
E|---------------------|-------------|---------------------------|--------------------------|


E|-----------------|-------------|---------------------------|--------------------------|
B|-----------------|-------------|---------------------------|--------------------------|
G|-4----6----6-----|-------6-----|-6----6---4---6---4---6----|-6----8----6----6---8--6--|
D|-----------------|-------------|---------------------------|--------------------------|
A|-----------------|-------------|---------------------------|--------------------------|
E|-----------------|-------------|---------------------------|--------------------------|


E|---------------------|-------------|---------------------------|--------------------------|
B|---------------------|-------------|---------------------------|--------------------------|
G|-4----6----6----8----|-------8-----|-6----6---4---6---4---6----|-6----8----6----6---8--6--|
D|---------------------|-------------|---------------------------|--------------------------|
A|---------------------|-------------|---------------------------|--------------------------|
E|---------------------|-------------|---------------------------|--------------------------|


E|-----------------|--------|--------|--------|--------|--------|--------|--------|
B|-----------------|--------|--------|--------|--------|--------|--------|--------|
G|-4----6----6-----|--------|--------|--------|--------|--------|--------|--------|
D|-----------------|--------|--------|--------|--------|--------|--------|--------|
A|-----------------|--------|--------|--------|--------|--------|--------|--------|
E|-----------------|--------|--------|--------|--------|--------|--------|--------|


E|--------|--------|--------|--------|--------|--------|--------|--------|--------|
B|--------|--------|--------|--------|--------|--------|--------|--------|--------|
G|--------|--------|--------|--------|--------|--------|--------|--------|--------|
D|--------|--------|--------|--------|--------|--------|--------|--------|--------|
A|--------|--------|--------|--------|--------|--------|--------|--------|--------|
E|--------|--------|--------|--------|--------|--------|--------|--------|--------|


E|--------------------|------------------------|--------------------------|-------------|
B|--------------------|------------------------|--------------------------|-------------|
G|--------------------|--------------5----9----|-7----7---9--7--5----7----|-7----9------|
D|-------7----7---5---|-7---5---7--------------|--------------------------|-------------|
A|--------------------|------------------------|--------------------------|-------------|
E|--------------------|------------------------|--------------------------|-------------|


E|--------------------|------------------------|--------------------------|--------|
B|--------------------|------------------------|--------------------------|--------|
G|-9------------------|--------------5----9----|-7----7---9--7--5----7----|-7------|
D|-------7----7---5---|-7---5---7--------------|--------------------------|--------|
A|--------------------|------------------------|--------------------------|--------|
E|--------------------|------------------------|--------------------------|--------|


E|--------------------|------------------------|--------------------------|-------------|
B|--------------------|------------------------|--------------------------|-------------|
G|-7------------------|--------------5----9----|-7----7---9--7--5----7----|-7----9------|
D|-------7----7---5---|-7---5---7--------------|--------------------------|-------------|
A|--------------------|------------------------|--------------------------|-------------|
E|--------------------|------------------------|--------------------------|-------------|


E|--------------------|------------------------|--------------------------|--------|
B|--------------------|------------------------|--------------------------|--------|
G|-9------------------|--------------5----9----|-7----7---9--7--5----7----|-7------|
D|-------7----7---5---|-7---5---7--------------|--------------------------|--------|
A|--------------------|------------------------|--------------------------|--------|
E|--------------------|------------------------|--------------------------|--------|


E|-------------|--------|--------|--------|--------|--------|--------|--------|--------|
B|-------------|--------|--------|--------|--------|--------|--------|--------|--------|
G|-7-----------|--------|--------|--------|--------|--------|--------|--------|--------|
D|-------------|--------|--------|--------|--------|--------|--------|--------|--------|
A|-------------|--------|--------|--------|--------|--------|--------|--------|--------|
E|-------------|--------|--------|--------|--------|--------|--------|--------|--------|


E|--------|--------|--------|--------|--------|--------|--------|--------|--------|
B|--------|--------|--------|--------|--------|--------|--------|--------|--------|
G|--------|--------|--------|--------|--------|--------|--------|--------|--------|
D|--------|--------|--------|--------|--------|--------|--------|--------|--------|
A|--------|--------|--------|--------|--------|--------|--------|--------|--------|
E|--------|--------|--------|--------|--------|--------|--------|--------|--------|


E|--------|--------|--------|--------|--------|--------|-0------0----|-0-----0-----|
B|--------|--------|--------|--------|--------|--------|-1------1----|-1-----1-----|
G|--------|--------|--------|--------|--------|--------|-2------2----|-2-----2-----|
D|--------|--------|--------|--------|--------|--------|-2------2----|-2-----2-----|
A|--------|--------|--------|--------|--------|--------|-0------0----|-0-----0-----|
E|--------|--------|--------|--------|--------|--------|-0------0----|-0-----0-----|


E|-0------0----|-0-----0-----|-1------1----|-1-----1-----|-3------3----|-3-----------------0---|
B|-1------1----|-1-----1-----|-1------1----|-1-----1-----|-3------3----|-3-------------1-------|
G|-2------2----|-2-----2-----|-2------2----|-2-----2-----|-4------4----|-4---------2-----------|
D|-2------2----|-2-----2-----|-3------3----|-3-----3-----|-5------5----|-5-----2---------------|
A|-0------0----|-0-----0-----|-3------3----|-3-----3-----|-5------5----|-5---------------------|
E|-0------0----|-0-----0-----|-1------1----|-1-----1-----|-3------3----|-3---------------------|





Track 5: organ

E|--------|--------|--------|--------|--------|--------|--------|--------|--------|
B|--------|--------|--------|--------|--------|--------|--------|--------|--------|
G|--------|--------|--------|--------|--------|--------|--------|--------|--------|
D|--------|--------|--------|--------|--------|--------|--------|--------|--------|
A|--------|--------|--------|--------|--------|--------|--------|--------|--------|
E|--------|--------|--------|--------|--------|--------|--------|--------|--------|


E|--------|--------|--------|--------|--------|--------|--------|--------|--------|
B|--------|--------|--------|--------|--------|--------|--------|--------|--------|
G|--------|--------|--------|--------|--------|--------|--------|--------|--------|
D|--------|--------|--------|--------|--------|--------|--------|--------|--------|
A|--------|--------|--------|--------|--------|--------|--------|--------|--------|
E|--------|--------|--------|--------|--------|--------|--------|--------|--------|


E|--------|--------|--------|--------|--------|--------|--------|--------|--------|
B|--------|--------|--------|--------|--------|--------|--------|--------|--------|
G|--------|--------|--------|--------|--------|--------|--------|--------|--------|
D|--------|--------|--------|--------|--------|--------|--------|--------|--------|
A|--------|--------|--------|--------|--------|--------|--------|--------|--------|
E|--------|--------|--------|--------|--------|--------|--------|--------|--------|


E|--------|--------|--------|--------|--------|--------|--------|--------|--------|
B|--------|--------|--------|--------|--------|--------|--------|--------|--------|
G|--------|--------|--------|--------|--------|--------|--------|--------|--------|
D|--------|--------|--------|--------|--------|--------|--------|--------|--------|
A|--------|--------|--------|--------|--------|--------|--------|--------|--------|
E|--------|--------|--------|--------|--------|--------|--------|--------|--------|


E|--------|--------|--------|--------|--------|--------|--------|--------|--------|
B|--------|--------|--------|--------|--------|--------|--------|--------|--------|
G|--------|--------|--------|--------|--------|--------|--------|--------|--------|
D|--------|--------|--------|--------|--------|--------|--------|--------|--------|
A|--------|--------|--------|--------|--------|--------|--------|--------|--------|
E|--------|--------|--------|--------|--------|--------|--------|--------|--------|


E|--------|--------|--------|--------|--------|--------|--------|--------|--------|
B|--------|--------|--------|--------|--------|--------|--------|--------|--------|
G|--------|--------|--------|--------|--------|--------|--------|--------|--------|
D|--------|--------|--------|--------|--------|--------|--------|--------|--------|
A|--------|--------|--------|--------|--------|--------|--------|--------|--------|
E|--------|--------|--------|--------|--------|--------|--------|--------|--------|


E|--------|--------|--------|--------|--------|--------|--------|--------|--------|
B|--------|--------|--------|--------|--------|--------|--------|--------|--------|
G|--------|--------|--------|--------|--------|--------|--------|--------|--------|
D|--------|--------|--------|--------|--------|--------|--------|--------|--------|
A|--------|--------|--------|--------|--------|--------|--------|--------|--------|
E|--------|--------|--------|--------|--------|--------|--------|--------|--------|


E|--------|--------|--------|--------|--------|--------|--------|--------|--------|
B|--------|--------|--------|--------|--------|--------|--------|--------|--------|
G|--------|--------|--------|--------|--------|--------|--------|--------|--------|
D|--------|--------|--------|--------|--------|--------|--------|--------|--------|
A|--------|--------|--------|--------|--------|--------|--------|--------|--------|
E|--------|--------|--------|--------|--------|--------|--------|--------|--------|


E|--------|--------|--------|--------|--------|--------|--------|--------|--------|
B|--------|--------|--------|--------|--------|--------|--------|--------|--------|
G|--------|--------|--------|--------|--------|--------|--------|--------|--------|
D|--------|--------|--------|--------|--------|--------|--------|--------|--------|
A|--------|--------|--------|--------|--------|--------|--------|--------|--------|
E|--------|--------|--------|--------|--------|--------|--------|--------|--------|


E|--------|--------|--------|--------|--------|--------|--------|--------|--------|
B|--------|--------|--------|--------|--------|--------|--------|--------|--------|
G|--------|--------|--------|--------|--------|--------|--------|--------|--------|
D|--------|--------|--------|--------|--------|--------|--------|--------|--------|
A|--------|--------|--------|--------|--------|--------|--------|--------|--------|
E|--------|--------|--------|--------|--------|--------|--------|--------|--------|


E|--------|--------|--------|--------|--------|--------|--------|---------------------|
B|--------|--------|--------|--------|--------|--------|--------|---------------------|
G|--------|--------|--------|--------|--------|--------|--------|---------------------|
D|--------|--------|--------|--------|--------|--------|--------|---------------------|
A|--------|--------|--------|--------|--------|--------|--------|-12---14---15---12---|
E|--------|--------|--------|--------|--------|--------|--------|---------------------|


E|---------------------|---------------------|-------------|---------------------|
B|---------------------|---------------------|-------------|---------------------|
G|---------------------|---------------------|-------------|---------------------|
D|-12------------------|---------------------|-------------|---------------------|
A|------14---15---12---|-12---15---14---15---|-12----12----|-12---14---15---12---|
E|---------------------|---------------------|-------------|---------------------|


E|---------------------|---------------------|-------------|---------------------|
B|---------------------|---------------------|-------------|---------------------|
G|---------------------|---------------------|-------------|---------------------|
D|-12------------------|---------------------|-------------|-10---12---14---12---|
A|------14---15---12---|-12---15---14---15---|-12----12----|---------------------|
E|---------------------|---------------------|-------------|---------------------|


E|---------------------|---------------------|---------------------|---------------------|
B|---------------------|---------------------|---------------------|---------------------|
G|-10------------------|---------------------|---------------------|---------------------|
D|------14---12---10---|-10---14---12---11---|-12---11---9----7----|---------------------|
A|---------------------|---------------------|---------------------|-12---14---15---12---|
E|---------------------|---------------------|---------------------|---------------------|


E|---------------------|---------------------|-------------|---------------------|
B|---------------------|---------------------|-------------|---------------------|
G|---------------------|---------------------|-------------|---------------------|
D|-12------------------|---------------------|-------------|----------------12---|
A|------14---15---12---|-12---15---14---15---|-12----12----|-15---14---12--------|
E|---------------------|---------------------|-------------|---------------------|


E|---------------------|---------------------|---------------------|---------------------|
B|---------------------|---------------------|----------------12---|---------------------|
G|---------------------|------12-------------|-14---12-------------|-14--------14---12---|
D|-----------14---12---|-----------14--------|---------------------|---------------------|
A|-15---12-------------|-12-------------12---|-----------12--------|------12-------------|
E|---------------------|---------------------|---------------------|---------------------|


E|---------------------|---------------------|---------------------|---------------------|
B|---------------------|---------------------|---------------------|---------------------|
G|------12-------------|---------------------|---------------------|---------------------|
D|-14--------14--------|------14---14--------|----------------12---|-11------------------|
A|----------------12---|-12-------------12---|------12---14--------|------14---12--------|
E|---------------------|---------------------|-15------------------|----------------15---|


E|---------------------|---------------------|--------|--------|--------|--------|
B|---------------------|---------------------|--------|--------|--------|--------|
G|---------------------|---------------------|--------|--------|--------|--------|
D|-----------11--------|-12--------11--------|--------|--------|--------|--------|
A|-12---14--------14---|------14--------12---|--------|--------|--------|--------|
E|---------------------|---------------------|--------|--------|--------|--------|


E|--------|--------|--------|--------|--------|--------|--------|--------|--------|
B|--------|--------|--------|--------|--------|--------|--------|--------|--------|
G|--------|--------|--------|--------|--------|--------|--------|--------|--------|
D|--------|--------|--------|--------|--------|--------|--------|--------|--------|
A|--------|--------|--------|--------|--------|--------|--------|--------|--------|
E|--------|--------|--------|--------|--------|--------|--------|--------|--------|


E|--------|--------|--------|--------|--------|--------|--------|--------|--------|
B|--------|--------|--------|--------|--------|--------|--------|--------|--------|
G|--------|--------|--------|--------|--------|--------|--------|--------|--------|
D|--------|--------|--------|--------|--------|--------|--------|--------|--------|
A|--------|--------|--------|--------|--------|--------|--------|--------|--------|
E|--------|--------|--------|--------|--------|--------|--------|--------|--------|


E|--------|--------|--------|--------|--------|--------|--------|--------|--------|
B|--------|--------|--------|--------|--------|--------|--------|--------|--------|
G|--------|--------|--------|--------|--------|--------|--------|--------|--------|
D|--------|--------|--------|--------|--------|--------|--------|--------|--------|
A|--------|--------|--------|--------|--------|--------|--------|--------|--------|
E|--------|--------|--------|--------|--------|--------|--------|--------|--------|


E|--------|--------|--------|--------|--------|--------|--------|--------|--------|
B|--------|--------|--------|--------|--------|--------|--------|--------|--------|
G|--------|--------|--------|--------|--------|--------|--------|--------|--------|
D|--------|--------|--------|--------|--------|--------|--------|--------|--------|
A|--------|--------|--------|--------|--------|--------|--------|--------|--------|
E|--------|--------|--------|--------|--------|--------|--------|--------|--------|


E|--------|--------|--------|--------|--------|--------|--------|--------|--------|
B|--------|--------|--------|--------|--------|--------|--------|--------|--------|
G|--------|--------|--------|--------|--------|--------|--------|--------|--------|
D|--------|--------|--------|--------|--------|--------|--------|--------|--------|
A|--------|--------|--------|--------|--------|--------|--------|--------|--------|
E|--------|--------|--------|--------|--------|--------|--------|--------|--------|


E|--------|--------|--------|--------|--------|--------|--------|--------|--------|
B|--------|--------|--------|--------|--------|--------|--------|--------|--------|
G|--------|--------|--------|--------|--------|--------|--------|--------|--------|
D|--------|--------|--------|--------|--------|--------|--------|--------|--------|
A|--------|--------|--------|--------|--------|--------|--------|--------|--------|
E|--------|--------|--------|--------|--------|--------|--------|--------|--------|


E|--------|--------|--------|--------|--------|--------|--------|--------|--------|
B|--------|--------|--------|--------|--------|--------|--------|--------|--------|
G|--------|--------|--------|--------|--------|--------|--------|--------|--------|
D|--------|--------|--------|--------|--------|--------|--------|--------|--------|
A|--------|--------|--------|--------|--------|--------|--------|--------|--------|
E|--------|--------|--------|--------|--------|--------|--------|--------|--------|


E|--------|--------|--------|--------|--------|--------|--------|--------|--------|
B|--------|--------|--------|--------|--------|--------|--------|--------|--------|
G|--------|--------|--------|--------|--------|--------|--------|--------|--------|
D|--------|--------|--------|--------|--------|--------|--------|--------|--------|
A|--------|--------|--------|--------|--------|--------|--------|--------|--------|
E|--------|--------|--------|--------|--------|--------|--------|--------|--------|


E|--------|--------|--------|--------|--------|--------|--------|--------|--------|
B|--------|--------|-17-----|-17-----|-12-----|-12-----|-13-----|-13-----|-15-----|
G|--------|--------|-17-----|-17-----|-12-----|-12-----|-14-----|-14-----|-16-----|
D|--------|--------|-19-----|-19-----|-14-----|-14-----|-15-----|-15-----|-17-----|
A|--------|--------|--------|--------|--------|--------|--------|--------|--------|
E|--------|--------|--------|--------|--------|--------|--------|--------|--------|


E|--------|--------|--------|--------|--------|--------|--------|--------|--------|
B|-15-----|--------|--------|--------|--------|--------|--------|--------|--------|
G|-16-----|--------|--------|--------|--------|--------|--------|--------|--------|
D|-17-----|--------|--------|--------|--------|--------|--------|--------|--------|
A|--------|--------|--------|--------|--------|--------|--------|--------|--------|
E|--------|--------|--------|--------|--------|--------|--------|--------|--------|





Track 6: piano

E|--------|--------|--------|--------|--------|--------|--------|--------|--------|
B|--------|--------|--------|--------|--------|--------|--------|--------|--------|
G|--------|--------|--------|--------|--------|--------|--------|--------|--------|
D|--------|--------|--------|--------|--------|--------|--------|--------|--------|
A|--------|--------|--------|--------|--------|--------|--------|--------|--------|
E|--------|--------|--------|--------|--------|--------|--------|--------|--------|


E|--------|--------|--------|--------|--------|--------|--------|--------|--------|
B|--------|--------|--------|--------|--------|--------|--------|--------|--------|
G|--------|--------|--------|--------|--------|--------|--------|--------|--------|
D|--------|--------|--------|--------|--------|--------|--------|--------|--------|
A|--------|--------|--------|--------|--------|--------|--------|--------|--------|
E|--------|--------|--------|--------|--------|--------|--------|--------|--------|


E|--------|--------|--------|--------|--------|--------|--------|--------|--------|
B|--------|--------|--------|--------|--------|--------|--------|--------|--------|
G|--------|--------|--------|--------|--------|--------|--------|--------|--------|
D|--------|--------|--------|--------|--------|--------|--------|--------|--------|
A|--------|--------|--------|--------|--------|--------|--------|--------|--------|
E|--------|--------|--------|--------|--------|--------|--------|--------|--------|


E|--------|--------|--------|--------|--------|--------|--------|--------|--------|
B|--------|--------|--------|--------|--------|--------|--------|--------|--------|
G|--------|--------|--------|--------|--------|--------|--------|--------|--------|
D|--------|--------|--------|--------|--------|--------|--------|--------|--------|
A|--------|--------|--------|--------|--------|--------|--------|--------|--------|
E|--------|--------|--------|--------|--------|--------|--------|--------|--------|


E|--------|--------|--------|--------|--------|--------|--------|--------|--------|
B|--------|--------|--------|--------|--------|--------|--------|--------|--------|
G|--------|--------|--------|--------|--------|--------|--------|--------|--------|
D|--------|--------|--------|--------|--------|--------|--------|--------|--------|
A|--------|--------|--------|--------|--------|--------|--------|--------|--------|
E|--------|--------|--------|--------|--------|--------|--------|--------|--------|


E|--------|--------|--------|--------|--------|--------|--------|--------|--------|
B|--------|--------|--------|--------|--------|--------|--------|--------|--------|
G|--------|--------|--------|--------|--------|--------|--------|--------|--------|
D|--------|--------|--------|--------|--------|--------|--------|--------|--------|
A|--------|--------|--------|--------|--------|--------|--------|--------|--------|
E|--------|--------|--------|--------|--------|--------|--------|--------|--------|


E|--------|--------|--------|--------|--------|--------|--------|--------|--------|
B|--------|--------|--------|--------|--------|--------|--------|--------|--------|
G|--------|--------|--------|--------|--------|--------|--------|--------|--------|
D|--------|--------|--------|--------|--------|--------|--------|--------|--------|
A|--------|--------|--------|--------|--------|--------|--------|--------|--------|
E|--------|--------|--------|--------|--------|--------|--------|--------|--------|


E|--------|--------|--------|--------|--------|--------|--------|--------|--------|
B|--------|--------|--------|--------|--------|--------|--------|--------|--------|
G|--------|--------|--------|--------|--------|--------|--------|--------|--------|
D|--------|--------|--------|--------|--------|--------|--------|--------|--------|
A|--------|--------|--------|--------|--------|--------|--------|--------|--------|
E|--------|--------|--------|--------|--------|--------|--------|--------|--------|


E|--------|--------|--------|--------|--------|--------|--------|--------|--------|
B|--------|--------|--------|--------|--------|--------|--------|--------|--------|
G|--------|--------|--------|--------|--------|--------|--------|--------|--------|
D|--------|--------|--------|--------|--------|--------|--------|--------|--------|
A|--------|--------|--------|--------|--------|--------|--------|--------|--------|
E|--------|--------|--------|--------|--------|--------|--------|--------|--------|


E|--------|--------|--------|--------|--------|--------|--------|--------|--------|
B|--------|--------|--------|--------|--------|--------|--------|--------|--------|
G|--------|--------|--------|--------|--------|--------|--------|--------|--------|
D|--------|--------|--------|--------|--------|--------|--------|--------|--------|
A|--------|--------|--------|--------|--------|--------|--------|--------|--------|
E|--------|--------|--------|--------|--------|--------|--------|--------|--------|


E|--------|--------|--------|--------|--------|--------|--------|--------|--------|
B|--------|--------|--------|--------|--------|--------|--------|--------|--------|
G|--------|--------|--------|--------|--------|--------|--------|--------|--------|
D|--------|--------|--------|--------|--------|--------|--------|--------|--------|
A|--------|--------|--------|--------|--------|--------|--------|--------|--------|
E|--------|--------|--------|--------|--------|--------|--------|--------|--------|


E|--------|--------|--------|--------|--------|--------|--------|--------|--------|
B|--------|--------|--------|--------|--------|--------|--------|--------|--------|
G|--------|--------|--------|--------|--------|--------|--------|--------|--------|
D|--------|--------|--------|--------|--------|--------|--------|--------|--------|
A|--------|--------|--------|--------|--------|--------|--------|--------|--------|
E|--------|--------|--------|--------|--------|--------|--------|--------|--------|


E|--------|--------|--------|--------|--------|--------|--------|--------|--------|
B|--------|--------|--------|--------|--------|--------|--------|--------|--------|
G|--------|--------|--------|--------|--------|--------|--------|--------|--------|
D|--------|--------|--------|--------|--------|--------|--------|--------|--------|
A|--------|--------|--------|--------|--------|--------|--------|--------|--------|
E|--------|--------|--------|--------|--------|--------|--------|--------|--------|


E|--------|--------|--------|--------|--------|--------|--------|--------|--------|
B|--------|--------|--------|--------|--------|--------|--------|--------|--------|
G|--------|--------|--------|--------|--------|--------|--------|--------|--------|
D|--------|--------|--------|--------|--------|--------|--------|--------|--------|
A|--------|--------|--------|--------|--------|--------|--------|--------|--------|
E|--------|--------|--------|--------|--------|--------|--------|--------|--------|


E|--------|--------|--------|--------|--------|--------|--------|--------|--------|
B|--------|--------|--------|--------|--------|--------|--------|--------|--------|
G|--------|--------|--------|--------|--------|--------|--------|--------|--------|
D|--------|--------|--------|--------|--------|--------|--------|--------|--------|
A|--------|--------|--------|--------|--------|--------|--------|--------|--------|
E|--------|--------|--------|--------|--------|--------|--------|--------|--------|


E|--------|--------|--------|--------|--------|--------|--------|--------|--------|
B|--------|--------|--------|--------|--------|--------|--------|--------|--------|
G|--------|--------|--------|--------|--------|--------|--------|--------|--------|
D|--------|--------|--------|--------|--------|--------|--------|--------|--------|
A|--------|--------|--------|--------|--------|--------|--------|--------|--------|
E|--------|--------|--------|--------|--------|--------|--------|--------|--------|


E|--------|--------|--------|--------|--------|--------|--------|--------|--------|
B|--------|--------|--------|--------|--------|--------|--------|--------|--------|
G|--------|--------|--------|--------|--------|--------|--------|--------|--------|
D|--------|--------|--------|--------|--------|--------|--------|--------|--------|
A|--------|--------|--------|--------|--------|--------|--------|--------|--------|
E|--------|--------|--------|--------|--------|--------|--------|--------|--------|


E|--------|--------|--------|--------|--------|--------|--------|--------|--------|
B|--------|--------|--------|--------|--------|--------|--------|--------|--------|
G|--------|--------|--------|--------|--------|--------|--------|--------|--------|
D|--------|--------|--------|--------|--------|--------|--------|--------|--------|
A|--------|--------|--------|--------|--------|--------|--------|--------|--------|
E|--------|--------|--------|--------|--------|--------|--------|--------|--------|


E|--------|--------|--------|--------|--------|--------|--------|--------|--------|
B|--------|--------|--------|--------|--------|--------|--------|--------|--------|
G|--------|--------|--------|--------|--------|--------|--------|--------|--------|
D|--------|--------|--------|--------|--------|--------|--------|--------|--------|
A|--------|--------|--------|--------|--------|--------|--------|--------|--------|
E|--------|--------|--------|--------|--------|--------|--------|--------|--------|


E|--------|--------|--------|--------|--------|--------|--------|--------|--------|
B|--------|--------|--------|--------|--------|--------|--------|--------|--------|
G|--------|--------|--------|--------|--------|--------|--------|--------|--------|
D|--------|--------|--------|--------|--------|--------|--------|--------|--------|
A|--------|--------|--------|--------|--------|--------|--------|--------|--------|
E|--------|--------|--------|--------|--------|--------|--------|--------|--------|


E|--------|--------|--------|--------|--------|--------|--------|--------|--------|
B|--------|--------|--------|--------|--------|--------|--------|--------|--------|
G|--------|--------|--------|--------|--------|--------|--------|--------|--------|
D|--------|--------|--------|--------|--------|--------|--------|--------|--------|
A|--------|--------|--------|--------|--------|--------|--------|--------|--------|
E|--------|--------|--------|--------|--------|--------|--------|--------|--------|


E|--------|--------|--------|--------|--------|--------|--------|--------|--------|
B|--------|--------|--------|--------|--------|--------|--------|--------|--------|
G|--------|--------|--------|--------|--------|--------|--------|--------|--------|
D|--------|--------|--------|--------|--------|--------|--------|--------|--------|
A|--------|--------|--------|--------|--------|--------|--------|--------|--------|
E|--------|--------|--------|--------|--------|--------|--------|--------|--------|


E|--------|--------|--------|--------|--------|--------|--------|--------|--------|
B|--------|--------|--------|--------|--------|--------|--------|--------|--------|
G|--------|--------|--------|--------|--------|--------|--------|--------|--------|
D|--------|--------|--------|--------|--------|--------|--------|--------|--------|
A|--------|--------|--------|--------|--------|--------|--------|--------|--------|
E|--------|--------|--------|--------|--------|--------|--------|--------|--------|


E|--------|--------|--------|---------------------------|------------------------|
B|--------|--------|--------|-5---3---5---------5---3---|-5---------5---3---5----|
G|--------|--------|--------|---------------------------|------------------------|
D|--------|--------|--------|---------------------------|------------------------|
A|--------|--------|--------|---------------------------|------------------------|
E|--------|--------|--------|---------------------------|------------------------|


E|---------------------------|------------------------|---------------------------|
B|-5---3---5---------5---3---|-5---------5---3---5----|-5---3---5---------5---3---|
G|---------------------------|------------------------|---------------------------|
D|---------------------------|------------------------|---------------------------|
A|---------------------------|------------------------|---------------------------|
E|---------------------------|------------------------|---------------------------|


E|------------------------|---------------------------|-------------|
B|-5---------5---3---5----|-5---3---5---------5---3---|-5-----------|
G|------------------------|---------------------------|-------------|
D|------------------------|---------------------------|-------------|
A|------------------------|---------------------------|-------------|
E|------------------------|---------------------------|-------------|





Track 7: piano

E|--------|--------|--------|--------|--------|--------|--------|--------|--------|
B|--------|--------|--------|--------|--------|--------|--------|--------|--------|
G|--------|--------|--------|--------|--------|--------|--------|--------|--------|
D|--------|--------|--------|--------|--------|--------|--------|--------|--------|
A|--------|--------|--------|--------|--------|--------|--------|--------|--------|
E|--------|--------|--------|--------|--------|--------|--------|--------|--------|


E|--------|--------|--------|--------|--------|--------|--------|--------|--------|
B|--------|--------|--------|--------|--------|--------|--------|--------|--------|
G|--------|--------|--------|--------|--------|--------|--------|--------|--------|
D|--------|--------|--------|--------|--------|--------|--------|--------|--------|
A|--------|--------|--------|--------|--------|--------|--------|--------|--------|
E|--------|--------|--------|--------|--------|--------|--------|--------|--------|


E|--------|--------|--------|--------|--------|--------|--------|--------|--------|
B|--------|--------|--------|--------|--------|--------|--------|--------|--------|
G|--------|--------|--------|--------|--------|--------|--------|--------|--------|
D|--------|--------|--------|--------|--------|--------|--------|--------|--------|
A|--------|--------|--------|--------|--------|--------|--------|--------|--------|
E|--------|--------|--------|--------|--------|--------|--------|--------|--------|


E|--------|--------|--------|--------|--------|--------|--------|--------|--------|
B|--------|--------|--------|--------|--------|--------|--------|--------|--------|
G|--------|--------|--------|--------|--------|--------|--------|--------|--------|
D|--------|--------|--------|--------|--------|--------|--------|--------|--------|
A|--------|--------|--------|--------|--------|--------|--------|--------|--------|
E|--------|--------|--------|--------|--------|--------|--------|--------|--------|


E|--------|--------|--------|--------|--------|--------|--------|--------|--------|
B|--------|--------|--------|--------|--------|--------|--------|--------|--------|
G|--------|--------|--------|--------|--------|--------|--------|--------|--------|
D|--------|--------|--------|--------|--------|--------|--------|--------|--------|
A|--------|--------|--------|--------|--------|--------|--------|--------|--------|
E|--------|--------|--------|--------|--------|--------|--------|--------|--------|


E|--------|--------|--------|--------|--------|--------|--------|--------|--------|
B|--------|--------|--------|--------|--------|--------|--------|--------|--------|
G|--------|--------|--------|--------|--------|--------|--------|--------|--------|
D|--------|--------|--------|--------|--------|--------|--------|--------|--------|
A|--------|--------|--------|--------|--------|--------|--------|--------|--------|
E|--------|--------|--------|--------|--------|--------|--------|--------|--------|


E|--------|--------|--------|--------|--------|--------|--------|--------|--------|
B|--------|--------|--------|--------|--------|--------|--------|--------|--------|
G|--------|--------|--------|--------|--------|--------|--------|--------|--------|
D|--------|--------|--------|--------|--------|--------|--------|--------|--------|
A|--------|--------|--------|--------|--------|--------|--------|--------|--------|
E|--------|--------|--------|--------|--------|--------|--------|--------|--------|


E|--------|--------|--------|--------|--------|--------|--------|--------|--------|
B|--------|--------|--------|--------|--------|--------|--------|--------|--------|
G|--------|--------|--------|--------|--------|--------|--------|--------|--------|
D|--------|--------|--------|--------|--------|--------|--------|--------|--------|
A|--------|--------|--------|--------|--------|--------|--------|--------|--------|
E|--------|--------|--------|--------|--------|--------|--------|--------|--------|


E|--------|--------|--------|--------|--------|--------|--------|--------|--------|
B|--------|--------|--------|--------|--------|--------|--------|--------|--------|
G|--------|--------|--------|--------|--------|--------|--------|--------|--------|
D|--------|--------|--------|--------|--------|--------|--------|--------|--------|
A|--------|--------|--------|--------|--------|--------|--------|--------|--------|
E|--------|--------|--------|--------|--------|--------|--------|--------|--------|


E|--------|--------|--------|--------|--------|--------|--------|--------|--------|
B|--------|--------|--------|--------|--------|--------|--------|--------|--------|
G|--------|--------|--------|--------|--------|--------|--------|--------|--------|
D|--------|--------|--------|--------|--------|--------|--------|--------|--------|
A|--------|--------|--------|--------|--------|--------|--------|--------|--------|
E|--------|--------|--------|--------|--------|--------|--------|--------|--------|


E|--------|--------|--------|--------|--------|--------|--------|--------|--------|
B|--------|--------|--------|--------|--------|--------|--------|--------|--------|
G|--------|--------|--------|--------|--------|--------|--------|--------|--------|
D|--------|--------|--------|--------|--------|--------|--------|--------|--------|
A|--------|--------|--------|--------|--------|--------|--------|--------|--------|
E|--------|--------|--------|--------|--------|--------|--------|--------|--------|


E|--------|--------|--------|--------|--------|--------|--------|--------|--------|
B|--------|--------|--------|--------|--------|--------|--------|--------|--------|
G|--------|--------|--------|--------|--------|--------|--------|--------|--------|
D|--------|--------|--------|--------|--------|--------|--------|--------|--------|
A|--------|--------|--------|--------|--------|--------|--------|--------|--------|
E|--------|--------|--------|--------|--------|--------|--------|--------|--------|


E|--------|--------|--------|--------|--------|--------|--------|--------|--------|
B|--------|--------|--------|--------|--------|--------|--------|--------|--------|
G|--------|--------|--------|--------|--------|--------|--------|--------|--------|
D|--------|--------|--------|--------|--------|--------|--------|--------|--------|
A|--------|--------|--------|--------|--------|--------|--------|--------|--------|
E|--------|--------|--------|--------|--------|--------|--------|--------|--------|


E|--------|--------|--------|--------|--------|--------|--------|--------|--------|
B|--------|--------|--------|--------|--------|--------|--------|--------|--------|
G|--------|--------|--------|--------|--------|--------|--------|--------|--------|
D|--------|--------|--------|--------|--------|--------|--------|--------|--------|
A|--------|--------|--------|--------|--------|--------|--------|--------|--------|
E|--------|--------|--------|--------|--------|--------|--------|--------|--------|


E|--------|--------|--------|--------|--------|--------|--------|--------|--------|
B|--------|--------|--------|--------|--------|--------|--------|--------|--------|
G|--------|--------|--------|--------|--------|--------|--------|--------|--------|
D|--------|--------|--------|--------|--------|--------|--------|--------|--------|
A|--------|--------|--------|--------|--------|--------|--------|--------|--------|
E|--------|--------|--------|--------|--------|--------|--------|--------|--------|


E|--------|--------|--------|--------|--------|--------|--------|--------|--------|
B|--------|--------|--------|--------|--------|--------|--------|--------|--------|
G|--------|--------|--------|--------|--------|--------|--------|--------|--------|
D|--------|--------|--------|--------|--------|--------|--------|--------|--------|
A|--------|--------|--------|--------|--------|--------|--------|--------|--------|
E|--------|--------|--------|--------|--------|--------|--------|--------|--------|


E|--------|--------|--------|--------|--------|--------|--------|--------|--------|
B|--------|--------|--------|--------|--------|--------|--------|--------|--------|
G|--------|--------|--------|--------|--------|--------|--------|--------|--------|
D|--------|--------|--------|--------|--------|--------|--------|--------|--------|
A|--------|--------|--------|--------|--------|--------|--------|--------|--------|
E|--------|--------|--------|--------|--------|--------|--------|--------|--------|


E|--------|--------|--------|--------|--------|--------|--------|--------|--------|
B|--------|--------|--------|--------|--------|--------|--------|--------|--------|
G|--------|--------|--------|--------|--------|--------|--------|--------|--------|
D|--------|--------|--------|--------|--------|--------|--------|--------|--------|
A|--------|--------|--------|--------|--------|--------|--------|--------|--------|
E|--------|--------|--------|--------|--------|--------|--------|--------|--------|


E|--------|--------|--------|--------|--------|--------|--------|--------|--------|
B|--------|--------|--------|--------|--------|--------|--------|--------|--------|
G|--------|--------|--------|--------|--------|--------|--------|--------|--------|
D|--------|--------|--------|--------|--------|--------|--------|--------|--------|
A|--------|--------|--------|--------|--------|--------|--------|--------|--------|
E|--------|--------|--------|--------|--------|--------|--------|--------|--------|


E|--------|--------|--------|--------|--------|--------|--------|--------|--------|
B|--------|--------|--------|--------|--------|--------|--------|--------|--------|
G|--------|--------|--------|--------|--------|--------|--------|--------|--------|
D|--------|--------|--------|--------|--------|--------|--------|--------|--------|
A|--------|--------|--------|--------|--------|--------|--------|--------|--------|
E|--------|--------|--------|--------|--------|--------|--------|--------|--------|


E|--------|--------|--------|--------|--------|--------|--------|--------|--------|
B|--------|--------|--------|--------|--------|--------|--------|--------|--------|
G|--------|--------|--------|--------|--------|--------|--------|--------|--------|
D|--------|--------|--------|--------|--------|--------|--------|--------|--------|
A|--------|--------|--------|--------|--------|--------|--------|--------|--------|
E|--------|--------|--------|--------|--------|--------|--------|--------|--------|


E|--------|--------|--------|--------|--------|--------|--------|--------|--------|
B|--------|--------|--------|--------|--------|--------|--------|--------|--------|
G|--------|--------|--------|--------|--------|--------|--------|--------|--------|
D|--------|--------|--------|--------|--------|--------|--------|--------|--------|
A|--------|--------|--------|--------|--------|--------|--------|--------|--------|
E|--------|--------|--------|--------|--------|--------|--------|--------|--------|


E|--------|--------|--------|--------|--------|--------|--------|--------|--------|
B|--------|--------|--------|--------|--------|--------|--------|--------|--------|
G|--------|--------|--------|--------|--------|--------|--------|--------|--------|
D|--------|--------|--------|--------|--------|--------|--------|--------|--------|
A|--------|--------|--------|--------|--------|--------|--------|--------|--------|
E|--------|--------|--------|--------|--------|--------|--------|--------|--------|


E|--------|--------|--------|-8------------------|-8----------------------|--------------------------|
B|--------|--------|--------|-10-----------------|-10---------------------|--------------------------|
G|--------|--------|--------|-9------------------|-9------------17---21---|-19---19--21-19-17---19---|
D|--------|--------|--------|-------19---19--17--|-19--17--19-------------|--------------------------|
A|--------|--------|--------|--------------------|------------------------|--------------------------|
E|--------|--------|--------|--------------------|------------------------|--------------------------|


E|-------------|--------------------|------------------------|--------------------------|
B|-------------|--------------------|------------------------|--------------------------|
G|-19---21-----|-21-----------------|--------------17---21---|-19---19--21-19-17---19---|
D|-------------|-------19---19--17--|-19--17--19-------------|--------------------------|
A|-------------|--------------------|------------------------|--------------------------|
E|-------------|--------------------|------------------------|--------------------------|


E|--------|
B|--------|
G|-19-----|
D|--------|
A|--------|
E|--------|





Track 8: Untitled

G|--------|--------|--------|--------|--------|--------|--------|--------|---------------------------|
D|--------|--------|--------|--------|--------|--------|--------|--------|---------------------------|
A|--------|--------|--------|--------|--------|--------|--------|--------|---------------------------|
E|--------|--------|--------|--------|--------|--------|--------|--------|-5----5---5---5----5---5---|


G|---------------------------|---------------------------|---------------------------|
D|---------------------------|---------------------------|---------------------------|
A|---------------------------|---------------------------|---------------------------|
E|-5----5---5---5----5---5---|-7----7---7---7----7---7---|-7----7---7---7----7---7---|


G|---------------------------|---------------------------|---------------------------|
D|---------------------------|---------------------------|---------------------------|
A|-3----3---3---3----3---3---|---------------------------|---------------------------|
E|---------------------------|-7----7---7---7----7---7---|-5----5---5---5----5---5---|


G|---------------------------|---------------------------|---------------------------|
D|---------------------------|---------------------------|---------------------------|
A|---------------------------|---------------------------|---------------------------|
E|-5----5---5---5----5---5---|-5----5---5---5----5---5---|-5----5---5---5----5---5---|


G|---------------------------|---------------------------|---------------------------|
D|---------------------------|---------------------------|---------------------------|
A|---------------------------|---------------------------|-3----3---3---3----3---3---|
E|-7----7---7---7----7---7---|-7----7---7---7----7---7---|---------------------------|


G|---------------------------|---------------------------|---------------------------|
D|---------------------------|---------------------------|---------------------------|
A|---------------------------|---------------------------|---------------------------|
E|-7----7---7---7----7---7---|-5----5---5---5----5---5---|-5----5---5---5----5---5---|


G|---------------------------|---------------------------|---------------------------|
D|---------------------------|---------------------------|---------------------------|
A|-4----4---4---4----4---4---|-4----4---4---4----4---4---|-5----5---5---5----5---5---|
E|---------------------------|---------------------------|---------------------------|


G|---------------------------|---------------------------|---------------------------|
D|---------------------------|---------------------------|---------------------------|
A|-5----5---5---5----5---5---|-7----7---7---7----7---7---|-6----6---6---6----6---6---|
E|---------------------------|---------------------------|---------------------------|


G|---------------------------|---------------------------|---------------------------|
D|---------------------------|---------------------------|---------------------------|
A|-4----4---4---4----4---4---|-4----4---4---4----4---4---|-4----4---4---4----4---4---|
E|---------------------------|---------------------------|---------------------------|


G|---------------------------|---------------------------|---------------------------|
D|---------------------------|---------------------------|---------------------------|
A|-4----4---4---4----4---4---|-5----5---5---5----5---5---|-5----5---5---5----5---5---|
E|---------------------------|---------------------------|---------------------------|


G|---------------------------|---------------------------|---------------------------|
D|---------------------------|---------------------------|---------------------------|
A|-7----7---7---7----7---7---|-6----6---6---6----6---6---|-4----4---4---4----4---4---|
E|---------------------------|---------------------------|---------------------------|


G|---------------------------|---------------------|---------------------|---------------------|
D|---------------------------|-0----2----3----2----|-5----2----3----0----|-0----3----2----3----|
A|-4----4---4---4----4---4---|---------------------|---------------------|---------------------|
E|---------------------------|---------------------|---------------------|---------------------|


G|-------------|---------------------|---------------------|---------------------|
D|-0-----0-----|-0----2----3----2----|-5----2----3----0----|-0----3----2----3----|
A|-------------|---------------------|---------------------|---------------------|
E|-------------|---------------------|---------------------|---------------------|


G|-------------|---------------------|-3-------------------|---------------------|
D|-0-----0-----|-3----5----7----5----|------5----7----3----|-3----7----5----2----|
A|-------------|---------------------|---------------------|---------------------|
E|-------------|---------------------|---------------------|---------------------|


G|-------------------------------|---------------------|---------------------|---------------------|
D|-3----2---3---2---0---2--------|-0----2----3----2----|-5----2----3----0----|-0----3----2----3----|
A|--------------------------3----|---------------------|---------------------|---------------------|
E|-------------------------------|---------------------|---------------------|---------------------|


G|-------------|---------------------|---------------------|---------------------|
D|-0-----0-----|-3----2----0----5----|-3----0----7----5----|-0----10---7----0----|
A|-------------|---------------------|---------------------|---------------------|
E|-------------|---------------------|---------------------|---------------------|


G|---------------------|---------------------|---------------------|---------------------|
D|-12---10---0----14---|-12---0----12---10---|------10--------0----|-0--------------0----|
A|---------------------|---------------------|-12--------12--------|------12---12--------|
E|---------------------|---------------------|---------------------|---------------------|


G|---------------------|-------------------------------|---------------------|---------------------|
D|------0----2----5----|-3----2---3---2---0---2--------|-0----2----3----2----|-5----2----3----0----|
A|-3-------------------|--------------------------3----|---------------------|---------------------|
E|---------------------|-------------------------------|---------------------|---------------------|


G|--------|--------|--------|--------|--------|--------|--------|--------|--------|
D|-0------|--------|--------|--------|--------|--------|--------|--------|--------|
A|--------|--------|--------|--------|--------|--------|--------|--------|--------|
E|--------|--------|--------|--------|--------|--------|--------|--------|--------|


G|--------|--------|--------|--------|--------|--------|--------|--------|--------|
D|--------|--------|--------|--------|--------|--------|--------|--------|--------|
A|--------|--------|--------|--------|--------|--------|--------|--------|--------|
E|--------|--------|--------|--------|--------|--------|--------|--------|--------|


G|--------|--------|--------|--------|--------|--------|--------|--------|--------|
D|--------|--------|--------|--------|--------|--------|--------|--------|--------|
A|--------|--------|--------|--------|--------|--------|--------|--------|--------|
E|--------|--------|--------|--------|--------|--------|--------|--------|--------|


G|--------|--------|--------|--------|--------|--------|--------|--------|--------|
D|--------|--------|--------|--------|--------|--------|--------|--------|--------|
A|--------|--------|--------|--------|--------|--------|--------|--------|--------|
E|--------|--------|--------|--------|--------|--------|--------|--------|--------|


G|--------|--------|--------|--------|--------|--------|--------|--------|--------|
D|--------|--------|--------|--------|--------|--------|--------|--------|--------|
A|--------|--------|--------|--------|--------|--------|--------|--------|--------|
E|--------|--------|--------|--------|--------|--------|--------|--------|--------|


G|--------|--------|--------|--------|--------|--------|--------|--------|--------|
D|--------|--------|--------|--------|--------|--------|--------|--------|--------|
A|--------|--------|--------|--------|--------|--------|--------|--------|--------|
E|--------|--------|--------|--------|--------|--------|--------|--------|--------|


G|--------|--------|-------------|-------------|-------------|-----------------|---------------------|
D|--------|--------|-------------|-------------|-------------|-----------------|---------------------|
A|--------|--------|-------------|-------------|-------------|-----------------|---------------------|
E|--------|--------|-------------|-------7-----|-------7-----|-7-----7----7----|-7----7----7----7----|


G|-------------|-------------|-----------------|---------------------|-------------|
D|-------------|-------------|-----------------|---------------------|-------------|
A|-------------|-------------|-----------------|---------------------|-------------|
E|-------7-----|-------7-----|-9-----9----9----|-9----9----9----9----|-------9-----|


G|-------------|-----------------|---------------------|---------------------|-------------|
D|-------------|-----------------|---------------------|---------------------|-11----17----|
A|-------------|-----------------|---------------------|---------------------|-4-----11----|
E|-------9-----|-9-----9----9----|-9----9----9----9----|-9----9----9----9----|-9-----15----|


G|-------------|-------------|-------------|-------------|-------------|-------------|
D|-------23----|-------------|-------------|-------------|-------------|-------------|
A|-------16----|-------------|-------------|-------------|-------------|-------------|
E|-------21----|-------------|-------------|-------------|-------------|-------------|


G|-------------|-------------|-------------|-------------|-------------|-------------|
D|-------------|-------------|-------------|-------------|-------------|-------------|
A|-------------|-------------|-------------|-------------|-------------|-------------|
E|-------------|-------------|-------------|-------------|-------------|-------------|


G|-------------|-------------|-------------|-------------|-------------|---------------------------|
D|-------------|-------------|-------------|-------------|-------------|-7----7---5---7---5---7----|
A|-------------|-------------|-------------|-------------|-------------|---------------------------|
E|-------------|-------------|-------------|-------------|-------------|---------------------------|


G|-5----9----7----7---9--7--|-5----7----7----9----|-------9-----|---------------------------|
D|--------------------------|---------------------|-------------|-7----7---5---7---5---7----|
A|--------------------------|---------------------|-------------|---------------------------|
E|--------------------------|---------------------|-------------|---------------------------|


G|-5----9----7----7---9--7--|-5----7----7-----|-------7-----|---------------------------|
D|--------------------------|-----------------|-------------|-7----7---5---7---5---7----|
A|--------------------------|-----------------|-------------|---------------------------|
E|--------------------------|-----------------|-------------|---------------------------|


G|-5----9----7----7---9--7--|-5----7----7----9----|-------9-----|---------------------------|
D|--------------------------|---------------------|-------------|-7----7---5---7---5---7----|
A|--------------------------|---------------------|-------------|---------------------------|
E|--------------------------|---------------------|-------------|---------------------------|


G|-5----9----7----7---9--7--|-5----7----7-----|--------|--------|--------|--------|
D|--------------------------|-----------------|--------|--------|--------|--------|
A|--------------------------|-----------------|--------|--------|--------|--------|
E|--------------------------|-----------------|--------|--------|--------|--------|


G|--------|--------|--------|--------|--------|--------|--------|--------|--------|
D|--------|--------|--------|--------|--------|--------|--------|--------|--------|
A|--------|--------|--------|--------|--------|--------|--------|--------|--------|
E|--------|--------|--------|--------|--------|--------|--------|--------|--------|


G|--------|--------|--------|--------|--------|--------|--------|--------|--------|
D|--------|--------|--------|--------|--------|--------|--------|--------|--------|
A|--------|--------|--------|--------|--------|--------|--------|--------|--------|
E|--------|--------|--------|--------|--------|--------|--------|--------|--------|


G|--------|--------|--------|--------|--------|--------|--------|--------|--------|
D|--------|--------|--------|--------|--------|--------|--------|--------|--------|
A|--------|--------|--------|--------|--------|--------|--------|--------|--------|
E|--------|--------|--------|--------|--------|--------|--------|--------|--------|


G|--------|--------|--------|--------|--------|--------|--------|--------|--------|
D|--------|--------|--------|--------|--------|--------|--------|--------|--------|
A|--------|--------|--------|--------|--------|--------|--------|--------|--------|
E|--------|--------|--------|--------|--------|--------|--------|--------|--------|


G|--------|--------|--------|--------|--------|--------|--------|--------|
D|--------|--------|--------|--------|--------|--------|--------|--------|
A|--------|--------|--------|--------|--------|--------|--------|--------|
E|--------|--------|--------|--------|--------|--------|--------|--------|