Menu:

 

Search:

 

mike oldfield - tubular bells pt 1 part 1 of 4:

 



Title: Tubular Bells, pt 1
Artist: 
Album: Tubular Bells
Author: Mike Oldfield


Track 1: Grand Piano

E|-----17------19------15--17------|-20------22------19--20------17--|-----19------15--17------20------|
B|-17------17------17----------17--|-----17------17----------17------|-17------17----------17------17--|
G|---------------------------------|---------------------------------|---------------------------------|
D|---------------------------------|---------------------------------|---------------------------------|
A|---------------------------------|---------------------------------|---------------------------------|
E|---------------------------------|---------------------------------|---------------------------------|


E|-22------19--20------19------17--|-----19------15--17------20------|-22------19--20------17------19--|
B|-----17----------17------17------|-17------17----------17------17--|-----17----------17------17------|
G|---------------------------------|---------------------------------|---------------------------------|
D|---------------------------------|---------------------------------|---------------------------------|
A|---------------------------------|---------------------------------|---------------------------------|
E|---------------------------------|---------------------------------|---------------------------------|


E|-----15--17------20------22------|-19--20------19------17------19--|-----15--17------20------22------|
B|-17----------17------17------17--|---------17------17------17------|-17----------17------17------17--|
G|---------------------------------|---------------------------------|---------------------------------|
D|---------------------------------|---------------------------------|---------------------------------|
A|---------------------------------|---------------------------------|---------------------------------|
E|---------------------------------|---------------------------------|---------------------------------|


E|-19--20------17------19------15--|-17------20------22------19--20--|-----19------17------19------15--|
B|---------17------17------17------|-----17------17------17----------|-17------17------17------17------|
G|---------------------------------|---------------------------------|---------------------------------|
D|---------------------------------|---------------------------------|---------------------------------|
A|---------------------------------|---------------------------------|---------------------------------|
E|---------------------------------|---------------------------------|---------------------------------|


E|-17------20------22------19--20--|-----17------19------15--17------|-20------22------19--20------19--|
B|-----17------17------17----------|-17------17------17----------17--|-----17------17----------17------|
G|---------------------------------|---------------------------------|---------------------------------|
D|---------------------------------|---------------------------------|---------------------------------|
A|---------------------------------|---------------------------------|---------------------------------|
E|---------------------------------|---------------------------------|---------------------------------|


E|-----17------19------15--17------|-20------22------19--20------17--|-----19------15--17------20------|
B|-17------17------17----------17--|-----17------17----------17------|-17------17----------17------17--|
G|---------------------------------|---------------------------------|---------------------------------|
D|---------------------------------|---------------------------------|---------------------------------|
A|---------------------------------|---------------------------------|---------------------------------|
E|---------------------------------|---------------------------------|---------------------------------|


E|-22------19--20------19------17--|-----19------15--17------20------|-22------19--20------17------19--|
B|-----17----------17------17------|-17------17----------17------17--|-----17----------17------17------|
G|---------------------------------|---------------------------------|---------------------------------|
D|---------------------------------|---------------------------------|---------------------------------|
A|---------------------------------|---------------------------------|---------------------------------|
E|---------------------------------|---------------------------------|---------------------------------|


E|-----15--17------20------22------|-19--20------19------17------19--|-----15--17------20------22------|
B|-17----------17------17------17--|---------17------17------17------|-17----------17------17------17--|
G|---------------------------------|---------------------------------|---------------------------------|
D|---------------------------------|---------------------------------|---------------------------------|
A|---------------------------------|---------------------------------|---------------------------------|
E|---------------------------------|---------------------------------|---------------------------------|


E|-19--20------17------19------15--|-17------20------22------19--20--|-----19------17------19------15--|
B|---------17------17------17------|-----17------17------17----------|-17------17------17------17------|
G|---------------------------------|---------------------------------|---------------------------------|
D|---------------------------------|---------------------------------|---------------------------------|
A|---------------------------------|---------------------------------|---------------------------------|
E|---------------------------------|---------------------------------|---------------------------------|


E|-17------20------22------19--20--|-----17------19------15--17------|-20------22------19--20------19--|
B|-----17------17------17----------|-17------17------17----------17--|-----17------17----------17------|
G|---------------------------------|---------------------------------|---------------------------------|
D|---------------------------------|---------------------------------|---------------------------------|
A|---------------------------------|---------------------------------|---------------------------------|
E|---------------------------------|---------------------------------|---------------------------------|


E|-----17------19------15--17------|-20------22------19--20------17--|-----19------15--17------20------|
B|-17------17------17----------17--|-----17------17----------17------|-17------17----------17------17--|
G|---------------------------------|---------------------------------|---------------------------------|
D|---------------------------------|---------------------------------|---------------------------------|
A|---------------------------------|---------------------------------|---------------------------------|
E|---------------------------------|---------------------------------|---------------------------------|


E|-22------19--20------19------17--|-----19------15--17------20------|-22------19--20------17------19--|
B|-----17----------17------17------|-17------17----------17------17--|-----17----------17------17------|
G|---------------------------------|---------------------------------|---------------------------------|
D|---------------------------------|---------------------------------|---------------------------------|
A|---------------------------------|---------------------------------|---------------------------------|
E|---------------------------------|---------------------------------|---------------------------------|


E|-----15--17------20------22------|-19--20------19------17------19--|-----15--17------20------22------|
B|-17----------17------17------17--|---------17------17------17------|-17----------17------17------17--|
G|---------------------------------|---------------------------------|---------------------------------|
D|---------------------------------|---------------------------------|---------------------------------|
A|---------------------------------|---------------------------------|---------------------------------|
E|---------------------------------|---------------------------------|---------------------------------|


E|-19--20------17------19------15--|-17------20------22------19--20--|-----19------17------19------15--|
B|---------17------17------17------|-----17------17------17----------|-17------17------17------17------|
G|---------------------------------|---------------------------------|---------------------------------|
D|---------------------------------|---------------------------------|---------------------------------|
A|---------------------------------|---------------------------------|---------------------------------|
E|---------------------------------|---------------------------------|---------------------------------|


E|-17------20------22------19--20--|-----17------19------15--17------|-20------22------19--20------19--|
B|-----17------17------17----------|-17------17------17----------17--|-----17------17----------17------|
G|---------------------------------|---------------------------------|---------------------------------|
D|---------------------------------|---------------------------------|---------------------------------|
A|---------------------------------|---------------------------------|---------------------------------|
E|---------------------------------|---------------------------------|---------------------------------|


E|-----17------19------15--17------|-20------22------19--20------17--|-----19------15--17------20------|
B|-17------17------17----------17--|-----17------17----------17------|-17------17----------17------17--|
G|---------------------------------|---------------------------------|---------------------------------|
D|---------------------------------|---------------------------------|---------------------------------|
A|---------------------------------|---------------------------------|---------------------------------|
E|---------------------------------|---------------------------------|---------------------------------|


E|-22------19--20------19------17--|-----19------15--17------20------|-22------19--20------17------19--|
B|-----17----------17------17------|-17------17----------17------17--|-----17----------17------17------|
G|---------------------------------|---------------------------------|---------------------------------|
D|---------------------------------|---------------------------------|---------------------------------|
A|---------------------------------|---------------------------------|---------------------------------|
E|---------------------------------|---------------------------------|---------------------------------|


E|-----15--17------20------22------|-19--20------19------17------19--|-----15--17------20------22------|
B|-17----------17------17------17--|---------17------17------17------|-17----------17------17------17--|
G|---------------------------------|---------------------------------|---------------------------------|
D|---------------------------------|---------------------------------|---------------------------------|
A|---------------------------------|---------------------------------|---------------------------------|
E|---------------------------------|---------------------------------|---------------------------------|


E|-19--20------17------19------15--|-17------20------22------19--20--|-----19------17------19------15--|
B|---------17------17------17------|-----17------17------17----------|-17------17------17------17------|
G|---------------------------------|---------------------------------|---------------------------------|
D|---------------------------------|---------------------------------|---------------------------------|
A|---------------------------------|---------------------------------|---------------------------------|
E|---------------------------------|---------------------------------|---------------------------------|


E|-17------20------22------19--20--|-----17------19------15--17------|-20------22------19--20------19--|
B|-----17------17------17----------|-17------17------17----------17--|-----17------17----------17------|
G|---------------------------------|---------------------------------|---------------------------------|
D|---------------------------------|---------------------------------|---------------------------------|
A|---------------------------------|---------------------------------|---------------------------------|
E|---------------------------------|---------------------------------|---------------------------------|


E|-----17------19------15--17------|-20------22------19--20------17--|-----19------15--17------20------|
B|-17------17------17----------17--|-----17------17----------17------|-17------17----------17------17--|
G|---------------------------------|---------------------------------|---------------------------------|
D|---------------------------------|---------------------------------|---------------------------------|
A|---------------------------------|---------------------------------|---------------------------------|
E|---------------------------------|---------------------------------|---------------------------------|


E|-22------19--20------19------17--|-----19------15--17------20------|-22------19--20------17------19--|
B|-----17----------17------17------|-17------17----------17------17--|-----17----------17------17------|
G|---------------------------------|---------------------------------|---------------------------------|
D|---------------------------------|---------------------------------|---------------------------------|
A|---------------------------------|---------------------------------|---------------------------------|
E|---------------------------------|---------------------------------|---------------------------------|


E|-----15--17------20------22------|-19--20------19------17------19--|-----15--17------20------22------|
B|-17----------17------17------17--|---------17------17------17------|-17----------17------17------17--|
G|---------------------------------|---------------------------------|---------------------------------|
D|---------------------------------|---------------------------------|---------------------------------|
A|---------------------------------|---------------------------------|---------------------------------|
E|---------------------------------|---------------------------------|---------------------------------|


E|-19--20------17------19------15--|-17------20------22------19--20--|-----19------17------19------15--|
B|---------17------17------17------|-----17------17------17----------|-17------17------17------17------|
G|---------------------------------|---------------------------------|---------------------------------|
D|---------------------------------|---------------------------------|---------------------------------|
A|---------------------------------|---------------------------------|---------------------------------|
E|---------------------------------|---------------------------------|---------------------------------|


E|-17------20------22------19--20--|-----17------19------15--17------|-20------22------19--20------19--|
B|-----17------17------17----------|-17------17------17----------17--|-----17------17----------17------|
G|---------------------------------|---------------------------------|---------------------------------|
D|---------------------------------|---------------------------------|---------------------------------|
A|---------------------------------|---------------------------------|---------------------------------|
E|---------------------------------|---------------------------------|---------------------------------|


E|-----17------19------15--17------|-20------22------19--20------17--|-----19------15--17------20------|
B|-17------17------17----------17--|-----17------17----------17------|-17------17----------17------17--|
G|---------------------------------|---------------------------------|---------------------------------|
D|---------------------------------|---------------------------------|---------------------------------|
A|---------------------------------|---------------------------------|---------------------------------|
E|---------------------------------|---------------------------------|---------------------------------|


E|-22------19--20------19------17--|-----19------15--17------20------|-22------19--20------17------19--|
B|-----17----------17------17------|-17------17----------17------17--|-----17----------17------17------|
G|---------------------------------|---------------------------------|---------------------------------|
D|---------------------------------|---------------------------------|---------------------------------|
A|---------------------------------|---------------------------------|---------------------------------|
E|---------------------------------|---------------------------------|---------------------------------|


E|-----15--17------20------22------|-19--20------19------17------19--|-----15--17------20------22------|
B|-17----------17------17------17--|---------17------17------17------|-17----------17------17------17--|
G|---------------------------------|---------------------------------|---------------------------------|
D|---------------------------------|---------------------------------|---------------------------------|
A|---------------------------------|---------------------------------|---------------------------------|
E|---------------------------------|---------------------------------|---------------------------------|


E|-19--20------17------19------15--|-17------20------22------19--20--|-----19------17------19------15--|
B|---------17------17------17------|-----17------17------17----------|-17------17------17------17------|
G|---------------------------------|---------------------------------|---------------------------------|
D|---------------------------------|---------------------------------|---------------------------------|
A|---------------------------------|---------------------------------|---------------------------------|
E|---------------------------------|---------------------------------|---------------------------------|


E|-17------20------22------19--20--|-----17------19------15--17------|-20------22------19--20------19--|
B|-----17------17------17----------|-17------17------17----------17--|-----17------17----------17------|
G|---------------------------------|---------------------------------|---------------------------------|
D|---------------------------------|---------------------------------|---------------------------------|
A|---------------------------------|---------------------------------|---------------------------------|
E|---------------------------------|---------------------------------|---------------------------------|


E|-----17------19------15--17------|-20------22------19--20------17--|-----19------15--17------20------|
B|-17------17------17----------17--|-----17------17----------17------|-17------17----------17------17--|
G|---------------------------------|---------------------------------|---------------------------------|
D|---------------------------------|---------------------------------|---------------------------------|
A|---------------------------------|---------------------------------|---------------------------------|
E|---------------------------------|---------------------------------|---------------------------------|


E|-22------19--20------19------17--|-----19------15--17------20------|-22------19--20------17------19--|
B|-----17----------17------17------|-17------17----------17------17--|-----17----------17------17------|
G|---------------------------------|---------------------------------|---------------------------------|
D|---------------------------------|---------------------------------|---------------------------------|
A|---------------------------------|---------------------------------|---------------------------------|
E|---------------------------------|---------------------------------|---------------------------------|


E|-----15--17------20------22------|-19--20------19------17------19--|-----15--17------20------22------|
B|-17----------17------17------17--|---------17------17------17------|-17----------17------17------17--|
G|---------------------------------|---------------------------------|---------------------------------|
D|---------------------------------|---------------------------------|---------------------------------|
A|---------------------------------|---------------------------------|---------------------------------|
E|---------------------------------|---------------------------------|---------------------------------|


E|-19--20------17------19------15--|-17------20------22------19--20--|-----19------17------19------15--|
B|---------17------17------17------|-----17------17------17----------|-17------17------17------17------|
G|---------------------------------|---------------------------------|---------------------------------|
D|---------------------------------|---------------------------------|---------------------------------|
A|---------------------------------|---------------------------------|---------------------------------|
E|---------------------------------|---------------------------------|---------------------------------|


E|-17------20------22------19--20--|-----17------19------15--17------|-20------22------19--20------19--|
B|-----17------17------17----------|-17------17------17----------17--|-----17------17----------17------|
G|---------------------------------|---------------------------------|---------------------------------|
D|---------------------------------|---------------------------------|---------------------------------|
A|---------------------------------|---------------------------------|---------------------------------|
E|---------------------------------|---------------------------------|---------------------------------|


E|-----17------19------15--17------|-20------22------19--20------17--|-----19------15--17------20------|
B|-17------17------17----------17--|-----17------17----------17------|-17------17----------17------17--|
G|---------------------------------|---------------------------------|---------------------------------|
D|---------------------------------|---------------------------------|---------------------------------|
A|---------------------------------|---------------------------------|---------------------------------|
E|---------------------------------|---------------------------------|---------------------------------|


E|-22------19--20------19------17--|-----19------15--17------20------|-22------19--20------17------19--|
B|-----17----------17------17------|-17------17----------17------17--|-----17----------17------17------|
G|---------------------------------|---------------------------------|---------------------------------|
D|---------------------------------|---------------------------------|---------------------------------|
A|---------------------------------|---------------------------------|---------------------------------|
E|---------------------------------|---------------------------------|---------------------------------|


E|-----15--17------20------22------|-19--20------19------17------19--|-----15--17------20------22------|
B|-17----------17------17------17--|---------17------17------17------|-17----------17------17------17--|
G|---------------------------------|---------------------------------|---------------------------------|
D|---------------------------------|---------------------------------|---------------------------------|
A|---------------------------------|---------------------------------|---------------------------------|
E|---------------------------------|---------------------------------|---------------------------------|


E|-19--20------17------19------15--|-17------20------22------19--20--|-----19------17------19------15--|
B|---------17------17------17------|-----17------17------17----------|-17------17------17------17------|
G|---------------------------------|---------------------------------|---------------------------------|
D|---------------------------------|---------------------------------|---------------------------------|
A|---------------------------------|---------------------------------|---------------------------------|
E|---------------------------------|---------------------------------|---------------------------------|


E|-17------20------22------19--20--|-----17------19------15--17------|-20------22------19--20------19--|
B|-----17------17------17----------|-17------17------17----------17--|-----17------17----------17------|
G|---------------------------------|---------------------------------|---------------------------------|
D|---------------------------------|---------------------------------|---------------------------------|
A|---------------------------------|---------------------------------|---------------------------------|
E|---------------------------------|---------------------------------|---------------------------------|


E|-----17------19------15--17------|-20------22------19--20------17--|-----19------15--17------20------|
B|-17------17------17----------17--|-----17------17----------17------|-17------17----------17------17--|
G|---------------------------------|---------------------------------|---------------------------------|
D|---------------------------------|---------------------------------|---------------------------------|
A|---------------------------------|---------------------------------|---------------------------------|
E|---------------------------------|---------------------------------|---------------------------------|


E|-22------19--20------19------17--|-----19------15--17------20------|-22------19--20------17------19--|
B|-----17----------17------17------|-17------17----------17------17--|-----17----------17------17------|
G|---------------------------------|---------------------------------|---------------------------------|
D|---------------------------------|---------------------------------|---------------------------------|
A|---------------------------------|---------------------------------|---------------------------------|
E|---------------------------------|---------------------------------|---------------------------------|


E|-----15--17------20------22------|-19--20------19------17------19--|-----15--17------20------22------|
B|-17----------17------17------17--|---------17------17------17------|-17----------17------17------17--|
G|---------------------------------|---------------------------------|---------------------------------|
D|---------------------------------|---------------------------------|---------------------------------|
A|---------------------------------|---------------------------------|---------------------------------|
E|---------------------------------|---------------------------------|---------------------------------|


E|-19--20------17------19------15--|-17------20------22------19--20--|-----19------17------19------15--|
B|---------17------17------17------|-----17------17------17----------|-17------17------17------17------|
G|---------------------------------|---------------------------------|---------------------------------|
D|---------------------------------|---------------------------------|---------------------------------|
A|---------------------------------|---------------------------------|---------------------------------|
E|---------------------------------|---------------------------------|---------------------------------|


E|-17------20------22------19--20--|-----17------19------15--17------|-20------22------19--20------19--|
B|-----17------17------17----------|-17------17------17----------17--|-----17------17----------17------|
G|---------------------------------|---------------------------------|---------------------------------|
D|---------------------------------|---------------------------------|---------------------------------|
A|---------------------------------|---------------------------------|---------------------------------|
E|---------------------------------|---------------------------------|---------------------------------|


E|-----17------19------15--17------|-20------22------19--20------17--|-----19------15--17------20------|
B|-17------17------17----------17--|-----17------17----------17------|-17------17----------17------17--|
G|---------------------------------|---------------------------------|---------------------------------|
D|---------------------------------|---------------------------------|---------------------------------|
A|---------------------------------|---------------------------------|---------------------------------|
E|---------------------------------|---------------------------------|---------------------------------|


E|-22------19--20------19------17--|-----19------15--17------20------|-22------19--20------17------19--|
B|-----17----------17------17------|-17------17----------17------17--|-----17----------17------17------|
G|---------------------------------|---------------------------------|---------------------------------|
D|---------------------------------|---------------------------------|---------------------------------|
A|---------------------------------|---------------------------------|---------------------------------|
E|---------------------------------|---------------------------------|---------------------------------|


E|-----15--17------20------22------|-19--20------19------17------19--|-----15--17------20------22------|
B|-17----------17------17------17--|---------17------17------17------|-17----------17------17------17--|
G|---------------------------------|---------------------------------|---------------------------------|
D|---------------------------------|---------------------------------|---------------------------------|
A|---------------------------------|---------------------------------|---------------------------------|
E|---------------------------------|---------------------------------|---------------------------------|


E|-19--20------17------19------15--|-17------20------22------19--20--|-----19------17------19------15--|
B|---------17------17------17------|-----17------17------17----------|-17------17------17------17------|
G|---------------------------------|---------------------------------|---------------------------------|
D|---------------------------------|---------------------------------|---------------------------------|
A|---------------------------------|---------------------------------|---------------------------------|
E|---------------------------------|---------------------------------|---------------------------------|


E|-17------20------22------19--20--|-----17------19------15--17------|-20------22------19--20------19--|
B|-----17------17------17----------|-17------17------17----------17--|-----17------17----------17------|
G|---------------------------------|---------------------------------|---------------------------------|
D|---------------------------------|---------------------------------|---------------------------------|
A|---------------------------------|---------------------------------|---------------------------------|
E|---------------------------------|---------------------------------|---------------------------------|


E|----------------|--------|--------|--------|--------|--------|--------|--------|
B|-17-------------|--------|--------|--------|--------|--------|--------|--------|
G|----------------|--------|--------|--------|--------|--------|--------|--------|
D|----------------|--------|--------|--------|--------|--------|--------|--------|
A|----------------|--------|--------|--------|--------|--------|--------|--------|
E|----------------|--------|--------|--------|--------|--------|--------|--------|


E|--------|--------|--------|--------|--------|--------|--------|--------|--------|
B|--------|--------|--------|--------|--------|--------|--------|--------|--------|
G|--------|--------|--------|--------|--------|--------|--------|--------|--------|
D|--------|--------|--------|--------|--------|--------|--------|--------|--------|
A|--------|--------|--------|--------|--------|--------|--------|--------|--------|
E|--------|--------|--------|--------|--------|--------|--------|--------|--------|


E|--------|--------|--------|--------|--------|--------|--------|---------17------19------15--17--|
B|--------|--------|--------|--------|--------|--------|--------|-----17------17------17----------|
G|--------|--------|--------|--------|--------|--------|--------|---------------------------------|
D|--------|--------|--------|--------|--------|--------|--------|---------------------------------|
A|--------|--------|--------|--------|--------|--------|--------|---------------------------------|
E|--------|--------|--------|--------|--------|--------|--------|---------------------------------|


E|-----20------22------19--20------|-17------19------15--17------20--|-----22------19--20------19------|
B|-17------17------17----------17--|-----17------17----------17------|-17------17----------17------17--|
G|---------------------------------|---------------------------------|---------------------------------|
D|---------------------------------|---------------------------------|---------------------------------|
A|---------------------------------|---------------------------------|---------------------------------|
E|---------------------------------|---------------------------------|---------------------------------|


E|-17------19------15--17------20--|-----22------19--20------17------|-19------15--17------20------22--|
B|-----17------17----------17------|-17------17----------17------17--|-----17----------17------17------|
G|---------------------------------|---------------------------------|---------------------------------|
D|---------------------------------|---------------------------------|---------------------------------|
A|---------------------------------|---------------------------------|---------------------------------|
E|---------------------------------|---------------------------------|---------------------------------|


E|-----19--20------19------17------|-19------15--17------20------22--|-----19--20------17------19------|
B|-17----------17------17------17--|-----17----------17------17------|-17----------17------17------17--|
G|---------------------------------|---------------------------------|---------------------------------|
D|---------------------------------|---------------------------------|---------------------------------|
A|---------------------------------|---------------------------------|---------------------------------|
E|---------------------------------|---------------------------------|---------------------------------|


E|-15--17------20------22------19--|-20------19------17------19------|-15--17------20------22------19--|
B|---------17------17------17------|-----17------17------17------17--|---------17------17------17------|
G|---------------------------------|---------------------------------|---------------------------------|
D|---------------------------------|---------------------------------|---------------------------------|
A|---------------------------------|---------------------------------|---------------------------------|
E|---------------------------------|---------------------------------|---------------------------------|


E|-20------17------19------15--17--|-----20------22------19--20------|-19------17------19------15--17--|
B|-----17------17------17----------|-17------17------17----------17--|-----17------17------17----------|
G|---------------------------------|---------------------------------|---------------------------------|
D|---------------------------------|---------------------------------|---------------------------------|
A|---------------------------------|---------------------------------|---------------------------------|
E|---------------------------------|---------------------------------|---------------------------------|


E|-----20------22------19--20------|-17------19------15--17------20--|-----22------19--20------19------|
B|-17------17------17----------17--|-----17------17----------17------|-17------17----------17------17--|
G|---------------------------------|---------------------------------|---------------------------------|
D|---------------------------------|---------------------------------|---------------------------------|
A|---------------------------------|---------------------------------|---------------------------------|
E|---------------------------------|---------------------------------|---------------------------------|


E|-17------19------15--17------20--|-----22------19--20------17------|-19------15--17------20------22--|
B|-----17------17----------17------|-17------17----------17------17--|-----17----------17------17------|
G|---------------------------------|---------------------------------|---------------------------------|
D|---------------------------------|---------------------------------|---------------------------------|
A|---------------------------------|---------------------------------|---------------------------------|
E|---------------------------------|---------------------------------|---------------------------------|


E|-----19--20------19-----------|---------------------|---------------------|---------------------|
B|-17----------17------17--14---|---------------------|---------------------|---------------------|
G|------------------------------|---------------------|---------------------|---------------------|
D|------------------------------|----------------9----|----------------9----|----------------4----|
A|------------------------------|-----------9---------|-9---------9---------|-9---------4---------|
E|------------------------------|------7--------------|------7--------------|------2--------------|


E|---------------------|---------------------|---------------------|---------------------|
B|---------------------|---------------------|---------------------|---------------------|
G|----------------3----|---------------------|---------------------|---------------------|
D|------4--------------|----------------9----|----------------9----|----------------4----|
A|-4---------4---------|-4---------9---------|-9---------9---------|-9---------4---------|
E|---------------------|------7--------------|------7--------------|------2--------------|


E|---------------------|---------------------|---------------------|---------------------|
B|---------------------|---------------------|---------------------|---------------------|
G|----------------3----|---------------------|---------------------|---------------------|
D|------4--------------|----------------9----|----------------9----|----------------4----|
A|-4---------4---------|-4---------9---------|-9---------9---------|-9---------4---------|
E|---------------------|------7--------------|------7--------------|------2--------------|


E|---------------------|---------------------|---------------------|---------------------|
B|---------------------|---------------------|---------------------|---------------------|
G|----------------3----|---------------------|---------------------|---------------------|
D|------4--------------|----------------9----|----------------9----|----------------4----|
A|-4---------4---------|-4---------9---------|-9---------9---------|-9---------4---------|
E|---------------------|------7--------------|------7--------------|------2--------------|


E|---------------------|---------------------|---------------------|---------------------|
B|---------------------|---------------------|---------------------|---------------------|
G|----------------3----|---------------------|---------------------|---------------------|
D|------4--------------|----------------9----|----------------9----|----------------4----|
A|-4---------4---------|-4---------9---------|-9---------9---------|-9---------4---------|
E|---------------------|------7--------------|------7--------------|------2--------------|


E|---------------------|
B|---------------------|
G|---------------------|
D|------4--------------|
A|-4---------4---------|
E|---------------------|





Track 2: Piano

E|--------|--------|--------|--------|--------|--------|--------|--------|--------|
B|--------|--------|--------|--------|--------|--------|--------|--------|--------|
G|--------|--------|--------|--------|--------|--------|--------|--------|--------|
D|--------|--------|--------|--------|--------|--------|--------|--------|--------|
A|--------|--------|--------|--------|--------|--------|--------|--------|--------|
E|--------|--------|--------|--------|--------|--------|--------|--------|--------|


E|--------|--------|--------|--------|--------|--------|--------|--------|--------|
B|--------|--------|--------|--------|--------|--------|--------|--------|--------|
G|--------|--------|--------|--------|--------|--------|--------|--------|--------|
D|--------|--------|--------|--------|--------|--------|--------|--------|--------|
A|--------|--------|--------|--------|--------|--------|--------|--------|--------|
E|--------|--------|--------|--------|--------|--------|--------|--------|--------|


E|--------|--------|--------|--------|--------|--------|--------|--------|--------|
B|--------|--------|--------|--------|--------|--------|--------|--------|--------|
G|--------|--------|--------|--------|--------|--------|--------|--------|--------|
D|--------|--------|--------|--------|--------|--------|--------|--------|--------|
A|--------|--------|--------|--------|--------|--------|--------|--------|--------|
E|--------|--------|--------|--------|--------|--------|--------|--------|--------|


E|--------|--------|--------|--------|--------|--------|--------|--------|--------|
B|--------|--------|--------|--------|--------|--------|--------|--------|--------|
G|--------|--------|--------|--------|--------|--------|--------|--------|--------|
D|--------|--------|--------|--------|--------|--------|--------|--------|--------|
A|--------|--------|--------|--------|--------|--------|--------|--------|--------|
E|--------|--------|--------|--------|--------|--------|--------|--------|--------|


E|--------|-----------------|-----12-------------|--------------|-------------|-----------------|
B|--------|-----------------|-----13-------------|--------------|-------------|-----------------|
G|--------|-----------------|-----14-------------|--------------|-------------|-----------------|
D|--------|-----------------|--------------------|--------------|-------------|-----------------|
A|--------|-----------------|--------------------|--------------|-------------|-----------------|
E|--------|-----------------|--------------------|--------------|-------------|-----------------|


E|-------------|------------|--------|-----------12-------|------------|-------------|
B|-------------|------------|--------|-----------13-------|------------|-------------|
G|-------------|------------|--------|-----------14-------|------------|-------------|
D|-------------|------------|--------|--------------------|------------|-------------|
A|-------------|------------|--------|--------------------|------------|-------------|
E|-------------|------------|--------|--------------------|------------|-------------|


E|----------------|-------------|-----------------|-------------|-----------------|
B|----------------|-------------|-----------------|-------------|-----------------|
G|----------------|-------------|-----------------|-------------|-----------------|
D|----------------|-------------|-----------------|-------------|-----------------|
A|----------------|-------------|-----------------|-------------|-----------------|
E|----------------|-------------|-----------------|-------------|-----------------|


E|-----12-------------|--------------|-------------|-----------------|-------------|
B|-----13-------------|--------------|-------------|-----------------|-------------|
G|-----14-------------|--------------|-------------|-----------------|-------------|
D|--------------------|--------------|-------------|-----------------|-------------|
A|--------------------|--------------|-------------|-----------------|-------------|
E|--------------------|--------------|-------------|-----------------|-------------|


E|------------|--------|--------------------|------------------|--------------------|
B|------------|--------|-----13----13---13--|-------13---13----|-----12---12----12--|
G|------------|--------|-----14----14---14--|-------14---14----|-----12---12----12--|
D|------------|--------|--------------------|------------------|--------------------|
A|------------|--------|--------------------|------------------|--------------------|
E|------------|--------|--------------------|------------------|--------------------|


E|--------------------|------------------|--------------------|--------------------|
B|-----12----12---10--|-------10---10----|-----10---10----8---|-----8-----8----8---|
G|-----12----12---10--|-------10---10----|-----10---10----9---|-----9-----9----9---|
D|--------------------|------------------|--------------------|--------------------|
A|--------------------|------------------|--------------------|--------------------|
E|--------------------|------------------|--------------------|--------------------|


E|------------------|--------------------|--------------------|------------------|
B|-------8----6-----|-----6----6-----6---|-----6-----5----5---|-------5----5-----|
G|-------9----7-----|-----7----7-----7---|-----7-----5----5---|-------5----5-----|
D|------------------|--------------------|--------------------|------------------|
A|------------------|--------------------|--------------------|------------------|
E|------------------|--------------------|--------------------|------------------|


E|--------------------|--------------------|------------------|-----------------|----------------|
B|-----5----3-----3---|-----3-----3----3---|-------1----1-----|-------1---------|------------17--|
G|-----5----4-----4---|-----4-----4----4---|-------2----2-----|-------2---------|----------------|
D|--------------------|--------------------|------------------|-----------------|----------------|
A|--------------------|--------------------|------------------|-----------------|----------------|
E|--------------------|--------------------|------------------|-----------------|----------------|


E|-20------22------19--20-------|---------------20------|-22------19--20------19----------|
B|-----17------17---------------|-----------17------17--|-----17----------17------17--13--|
G|------------------------------|-----------------------|-----------------------------14--|
D|------------------------------|-----------------------|---------------------------------|
A|------------------------------|-----------------------|---------------------------------|
E|------------------------------|-----------------------|---------------------------------|


E|------------------|--------------------|--------------------|------------------|
B|-------13---13----|-----13---13----12--|-----12----12---12--|-------12---10----|
G|-------14---14----|-----14---14----12--|-----12----12---12--|-------12---10----|
D|------------------|--------------------|--------------------|------------------|
A|------------------|--------------------|--------------------|------------------|
E|------------------|--------------------|--------------------|------------------|


E|--------------------|--------------------|------------------|--------------------|
B|-----10---10----10--|-----10----8----8---|-------8----8-----|-----8----6-----6---|
G|-----10---10----10--|-----10----9----9---|-------9----9-----|-----9----7-----7---|
D|--------------------|--------------------|------------------|--------------------|
A|--------------------|--------------------|------------------|--------------------|
E|--------------------|--------------------|------------------|--------------------|


E|--------------------|------------------|--------------------|--------------------|
B|-----6-----6----6---|-------5----5-----|-----5----5-----5---|-----3-----3----3---|
G|-----7-----7----7---|-------5----5-----|-----5----5-----5---|-----4-----4----4---|
D|--------------------|------------------|--------------------|--------------------|
A|--------------------|------------------|--------------------|--------------------|
E|--------------------|------------------|--------------------|--------------------|


E|------------------|-----------------|--------------------|---------------20------|
B|-------3----3-----|-----1----1------|-----1--------------|-----------17------17--|
G|-------4----4-----|-----2----2------|-----2--------------|-----------------------|
D|------------------|-----------------|--------------------|-----------------------|
A|------------------|-----------------|--------------------|-----------------------|
E|------------------|-----------------|--------------------|-----------------------|


E|-22------19--20--------|-----------20------22------|-19--20------19------------|
B|-----17----------------|-------17------17------17--|---------17------17--13----|
G|-----------------------|---------------------------|---------------------14----|
D|-----------------------|---------------------------|---------------------------|
A|-----------------------|---------------------------|---------------------------|
E|-----------------------|---------------------------|---------------------------|


E|--------------------|--------------------|------------------|--------------------|
B|-----13---13----13--|-----13----12---12--|-------12---12----|-----12---10----10--|
G|-----14---14----14--|-----14----12---12--|-------12---12----|-----12---10----10--|
D|--------------------|--------------------|------------------|--------------------|
A|--------------------|--------------------|------------------|--------------------|
E|--------------------|--------------------|------------------|--------------------|


E|--------------------|------------------|--------------------|--------------------|
B|-----10----10---10--|-------8----8-----|-----8----8-----8---|-----6-----6----6---|
G|-----10----10---10--|-------9----9-----|-----9----9-----9---|-----7-----7----7---|
D|--------------------|------------------|--------------------|--------------------|
A|--------------------|------------------|--------------------|--------------------|
E|--------------------|------------------|--------------------|--------------------|


E|------------------|--------------------|--------------------|------------------|
B|-------6----6-----|-----5----5-----5---|-----5-----5----3---|-------3----3-----|
G|-------7----7-----|-----5----5-----5---|-----5-----5----4---|-------4----4-----|
D|------------------|--------------------|--------------------|------------------|
A|------------------|--------------------|--------------------|------------------|
E|------------------|--------------------|--------------------|------------------|


E|--------------------|----------------|------------------|-----12-------------|--------------|
B|-----3----3-----1---|-----1------1---|------------------|-----13-------------|--------------|
G|-----4----4-----2---|-----2------2---|------------------|-----14-------------|--------------|
D|--------------------|----------------|------------------|--------------------|--------------|
A|--------------------|----------------|------------------|--------------------|--------------|
E|--------------------|----------------|------------------|--------------------|--------------|


E|-------------|-----------------|-------------|------------|--------|------------|
B|-------------|-----------------|-------------|------------|--------|------------|
G|-------------|-----------------|-------------|------------|--------|------------|
D|-------------|-----------------|-------------|------------|--------|------------|
A|-------------|-----------------|-------------|------------|--------|------------|
E|-------------|-----------------|-------------|------------|--------|------------|


E|------------|-------------|----------------|-------------|-----------------|-------------|
B|------------|-------------|----------------|-------------|-----------------|-------------|
G|------------|-------------|----------------|-------------|-----------------|-------------|
D|------------|-------------|----------------|-------------|-----------------|-------------|
A|------------|-------------|----------------|-------------|-----------------|-------------|
E|------------|-------------|----------------|-------------|-----------------|-------------|


E|-----------------|-----12-------------|--------------|-------------|-----------------|
B|-----------------|-----13-------------|--------------|-------------|-----------------|
G|-----------------|-----14-------------|--------------|-------------|-----------------|
D|-----------------|--------------------|--------------|-------------|-----------------|
A|-----------------|--------------------|--------------|-------------|-----------------|
E|-----------------|--------------------|--------------|-------------|-----------------|


E|-------------|------------|--------|-----------12-------|------------|-------------|
B|-------------|------------|--------|-----------13-------|------------|-------------|
G|-------------|------------|--------|-----------14-------|------------|-------------|
D|-------------|------------|--------|--------------------|------------|-------------|
A|-------------|------------|--------|--------------------|------------|-------------|
E|-------------|------------|--------|--------------------|------------|-------------|


E|----------------|-------12------------|-----------------|-------------|-----------------|
B|----------------|-------13------------|-----------------|-------------|-----------------|
G|----------------|-------14------------|-----------------|-------------|-----------------|
D|----------------|---------------------|-----------------|-------------|-----------------|
A|----------------|---------------------|-----------------|-------------|-----------------|
E|----------------|---------------------|-----------------|-------------|-----------------|


E|-----12-------------|--------------|-------------|----------------12--|-------------|
B|-----13-------------|--------------|-------------|----------------13--|-------------|
G|-----14-------------|--------------|-------------|----------------14--|-------------|
D|--------------------|--------------|-------------|--------------------|-------------|
A|--------------------|--------------|-------------|--------------------|-------------|
E|--------------------|--------------|-------------|--------------------|-------------|


E|------------|--------|----------------|--------|--------|--------|--------|--------|
B|------------|--------|----------------|--------|--------|--------|--------|--------|
G|------------|--------|----------------|--------|--------|--------|--------|--------|
D|------------|--------|----------------|--------|--------|--------|--------|--------|
A|------------|--------|----------------|--------|--------|--------|--------|--------|
E|------------|--------|----------------|--------|--------|--------|--------|--------|


E|--------|--------|-------------14----------14------|-----14----------14----------14--|
B|--------|--------|---------14----------14----------|-14----------14----------14------|
G|--------|--------|-----16----------16----------16--|---------16----------16----------|
D|--------|--------|---------------------------------|---------------------------------|
A|--------|--------|---------------------------------|---------------------------------|
E|--------|--------|---------------------------------|---------------------------------|


E|-------------16----------16------|-----16----------16----------16--|-------------13----------13------|
B|---------14----------14----------|-14----------14----------14------|---------14----------14----------|
G|-16--16----------16----------16--|---------16----------16----------|-16--16----------16----------16--|
D|---------------------------------|---------------------------------|---------------------------------|
A|---------------------------------|---------------------------------|---------------------------------|
E|---------------------------------|---------------------------------|---------------------------------|


E|-----13----------13----------13--|-------------13----------13------|-----13----------13----------13--|
B|-14----------14----------14------|---------14----------14----------|-14----------14----------14------|
G|---------16----------16----------|-16--15----------15----------15--|---------15----------15----------|
D|---------------------------------|---------------------------------|---------------------------------|
A|---------------------------------|---------------------------------|---------------------------------|
E|---------------------------------|---------------------------------|---------------------------------|


E|-------------14----------14------|-----14----------14----------14--|-------------16----------16------|
B|---------14----------14----------|-14----------14----------14------|---------14----------14----------|
G|-15--16----------16----------16--|---------16----------16----------|-16--16----------16----------16--|
D|---------------------------------|---------------------------------|---------------------------------|
A|---------------------------------|---------------------------------|---------------------------------|
E|---------------------------------|---------------------------------|---------------------------------|


E|-----16----------16----------16--|-------------13----------13------|-----13----------13----------13--|
B|-14----------14----------14------|---------14----------14----------|-14----------14----------14------|
G|---------16----------16----------|-16--16----------16----------16--|---------16----------16----------|
D|---------------------------------|---------------------------------|---------------------------------|
A|---------------------------------|---------------------------------|---------------------------------|
E|---------------------------------|---------------------------------|---------------------------------|


E|-------------13----------13------|-----13----------13----------13--|----------------|
B|---------14----------14----------|-14----------14----------14------|----------------|
G|-16--15----------15----------15--|---------15----------15----------|-15-------------|
D|---------------------------------|---------------------------------|----------------|
A|---------------------------------|---------------------------------|----------------|
E|---------------------------------|---------------------------------|----------------|


E|--------|--------|--------|--------|--------|--------|--------|--------|--------|
B|--------|--------|--------|--------|--------|--------|--------|--------|--------|
G|--------|--------|--------|--------|--------|--------|--------|--------|--------|
D|--------|--------|--------|--------|--------|--------|--------|--------|--------|
A|--------|--------|--------|--------|--------|--------|--------|--------|--------|
E|--------|--------|--------|--------|--------|--------|--------|--------|--------|


E|--------|--------|--------|--------|--------|--------|--------|--------|--------|
B|--------|--------|--------|--------|--------|--------|--------|--------|--------|
G|--------|--------|--------|--------|--------|--------|--------|--------|--------|
D|--------|--------|--------|--------|--------|--------|--------|--------|--------|
A|--------|--------|--------|--------|--------|--------|--------|--------|--------|
E|--------|--------|--------|--------|--------|--------|--------|--------|--------|


E|--------|--------|--------|----------------|------------------------------|----------------------14------|
B|--------|--------|--------|--------14------|-----14--16-------16--14------|-----14--16-------16----------|
G|--------|--------|--------|----------------|------------------------------|------------------------------|
D|--------|--------|--------|----------------|------------------------------|------------------------------|
A|--------|--------|--------|----------------|------------------------------|------------------------------|
E|--------|--------|--------|----------------|------------------------------|------------------------------|


E|-----14-----------------------|----------------------14------|-----14-----------------------|
B|---------14-------14----------|---------14-------14----------|---------16-------16--14------|
G|----------------------16------|-----16-----------------------|------------------------------|
D|------------------------------|------------------------------|------------------------------|
A|------------------------------|------------------------------|------------------------------|
E|------------------------------|------------------------------|------------------------------|


E|----------------------14------|-----14-----------------|----------------|------------------------------|
B|-----14--16-------16----------|---------14--14----14---|--------14------|-----14--16-------16--14------|
G|------------------------------|------------------------|----------------|------------------------------|
D|------------------------------|------------------------|----------------|------------------------------|
A|------------------------------|------------------------|----------------|------------------------------|
E|------------------------------|------------------------|----------------|------------------------------|


E|----------------------14------|-----14-----------------------|----------------------14------|
B|-----14--16-------16----------|---------14-------14----------|---------14-------14----------|
G|------------------------------|----------------------16------|-----16-----------------------|
D|------------------------------|------------------------------|------------------------------|
A|------------------------------|------------------------------|------------------------------|
E|------------------------------|------------------------------|------------------------------|


E|-----14-----------------------|----------------------14------|-----14--14--14----14---|
B|---------16-------16--14------|-----14--16-------16----------|------------------------|
G|------------------------------|------------------------------|------------------------|
D|------------------------------|------------------------------|------------------------|
A|------------------------------|------------------------------|------------------------|
E|------------------------------|------------------------------|------------------------|


E|--------14---|--------14---|--------14---|--------14---|--------|
B|-------------|-------------|-------------|-------------|--------|
G|-------------|-------------|-------------|-------------|--------|
D|-------------|-------------|-------------|-------------|--------|
A|-------------|-------------|-------------|-------------|--------|
E|-------------|-------------|-------------|-------------|--------|





Track 3: Acoustic Guitar

E|--------|--------|--------|--------|--------|--------|--------|--------|--------|
B|--------|--------|--------|--------|--------|--------|--------|--------|--------|
G|--------|--------|--------|--------|--------|--------|--------|--------|--------|
D|--------|--------|--------|--------|--------|--------|--------|--------|--------|
A|--------|--------|--------|--------|--------|--------|--------|--------|--------|
E|--------|--------|--------|--------|--------|--------|--------|--------|--------|


E|--------|--------|--------|--------|--------|--------|--------|--------|--------|
B|--------|--------|--------|--------|--------|--------|--------|--------|--------|
G|--------|--------|--------|--------|--------|--------|--------|--------|--------|
D|--------|--------|--------|--------|--------|--------|--------|--------|--------|
A|--------|--------|--------|--------|--------|--------|--------|--------|--------|
E|--------|--------|--------|--------|--------|--------|--------|--------|--------|


E|--------|--------|--------|--------|--------|--------|--------|--------|--------|
B|--------|--------|--------|--------|--------|--------|--------|--------|--------|
G|--------|--------|--------|--------|--------|--------|--------|--------|--------|
D|--------|--------|--------|--------|--------|--------|--------|--------|--------|
A|--------|--------|--------|--------|--------|--------|--------|--------|--------|
E|--------|--------|--------|--------|--------|--------|--------|--------|--------|


E|--------|--------|--------|--------|--------|--------|--------|--------|--------|
B|--------|--------|--------|--------|--------|--------|--------|--------|--------|
G|--------|--------|--------|--------|--------|--------|--------|--------|--------|
D|--------|--------|--------|--------|--------|--------|--------|--------|--------|
A|--------|--------|--------|--------|--------|--------|--------|--------|--------|
E|--------|--------|--------|--------|--------|--------|--------|--------|--------|


E|--------|--------|--------|--------|--------|--------|--------|--------|--------|
B|--------|--------|--------|--------|--------|--------|--------|--------|--------|
G|--------|--------|--------|--------|--------|--------|--------|--------|--------|
D|--------|--------|--------|--------|--------|--------|--------|--------|--------|
A|--------|--------|--------|--------|--------|--------|--------|--------|--------|
E|--------|--------|--------|--------|--------|--------|--------|--------|--------|


E|--------|--------|--------|--------|--------|--------|--------|--------|--------|
B|--------|--------|--------|--------|--------|--------|--------|--------|--------|
G|--------|--------|--------|--------|--------|--------|--------|--------|--------|
D|--------|--------|--------|--------|--------|--------|--------|--------|--------|
A|--------|--------|--------|--------|--------|--------|--------|--------|--------|
E|--------|--------|--------|--------|--------|--------|--------|--------|--------|


E|--------|--------|--------|--------|--------|--------|--------|--------|--------|
B|--------|--------|--------|--------|--------|--------|--------|--------|--------|
G|--------|--------|--------|--------|--------|--------|--------|--------|--------|
D|--------|--------|--------|--------|--------|--------|--------|--------|--------|
A|--------|--------|--------|--------|--------|--------|--------|--------|--------|
E|--------|--------|--------|--------|--------|--------|--------|--------|--------|


E|--------|--------|--------|--------|--------|--------|--------|--------|--------|
B|--------|--------|--------|--------|--------|--------|--------|--------|--------|
G|--------|--------|--------|--------|--------|--------|--------|--------|--------|
D|--------|--------|--------|--------|--------|--------|--------|--------|--------|
A|--------|--------|--------|--------|--------|--------|--------|--------|--------|
E|--------|--------|--------|--------|--------|--------|--------|--------|--------|


E|--------|--------|--------|-----17------19------15--17------|------------17--|-----19------15--17--------|
B|--------|--------|--------|-17------17------17--------------|--------17------|-17------17----------------|
G|--------|--------|--------|---------------------21----------|----------------|---------------------------|
D|--------|--------|--------|---------------------22----------|----------------|---------------------------|
A|--------|--------|--------|---------------------24----------|----------------|---------------------------|
E|--------|--------|--------|---------------------------------|----------------|---------------------------|


E|--------|--------|--------|--------|--------|--------|--------|--------|--------|
B|--------|--------|--------|--------|--------|--------|--------|--------|--------|
G|--------|--------|--------|--------|--------|--------|--------|--------|--------|
D|--------|--------|--------|--------|--------|--------|--------|--------|--------|
A|--------|--------|--------|--------|--------|--------|--------|--------|--------|
E|--------|--------|--------|--------|--------|--------|--------|--------|--------|


E|--------|--------|--------|--------|--------|--------|------------17--|-----19------15--17-----------|
B|--------|--------|--------|--------|--------|--------|--------17------|-17------17-------------------|
G|--------|--------|--------|--------|--------|--------|----------------|-------------21---------------|
D|--------|--------|--------|--------|--------|--------|----------------|-------------22---------------|
A|--------|--------|--------|--------|--------|--------|----------------|-------------24---------------|
E|--------|--------|--------|--------|--------|--------|----------------|------------------------------|


E|-----------17------19--|-----15--17------------|--------|--------|--------|--------|
B|-------17------17------|-17--------------------|--------|--------|--------|--------|
G|-----------------------|-----------------------|--------|--------|--------|--------|
D|-----------------------|-----------------------|--------|--------|--------|--------|
A|-----------------------|-----------------------|--------|--------|--------|--------|
E|-----------------------|-----------------------|--------|--------|--------|--------|


E|--------|--------|--------|--------|--------|--------|--------|--------|--------|
B|--------|--------|--------|--------|--------|--------|--------|--------|--------|
G|--------|--------|--------|--------|--------|--------|--------|--------|--------|
D|--------|--------|--------|--------|--------|--------|--------|--------|--------|
A|--------|--------|--------|--------|--------|--------|--------|--------|--------|
E|--------|--------|--------|--------|--------|--------|--------|--------|--------|


E|--------|--------|--------|--------|--------|--------|--------|--------|--------|
B|--------|--------|--------|--------|--------|--------|--------|--------|--------|
G|--------|--------|--------|--------|--------|--------|--------|--------|--------|
D|--------|--------|--------|--------|--------|--------|--------|--------|--------|
A|--------|--------|--------|--------|--------|--------|--------|--------|--------|
E|--------|--------|--------|--------|--------|--------|--------|--------|--------|


E|--------|--------|--------|--------|--------|--------|--------|--------|--------|
B|--------|--------|--------|--------|--------|--------|--------|--------|--------|
G|--------|--------|--------|--------|--------|--------|--------|--------|--------|
D|--------|--------|--------|--------|--------|--------|--------|--------|--------|
A|--------|--------|--------|--------|--------|--------|--------|--------|--------|
E|--------|--------|--------|--------|--------|--------|--------|--------|--------|


E|--------|--------|--------|--------|--------|--------|--------|--------|--------|
B|--------|--------|--------|--------|--------|--------|--------|--------|--------|
G|--------|--------|--------|--------|--------|--------|--------|--------|--------|
D|--------|--------|--------|--------|--------|--------|--------|--------|--------|
A|--------|--------|--------|--------|--------|--------|--------|--------|--------|
E|--------|--------|--------|--------|--------|--------|--------|--------|--------|


E|--------|--------|--------|--------|--------|--------|--------|--------|--------|
B|--------|--------|--------|--------|--------|--------|--------|--------|--------|
G|--------|--------|--------|--------|--------|--------|--------|--------|--------|
D|--------|--------|--------|--------|--------|--------|--------|--------|--------|
A|--------|--------|--------|--------|--------|--------|--------|--------|--------|
E|--------|--------|--------|--------|--------|--------|--------|--------|--------|


E|--------|--------|--------|--------|--------------------|---------------------------|
B|--------|--------|--------|--------|--------------------|-----------------------5---|
G|--------|--------|--------|--------|-----7-----7----7---|-5---7---5---7----7--------|
D|--------|--------|--------|--------|--------------------|---------------------------|
A|--------|--------|--------|--------|--------------------|---------------------------|
E|--------|--------|--------|--------|--------------------|---------------------------|


E|-----------------------------|-----------------|--------------------|---------------------------|
B|-----------------------------|----------5------|-----5--------------|---------------------------|
G|-----7----7---9--7--5----7---|-----7-----------|-----------6----6---|-4---6---4---6----6----8---|
D|-----------------------------|-----------------|--------------------|---------------------------|
A|-----------------------------|-----------------|--------------------|---------------------------|
E|-----------------------------|-----------------|--------------------|---------------------------|


E|-----------------------------|-----------------|--------------------|---------------------------|
B|-----------------------------|-----------------|--------------------|---------------------------|
G|-----6----6---8--6--4----6---|-----6----8------|-----8-----6----6---|-4---6---4---6----6----8---|
D|-----------------------------|-----------------|--------------------|---------------------------|
A|-----------------------------|-----------------|--------------------|---------------------------|
E|-----------------------------|-----------------|--------------------|---------------------------|


E|-----------------------------|-----------------|--------------------|---------------------------|
B|-----------------------------|-----------------|--------------------|---------------------------|
G|-----6----6---8--6--4----6---|-----6----8------|-----8-----6----6---|-4---6---4---6----6----8---|
D|-----------------------------|-----------------|--------------------|---------------------------|
A|-----------------------------|-----------------|--------------------|---------------------------|
E|-----------------------------|-----------------|--------------------|---------------------------|


E|-----------------------------|-----------------|--------------------|---------------------------|
B|-----------------------------|-----------------|--------------------|---------------------------|
G|-----6----6---8--6--4----6---|-----6----8------|-----8-----6----6---|-4---6---4---6----6----8---|
D|-----------------------------|-----------------|--------------------|---------------------------|
A|-----------------------------|-----------------|--------------------|---------------------------|
E|-----------------------------|-----------------|--------------------|---------------------------|


E|-----------------------------|-----------------|--------------------|---------------------------|
B|-----------------------------|-----------------|--------------------|---------------------------|
G|-----6----6---8--6--4----6---|-----6----8------|-----8-----6----6---|-4---6---4---6----6----8---|
D|-----------------------------|-----------------|--------------------|---------------------------|
A|-----------------------------|-----------------|--------------------|---------------------------|
E|-----------------------------|-----------------|--------------------|---------------------------|


E|-----------------------------|-----------------|------------------------------|---------------------|
B|-----------------------------|-----------------|------------------------------|---------------------|
G|-----6----6---8--6--4----6---|-----6----8------|------------------------------|----------8----9-----|
D|-----------------------------|-----------------|-------------9---9---9----9---|-----11--------------|
A|-----------------------------|-----------------|------------------------------|---------------------|
E|-----------------------------|-----------------|------------------------------|---------------------|


E|------------------------|------------------------|---------------------------|------------------------|
B|------------------------|-----10--------9----9---|-10--10--10--10---14---9---|-----12---16----16------|
G|-9-----9---9---9----11--|----------11------------|---------------------------|------------------------|
D|------------------------|------------------------|---------------------------|------------------------|
A|------------------------|------------------------|---------------------------|------------------------|
E|------------------------|------------------------|---------------------------|------------------------|


E|---------------------------|------------------------|------------------------|---------------------|
B|------------------10-------|-----9------------------|------------------------|---------------------|
G|-----11--11--11--------9---|----------8-------------|--------------------8---|-----9-----9-----9---|
D|---------------------------|--------------------9---|-9---9----9----11-------|---------------------|
A|---------------------------|------------------------|------------------------|---------------------|
E|---------------------------|------------------------|------------------------|---------------------|


E|------------------------|------------------------------|------------------------|
B|---------------10-------|-----9----9---10--10--10--10--|-----14---9----12---16--|
G|-9---9----11--------11--|------------------------------|------------------------|
D|------------------------|------------------------------|------------------------|
A|------------------------|------------------------------|------------------------|
E|------------------------|------------------------------|------------------------|


E|---------------------------|------------------------|---------------------------|
B|------16-------------------|-----10--------9--------|---------------------------|
G|---------------11--11--11--|----------9---------8---|---------------------------|
D|---------------------------|------------------------|----------9---9---9----9---|
A|---------------------------|------------------------|---------------------------|
E|---------------------------|------------------------|---------------------------|


E|---------------------|------------------------|------------------------|---------------------------|
B|---------------------|------------------------|-----10--------9----9---|-10--10--10--10---14---9---|
G|----------8----9-----|-9-----9---9---9----11--|----------11------------|---------------------------|
D|-----11--------------|------------------------|------------------------|---------------------------|
A|---------------------|------------------------|------------------------|---------------------------|
E|---------------------|------------------------|------------------------|---------------------------|


E|------------------------|---------------------------|---------------------|--------|
B|-----12---16----16------|------------------10-------|-----9---------------|--------|
G|------------------------|-----11--11--11--------9---|----------8----------|--------|
D|------------------------|---------------------------|---------------------|--------|
A|------------------------|---------------------------|---------------------|--------|
E|------------------------|---------------------------|---------------------|--------|


E|--------|--------|--------|--------|--------|--------|--------|--------|--------|
B|--------|--------|--------|--------|--------|--------|--------|--------|--------|
G|--------|--------|--------|--------|--------|--------|--------|--------|--------|
D|--------|--------|--------|--------|--------|--------|--------|--------|--------|
A|--------|--------|--------|--------|--------|--------|--------|--------|--------|
E|--------|--------|--------|--------|--------|--------|--------|--------|--------|


E|--------|--------|--------|--------|--------|--------|--------|--------|--------|
B|--------|--------|--------|--------|--------|--------|--------|--------|--------|
G|--------|--------|--------|--------|--------|--------|--------|--------|--------|
D|--------|--------|--------|--------|--------|--------|--------|--------|--------|
A|--------|--------|--------|--------|--------|--------|--------|--------|--------|
E|--------|--------|--------|--------|--------|--------|--------|--------|--------|


E|--------|
B|--------|
G|--------|
D|--------|
A|--------|
E|--------|





Track 4: Electric Guitar

E|--------|--------|--------|--------|--------|--------|--------|--------|--------|
B|--------|--------|--------|--------|--------|--------|--------|--------|--------|
G|--------|--------|--------|--------|--------|--------|--------|--------|--------|
D|--------|--------|--------|--------|--------|--------|--------|--------|--------|
A|--------|--------|--------|--------|--------|--------|--------|--------|--------|
E|--------|--------|--------|--------|--------|--------|--------|--------|--------|


E|--------|--------|--------|--------|--------|--------|--------|--------|--------|
B|--------|--------|--------|--------|--------|--------|--------|--------|--------|
G|--------|--------|--------|--------|--------|--------|--------|--------|--------|
D|--------|--------|--------|--------|--------|--------|--------|--------|--------|
A|--------|--------|--------|--------|--------|--------|--------|--------|--------|
E|--------|--------|--------|--------|--------|--------|--------|--------|--------|


E|--------|--------|--------|--------|--------|--------|--------|--------|--------|
B|--------|--------|--------|--------|--------|--------|--------|--------|--------|
G|--------|--------|--------|--------|--------|--------|--------|--------|--------|
D|--------|--------|--------|--------|--------|--------|--------|--------|--------|
A|--------|--------|--------|--------|--------|--------|--------|--------|--------|
E|--------|--------|--------|--------|--------|--------|--------|--------|--------|


E|--------|--------|--------|--------|--------|--------|--------|--------|--------|
B|--------|--------|--------|--------|--------|--------|--------|--------|--------|
G|--------|--------|--------|--------|--------|--------|--------|--------|--------|
D|--------|--------|--------|--------|--------|--------|--------|--------|--------|
A|--------|--------|--------|--------|--------|--------|--------|--------|--------|
E|--------|--------|--------|--------|--------|--------|--------|--------|--------|


E|--------|--------|--------|--------|--------|--------|--------|--------|--------|
B|--------|--------|--------|--------|--------|--------|--------|--------|--------|
G|--------|--------|--------|--------|--------|--------|--------|--------|--------|
D|--------|--------|--------|--------|--------|--------|--------|--------|--------|
A|--------|--------|--------|--------|--------|--------|--------|--------|--------|
E|--------|--------|--------|--------|--------|--------|--------|--------|--------|


E|--------|--------|--------|--------|--------|--------|--------|--------|--------|
B|--------|--------|--------|--------|--------|--------|--------|--------|--------|
G|--------|--------|--------|--------|--------|--------|--------|--------|--------|
D|--------|--------|--------|--------|--------|--------|--------|--------|--------|
A|--------|--------|--------|--------|--------|--------|--------|--------|--------|
E|--------|--------|--------|--------|--------|--------|--------|--------|--------|


E|--------|--------|--------|--------|--------|--------|--------|--------|--------|
B|--------|--------|--------|--------|--------|--------|--------|--------|--------|
G|--------|--------|--------|--------|--------|--------|--------|--------|--------|
D|--------|--------|--------|--------|--------|--------|--------|--------|--------|
A|--------|--------|--------|--------|--------|--------|--------|--------|--------|
E|--------|--------|--------|--------|--------|--------|--------|--------|--------|


E|--------|--------|--------|--------|--------|--------|--------|--------|--------|
B|--------|--------|--------|--------|--------|--------|--------|--------|--------|
G|--------|--------|--------|--------|--------|--------|--------|--------|--------|
D|--------|--------|--------|--------|--------|--------|--------|--------|--------|
A|--------|--------|--------|--------|--------|--------|--------|--------|--------|
E|--------|--------|--------|--------|--------|--------|--------|--------|--------|


E|--------|--------|--------|--------|--------|--------|--------|--------|--------|
B|--------|--------|--------|--------|--------|--------|--------|--------|--------|
G|--------|--------|--------|--------|--------|--------|--------|--------|--------|
D|--------|--------|--------|--------|--------|--------|--------|--------|--------|
A|--------|--------|--------|--------|--------|--------|--------|--------|--------|
E|--------|--------|--------|--------|--------|--------|--------|--------|--------|


E|--------|--------|--------|--------|--------|--------|--------|--------|--------|
B|--------|--------|--------|--------|--------|--------|--------|--------|--------|
G|--------|--------|--------|--------|--------|--------|--------|--------|--------|
D|--------|--------|--------|--------|--------|--------|--------|--------|--------|
A|--------|--------|--------|--------|--------|--------|--------|--------|--------|
E|--------|--------|--------|--------|--------|--------|--------|--------|--------|


E|--------|--------|--------|--------|--------|--------|--------|--------|--------|
B|--------|--------|--------|--------|--------|--------|--------|--------|--------|
G|--------|--------|--------|--------|--------|--------|--------|--------|--------|
D|--------|--------|--------|--------|--------|--------|--------|--------|--------|
A|--------|--------|--------|--------|--------|--------|--------|--------|--------|
E|--------|--------|--------|--------|--------|--------|--------|--------|--------|


E|--------|--------|--------|--------|--------|--------|--------|--------|--------|
B|--------|--------|--------|--------|--------|--------|--------|--------|--------|
G|--------|--------|--------|--------|--------|--------|--------|--------|--------|
D|--------|--------|--------|--------|--------|--------|--------|--------|--------|
A|--------|--------|--------|--------|--------|--------|--------|--------|--------|
E|--------|--------|--------|--------|--------|--------|--------|--------|--------|


E|--------|--------|--------|--------|--------|--------|--------|--------|--------|
B|--------|--------|--------|--------|--------|--------|--------|--------|--------|
G|--------|--------|--------|--------|--------|--------|--------|--------|--------|
D|--------|--------|--------|--------|--------|--------|--------|--------|--------|
A|--------|--------|--------|--------|--------|--------|--------|--------|--------|
E|--------|--------|--------|--------|--------|--------|--------|--------|--------|


E|--------|--------|--------|--------|--------|--------|--------|--------|--------|
B|--------|--------|--------|--------|--------|--------|--------|--------|--------|
G|--------|--------|--------|--------|--------|--------|--------|--------|--------|
D|--------|--------|--------|--------|--------|--------|--------|--------|--------|
A|--------|--------|--------|--------|--------|--------|--------|--------|--------|
E|--------|--------|--------|--------|--------|--------|--------|--------|--------|


E|--------|--------|--------|--------|--------|--------|--------|--------|--------|
B|--------|--------|--------|--------|--------|--------|--------|--------|--------|
G|--------|--------|--------|--------|--------|--------|--------|--------|--------|
D|--------|--------|--------|--------|--------|--------|--------|--------|--------|
A|--------|--------|--------|--------|--------|--------|--------|--------|--------|
E|--------|--------|--------|--------|--------|--------|--------|--------|--------|


E|--------------------|-----------------------------------------|----------8-----8---7---|
B|--------------------|-------------------------6---8---6-------|----------10----10--8---|
G|-----5-----7--------|-----9---7---5---7---9---7---9---7---9---|-7---5------------------|
D|-----7-----9--------|-----10--9---7---9---10--------------10--|-9---7------------------|
A|--------------------|-----------------------------------------|------------------------|
E|--------------------|-----------------------------------------|------------------------|


E|-------3---7---3---------------|---------------------------|----------------------------------------|
B|-------5---8---5---6---5-------|---------------------------|----------------6---8---6---------------|
G|-------------------7---5---5---|-------7------------9---7--|----5---7---9---7---9---7---9---7---5---|
D|---------------------------7---|-------9------------10--9--|----7---9---10--------------10--9---7---|
A|-------------------------------|---------------------------|----------------------------------------|
E|-------------------------------|---------------------------|----------------------------------------|


E|-----8-----8---7-----|-----3---7---3-----------------|-------------------------------------|
B|-----10----10--8-----|-----5---8---5---6---5---------|-------------------------------------|
G|---------------------|-----------------7---5---5-----|-----7------------9---7---5---7---9--|
D|---------------------|-------------------------7-----|-----9------------10--9---7---9---10-|
A|---------------------|-------------------------------|-------------------------------------|
E|---------------------|-------------------------------|-------------------------------------|


E|-----------------------------8---|------8---7-----3---7--|----3---------------------|
B|----6---8---6----------------10--|------10--8-----5---8--|----5---6---5-------------|
G|----7---9---7---9---7---5--------|-----------------------|--------7---5---5-----7---|
D|----------------10--9---7--------|-----------------------|----------------7-----9---|
A|---------------------------------|-----------------------|--------------------------|
E|---------------------------------|-----------------------|--------------------------|


E|-----------------------------------------|------------------8-----|-8---7-----3---7---3-------|
B|---------------------------------6---8---|-6----------------10----|-10--8-----5---8---5---6---|
G|-------------9---7---5---7---9---7---9---|-7---9---7---5----------|-----------------------7---|
D|-------------10--9---7---9---10----------|-----10--9---7----------|---------------------------|
A|-----------------------------------------|------------------------|---------------------------|
E|-----------------------------------------|------------------------|---------------------------|


E|----------------|--------|--------|--------|--------|--------|--------|--------|
B|-5--------------|--------|--------|--------|--------|--------|--------|--------|
G|-5--------------|--------|--------|--------|--------|--------|--------|--------|
D|----------------|--------|--------|--------|--------|--------|--------|--------|
A|----------------|--------|--------|--------|--------|--------|--------|--------|
E|----------------|--------|--------|--------|--------|--------|--------|--------|


E|--------|--------|--------|--------|--------|--------|--------|--------|--------|
B|--------|--------|--------|--------|--------|--------|--------|--------|--------|
G|--------|--------|--------|--------|--------|--------|--------|--------|--------|
D|--------|--------|--------|--------|--------|--------|--------|--------|--------|
A|--------|--------|--------|--------|--------|--------|--------|--------|--------|
E|--------|--------|--------|--------|--------|--------|--------|--------|--------|


E|--------|--------|--------|--------|--------|--------|--------|--------|--------|
B|--------|--------|--------|--------|--------|--------|--------|--------|--------|
G|--------|--------|--------|--------|--------|--------|--------|--------|--------|
D|--------|--------|--------|--------|--------|--------|--------|--------|--------|
A|--------|--------|--------|--------|--------|--------|--------|--------|--------|
E|--------|--------|--------|--------|--------|--------|--------|--------|--------|


E|--------|--------|--------|--------|--------|--------|--------|--------|--------|
B|--------|--------|--------|--------|--------|--------|--------|--------|--------|
G|--------|--------|--------|--------|--------|--------|--------|--------|--------|
D|--------|--------|--------|--------|--------|--------|--------|--------|--------|
A|--------|--------|--------|--------|--------|--------|--------|--------|--------|
E|--------|--------|--------|--------|--------|--------|--------|--------|--------|


E|--------|--------|--------|--------|--------|--------|--------|--------|--------|
B|--------|--------|--------|--------|--------|--------|--------|--------|--------|
G|--------|--------|--------|--------|--------|--------|--------|--------|--------|
D|--------|--------|--------|--------|--------|--------|--------|--------|--------|
A|--------|--------|--------|--------|--------|--------|--------|--------|--------|
E|--------|--------|--------|--------|--------|--------|--------|--------|--------|


E|--------|--------|--------|--------|--------|--------|--------|--------|--------|
B|--------|--------|--------|--------|--------|--------|--------|--------|--------|
G|--------|--------|--------|--------|--------|--------|--------|--------|--------|
D|--------|--------|--------|--------|--------|--------|--------|--------|--------|
A|--------|--------|--------|--------|--------|--------|--------|--------|--------|
E|--------|--------|--------|--------|--------|--------|--------|--------|--------|


E|--------|--------|--------|--------|--------|--------|--------|--------|--------|
B|--------|--------|--------|--------|--------|--------|--------|--------|--------|
G|--------|--------|--------|--------|--------|--------|--------|--------|--------|
D|--------|--------|--------|--------|--------|--------|--------|--------|--------|
A|--------|--------|--------|--------|--------|--------|--------|--------|--------|
E|--------|--------|--------|--------|--------|--------|--------|--------|--------|


E|--------|--------|--------|--------|--------|
B|--------|--------|--------|--------|--------|
G|--------|--------|--------|--------|--------|
D|--------|--------|--------|--------|--------|
A|--------|--------|--------|--------|--------|
E|--------|--------|--------|--------|--------|





Track 5: Mandolin

E|--------|--------|--------|--------|--------|--------|--------|--------|--------|
B|--------|--------|--------|--------|--------|--------|--------|--------|--------|
G|--------|--------|--------|--------|--------|--------|--------|--------|--------|
D|--------|--------|--------|--------|--------|--------|--------|--------|--------|
A|--------|--------|--------|--------|--------|--------|--------|--------|--------|
E|--------|--------|--------|--------|--------|--------|--------|--------|--------|


E|--------|--------|--------|--------|--------|--------|--------|--------|--------|
B|--------|--------|--------|--------|--------|--------|--------|--------|--------|
G|--------|--------|--------|--------|--------|--------|--------|--------|--------|
D|--------|--------|--------|--------|--------|--------|--------|--------|--------|
A|--------|--------|--------|--------|--------|--------|--------|--------|--------|
E|--------|--------|--------|--------|--------|--------|--------|--------|--------|


E|--------|--------|--------|--------|--------|--------|--------|--------|--------|
B|--------|--------|--------|--------|--------|--------|--------|--------|--------|
G|--------|--------|--------|--------|--------|--------|--------|--------|--------|
D|--------|--------|--------|--------|--------|--------|--------|--------|--------|
A|--------|--------|--------|--------|--------|--------|--------|--------|--------|
E|--------|--------|--------|--------|--------|--------|--------|--------|--------|


E|--------|--------|--------|--------|--------|--------|--------|--------|--------|
B|--------|--------|--------|--------|--------|--------|--------|--------|--------|
G|--------|--------|--------|--------|--------|--------|--------|--------|--------|
D|--------|--------|--------|--------|--------|--------|--------|--------|--------|
A|--------|--------|--------|--------|--------|--------|--------|--------|--------|
E|--------|--------|--------|--------|--------|--------|--------|--------|--------|


E|--------|--------|--------|--------|--------|--------|--------|--------|--------|
B|--------|--------|--------|--------|--------|--------|--------|--------|--------|
G|--------|--------|--------|--------|--------|--------|--------|--------|--------|
D|--------|--------|--------|--------|--------|--------|--------|--------|--------|
A|--------|--------|--------|--------|--------|--------|--------|--------|--------|
E|--------|--------|--------|--------|--------|--------|--------|--------|--------|


E|--------|--------|--------|--------|--------|--------|--------|--------|--------|
B|--------|--------|--------|--------|--------|--------|--------|--------|--------|
G|--------|--------|--------|--------|--------|--------|--------|--------|--------|
D|--------|--------|--------|--------|--------|--------|--------|--------|--------|
A|--------|--------|--------|--------|--------|--------|--------|--------|--------|
E|--------|--------|--------|--------|--------|--------|--------|--------|--------|


E|--------|--------|--------|--------|--------|--------|--------|--------|--------|
B|--------|--------|--------|--------|--------|--------|--------|--------|--------|
G|--------|--------|--------|--------|--------|--------|--------|--------|--------|
D|--------|--------|--------|--------|--------|--------|--------|--------|--------|
A|--------|--------|--------|--------|--------|--------|--------|--------|--------|
E|--------|--------|--------|--------|--------|--------|--------|--------|--------|


E|--------|--------|--------|--------|--------|--------|--------|--------|--------|
B|--------|--------|--------|--------|--------|--------|--------|--------|--------|
G|--------|--------|--------|--------|--------|--------|--------|--------|--------|
D|--------|--------|--------|--------|--------|--------|--------|--------|--------|
A|--------|--------|--------|--------|--------|--------|--------|--------|--------|
E|--------|--------|--------|--------|--------|--------|--------|--------|--------|


E|--------|--------|--------|--------|--------|--------|--------|--------|--------|
B|--------|--------|--------|--------|--------|--------|--------|--------|--------|
G|--------|--------|--------|--------|--------|--------|--------|--------|--------|
D|--------|--------|--------|--------|--------|--------|--------|--------|--------|
A|--------|--------|--------|--------|--------|--------|--------|--------|--------|
E|--------|--------|--------|--------|--------|--------|--------|--------|--------|


E|--------|--------|--------|--------|--------|--------|--------|--------|--------|
B|--------|--------|--------|--------|--------|--------|--------|--------|--------|
G|--------|--------|--------|--------|--------|--------|--------|--------|--------|
D|--------|--------|--------|--------|--------|--------|--------|--------|--------|
A|--------|--------|--------|--------|--------|--------|--------|--------|--------|
E|--------|--------|--------|--------|--------|--------|--------|--------|--------|


E|--------|--------|--------|--------|--------|--------|--------|--------|--------|
B|--------|--------|--------|--------|--------|--------|--------|--------|--------|
G|--------|--------|--------|--------|--------|--------|--------|--------|--------|
D|--------|--------|--------|--------|--------|--------|--------|--------|--------|
A|--------|--------|--------|--------|--------|--------|--------|--------|--------|
E|--------|--------|--------|--------|--------|--------|--------|--------|--------|


E|--------|--------|--------|--------|--------|--------|--------|--------|--------|
B|--------|--------|--------|--------|--------|--------|--------|--------|--------|
G|--------|--------|--------|--------|--------|--------|--------|--------|--------|
D|--------|--------|--------|--------|--------|--------|--------|--------|--------|
A|--------|--------|--------|--------|--------|--------|--------|--------|--------|
E|--------|--------|--------|--------|--------|--------|--------|--------|--------|


E|--------|--------|--------|--------|--------|--------|--------|--------|--------|
B|--------|--------|--------|--------|--------|--------|--------|--------|--------|
G|--------|--------|--------|--------|--------|--------|--------|--------|--------|
D|--------|--------|--------|--------|--------|--------|--------|--------|--------|
A|--------|--------|--------|--------|--------|--------|--------|--------|--------|
E|--------|--------|--------|--------|--------|--------|--------|--------|--------|


E|--------|--------|--------|--------|--------|--------|--------|--------|--------|
B|--------|--------|--------|--------|--------|--------|--------|--------|--------|
G|--------|--------|--------|--------|--------|--------|--------|--------|--------|
D|--------|--------|--------|--------|--------|--------|--------|--------|--------|
A|--------|--------|--------|--------|--------|--------|--------|--------|--------|
E|--------|--------|--------|--------|--------|--------|--------|--------|--------|


E|--------|--------|--------|--------|--------|--------|--------|--------|--------|
B|--------|--------|--------|--------|--------|--------|--------|--------|--------|
G|--------|--------|--------|--------|--------|--------|--------|--------|--------|
D|--------|--------|--------|--------|--------|--------|--------|--------|--------|
A|--------|--------|--------|--------|--------|--------|--------|--------|--------|
E|--------|--------|--------|--------|--------|--------|--------|--------|--------|


E|--------|--------|--------|--------|--------|--------|--------|--------|--------|
B|--------|--------|--------|--------|--------|--------|--------|--------|--------|
G|--------|--------|--------|--------|--------|--------|--------|--------|--------|
D|--------|--------|--------|--------|--------|--------|--------|--------|--------|
A|--------|--------|--------|--------|--------|--------|--------|--------|--------|
E|--------|--------|--------|--------|--------|--------|--------|--------|--------|


E|--------|--------|--------|--------|--------|--------|-----10-----|-8---10--8---10----12--|
B|--------|--------|--------|--------|--------|--------|------------|-----------------------|
G|--------|--------|--------|--------|--------|--------|------------|-----------------------|
D|--------|--------|--------|--------|--------|--------|------------|-----------------------|
A|--------|--------|--------|--------|--------|--------|------------|-----------------------|
E|--------|--------|--------|--------|--------|--------|------------|-----------------------|


E|-----10----8----10--|-----10---12-----|-----12----9----9---|-7---9---7---9-----11--|
B|--------------------|-----------------|--------------------|-----------------------|
G|--------------------|-----------------|--------------------|-----------------------|
D|--------------------|-----------------|--------------------|-----------------------|
A|--------------------|-----------------|--------------------|-----------------------|
E|--------------------|-----------------|--------------------|-----------------------|


E|-----9-----7----9---|-----9----11-----|-----11----9----9---|-7---9---7---9-----11--|
B|--------------------|-----------------|--------------------|-----------------------|
G|--------------------|-----------------|--------------------|-----------------------|
D|--------------------|-----------------|--------------------|-----------------------|
A|--------------------|-----------------|--------------------|-----------------------|
E|--------------------|-----------------|--------------------|-----------------------|


E|-----9-----7----9---|-----9----11-----|-----11----9----9---|-7---9---7---9-----11--|
B|--------------------|-----------------|--------------------|-----------------------|
G|--------------------|-----------------|--------------------|-----------------------|
D|--------------------|-----------------|--------------------|-----------------------|
A|--------------------|-----------------|--------------------|-----------------------|
E|--------------------|-----------------|--------------------|-----------------------|


E|-----9-----7----9---|-----9----11-----|-----11----9----9---|-7---9---7---9-----11--|
B|--------------------|-----------------|--------------------|-----------------------|
G|--------------------|-----------------|--------------------|-----------------------|
D|--------------------|-----------------|--------------------|-----------------------|
A|--------------------|-----------------|--------------------|-----------------------|
E|--------------------|-----------------|--------------------|-----------------------|


E|-----9-----7----9---|-----9----11-----|-----11----9----9---|-7---9---7---9-----11--|
B|--------------------|-----------------|--------------------|-----------------------|
G|--------------------|-----------------|--------------------|-----------------------|
D|--------------------|-----------------|--------------------|-----------------------|
A|--------------------|-----------------|--------------------|-----------------------|
E|--------------------|-----------------|--------------------|-----------------------|


E|-----9-----7----9---|-----9----11-----|--------|--------|--------|--------|--------|
B|--------------------|-----------------|--------|--------|--------|--------|--------|
G|--------------------|-----------------|--------|--------|--------|--------|--------|
D|--------------------|-----------------|--------|--------|--------|--------|--------|
A|--------------------|-----------------|--------|--------|--------|--------|--------|
E|--------------------|-----------------|--------|--------|--------|--------|--------|


E|--------|--------|--------|--------|--------|--------|--------|--------|--------|
B|--------|--------|--------|--------|--------|--------|--------|--------|--------|
G|--------|--------|--------|--------|--------|--------|--------|--------|--------|
D|--------|--------|--------|--------|--------|--------|--------|--------|--------|
A|--------|--------|--------|--------|--------|--------|--------|--------|--------|
E|--------|--------|--------|--------|--------|--------|--------|--------|--------|


E|--------|--------|--------|--------|--------|--------|--------|--------|--------|
B|--------|--------|--------|--------|--------|--------|--------|--------|--------|
G|--------|--------|--------|--------|--------|--------|--------|--------|--------|
D|--------|--------|--------|--------|--------|--------|--------|--------|--------|
A|--------|--------|--------|--------|--------|--------|--------|--------|--------|
E|--------|--------|--------|--------|--------|--------|--------|--------|--------|


E|--------|--------|--------|--------|--------|--------|--------|--------|--------|
B|--------|--------|--------|--------|--------|--------|--------|--------|--------|
G|--------|--------|--------|--------|--------|--------|--------|--------|--------|
D|--------|--------|--------|--------|--------|--------|--------|--------|--------|
A|--------|--------|--------|--------|--------|--------|--------|--------|--------|
E|--------|--------|--------|--------|--------|--------|--------|--------|--------|


E|--------|--------|--------|--------|--------|--------|--------|--------|--------|
B|--------|--------|--------|--------|--------|--------|--------|--------|--------|
G|--------|--------|--------|--------|--------|--------|--------|--------|--------|
D|--------|--------|--------|--------|--------|--------|--------|--------|--------|
A|--------|--------|--------|--------|--------|--------|--------|--------|--------|
E|--------|--------|--------|--------|--------|--------|--------|--------|--------|


E|--------|--------|
B|--------|--------|
G|--------|--------|
D|--------|--------|
A|--------|--------|
E|--------|--------|





Track 6: Untitled

G|------------|------------|-------------|----------------|-------------|-----------------|
D|------------|------------|-------------|----------------|-------------|-----------------|
A|------------|------------|-------------|----------------|-------------|-----------------|
E|------------|------------|-------------|----------------|-------------|-----------------|


G|-------------|-----------------|-------------|--------------|-------------|-----------------|
D|-------------|-----------------|-------------|--------------|-------------|-----------------|
A|-------------|-----------------|-------------|--------------|-------------|-----------------|
E|-------------|-----------------|-------------|--------------|-------------|-----------------|


G|-------------|------------|--------|------------|------------|-------------|----------------|
D|-------------|------------|--------|------------|------------|-------------|----------------|
A|-------------|------------|--------|------------|------------|-------------|----------------|
E|-------------|------------|--------|------------|------------|-------------|----------------|


G|-------------|-----------------|-------------|-----------------|-------------|--------------|
D|-------------|-----------------|-------------|-----------------|-------------|--------------|
A|-------------|-----------------|-------------|-----------------|-------------|--------------|
E|-------------|-----------------|-------------|-----------------|-------------|--------------|


G|-------------|-----------------|-------------|------------|--------|------------------------|
D|-------------|-----------------|-------------|------------|--------|------------------------|
A|-------------|-----------------|-------------|------------|--------|-----0----0---------0---|
E|-------------|-----------------|-------------|------------|--------|------------------------|


G|------------------------------0-------|---------------0---0----|-0-------0------------------------|
D|------------------0---2---0-----------|------------------------|-----0-------0--------------------|
A|-0-------0--2--3----------------------|------------------------|-----------------3---2--------0---|
E|----------------------------------3---|-----3------------------|-------------------------3--------|


G|---------------------------|----------------------0------------|----------0---0----0-------0--|
D|---------------------------|----------0---2---0----------------|-----------------------0------|
A|-----0---------0---0-------|-0--2--3---------------------------|------------------------------|
E|---------------------------|--------------------------3----3---|------------------------------|


G|------------------------------|-----------------------------------|---------0-----------------|
D|----0-------------------------|-------------------------------0---|-2---0---------------------|
A|--------3---2--------0----0---|----------0---0-------0--2--3------|---------------------------|
E|----------------3-------------|-----------------------------------|-------------3----3--------|


G|-----0---0----0-------0-----------|------------------------|--------------------------------------|
D|------------------0-------0-------|------------------------|--------------------------0---2---0---|
A|------------------------------3---|-2--------0----0--------|-----0---0-------0--2--3--------------|
E|----------------------------------|-----3------------------|--------------------------------------|


G|-0------------------0---|-0----0-------0-------------------|------------------------|
D|------------------------|----------0-------0---------------|------------------------|
A|------------------------|----------------------3---2-------|-----0----0---------0---|
E|-----3----3-------------|------------------------------3---|------------------------|


G|------------------------------0-------|---------------0---0----|-0-------0------------------------|
D|------------------0---2---0-----------|------------------------|-----0-------0--------------------|
A|-0-------0--2--3----------------------|------------------------|-----------------3---2--------0---|
E|----------------------------------3---|-----3------------------|-------------------------3--------|


G|---------------------------|----------------------0------------|----------0---0----0-------0--|
D|---------------------------|----------0---2---0----------------|-----------------------0------|
A|-----0---------0---0-------|-0--2--3---------------------------|------------------------------|
E|---------------------------|--------------------------3----3---|------------------------------|


G|------------------------------|-----------------------------------|---------0-----------------|
D|----0-------------------------|-------------------------------0---|-2---0---------------------|
A|--------3---2--------0----0---|----------0---0-------0--2--3------|---------------------------|
E|----------------3-------------|-----------------------------------|-------------3----3--------|


G|-----0---0----0-------0-----------|------------------------|--------------------------------------|
D|------------------0-------0-------|------------------------|--------------------------0---2---0---|
A|------------------------------3---|-2--------0----0--------|-----0---0-------0--2--3--------------|
E|----------------------------------|-----3------------------|--------------------------------------|


G|-0------------------0---|-0----0-------0-------------------|--------------------|
D|------------------------|----------0-------0---------------|-----7----7-----7---|
A|------------------------|----------------------3---2-------|--------------------|
E|-----3----3-------------|------------------------------3---|--------------------|


G|-----------------|-----------------|----------------|-----------------|-----------------|
D|-----------7-----|-----5----5------|-----5----------|-----------------|-----------------|
A|-----------------|-----------------|------------8---|-----8-----8-----|-------8-----7---|
E|-----------------|-----------------|----------------|-----------------|-----------------|


G|----------------|-----------7----7---|-------7------|-----7--------------|-----------------|
D|----------------|--------------------|--------------|--------------------|-----------------|
A|-----7------7---|--------------------|--------------|--------------------|-----------------|
E|----------------|--------------------|--------------|-----------8----8---|-----------8-----|


G|------------------|----------------|------------------|--------------|------------------------|
D|------------------|----------------|------------------|--------------|------------------------|
A|------------------|----------------|------------------|--------------|-----0----0---------0---|
E|-------7----7-----|-----7------7---|-------5----5-----|-------5------|------------------------|


G|------------------------------0-------|---------------0---0----|-0-------0------------------------|
D|------------------0---2---0-----------|------------------------|-----0-------0----------------7---|
A|-0-------0--2--3----------------------|------------------------|-----------------3---2------------|
E|----------------------------------3---|-----3------------------|-------------------------3--------|


G|-----------------|-----------------|----------------|--------------------|--------------|
D|-----7-----7-----|-------7-----5---|-----5------5---|--------------------|--------------|
A|-----------------|-----------------|----------------|-----------8----8---|-------8------|
E|-----------------|-----------------|----------------|--------------------|--------------|


G|--------------------|-----------------|-------7----7-----|-----7------7---|------------------|
D|--------------------|-----------------|------------------|----------------|------------------|
A|-----8-----7----7---|-----------7-----|------------------|----------------|------------------|
E|--------------------|-----------------|------------------|----------------|-------8----8-----|


G|--------------|--------------------|-----------------|-----------------|----------------|
D|--------------|--------------------|-----------------|-----------------|----------------|
A|--------------|--------------------|-----------------|-----------------|------------0---|
E|-------8------|-----7----7-----7---|-----------7-----|-----5----5------|-----5----------|


G|---------------------------|----------------------0------------|----------0---0----0-------0--|
D|---------------------------|----------0---2---0----------------|-----------------------0------|
A|-----0---------0---0-------|-0--2--3---------------------------|------------------------------|
E|---------------------------|--------------------------3----3---|------------------------------|


G|------------------------------|--------------|--------------------|-----------------|
D|----0----------------7----7---|-------7------|-----7-----5----5---|-----------5-----|
A|--------3---2-----------------|--------------|--------------------|-----------------|
E|----------------3-------------|--------------|--------------------|-----------------|


G|------------------|----------------|------------------|--------------|-----7----7-----7---|
D|------------------|----------------|------------------|--------------|--------------------|
A|-------8----8-----|-----8------8---|-------7----7-----|-------7------|--------------------|
E|------------------|----------------|------------------|--------------|--------------------|


G|-----------7-----|-----------------|----------------|---------------------------|
D|-----------------|-----------------|----------------|---------------------------|
A|-----------------|-----------------|------------0---|-----0---------0---0-------|
E|-----------------|-----8----8------|-----8----------|---------------------------|


G|----------------------0------------|----------0---0----0-------0--|------------------------------|
D|----------0---2---0----------------|-----------------------0------|----0-------------------------|
A|-0--2--3---------------------------|------------------------------|--------3---2--------0----0---|
E|--------------------------3----3---|------------------------------|----------------3-------------|


G|-----------------------------------|---------0-----------------|-----0---0----0-------0-----------|
D|-------------------------------0---|-2---0---------------------|------------------0-------0-------|
A|----------0---0-------0--2--3------|---------------------------|------------------------------3---|
E|-----------------------------------|-------------3----3--------|----------------------------------|


G|------------------------|--------------------------------------|-0------------------0---|
D|------------------------|--------------------------0---2---0---|------------------------|
A|-2--------0----0--------|-----0---0-------0--2--3--------------|------------------------|
E|-----3------------------|--------------------------------------|-----3----3-------------|


G|-0----0-------0-------------------|------------------------|------------------------------0-------|
D|----------0-------0---------------|------------------------|------------------0---2---0-----------|
A|----------------------3---2-------|-----0----0---------0---|-0-------0--2--3----------------------|
E|------------------------------3---|------------------------|----------------------------------3---|


G|---------------0---0----|-0-------0------------------------|---------------------------|
D|------------------------|-----0-------0--------------------|---------------------------|
A|------------------------|-----------------3---2--------0---|-----0---------0---0-------|
E|-----3------------------|-------------------------3--------|---------------------------|


G|----------------------0------------|----------0---0----0-------0--|------------------------------|
D|----------0---2---0----------------|-----------------------0------|----0-------------------------|
A|-0--2--3---------------------------|------------------------------|--------3---2--------0----0---|
E|--------------------------3----3---|------------------------------|----------------3-------------|


G|-----------------------------------|---------0-----------------|-----0---0----0-------0-----------|
D|-------------------------------0---|-2---0---------------------|------------------0-------0-------|
A|----------0---0-------0--2--3------|---------------------------|------------------------------3---|
E|-----------------------------------|-------------3----3--------|----------------------------------|


G|------------------------|--------------------------------------|-0------------------0---|
D|------------------------|--------------------------0---2---0---|------------------------|
A|-2--------0----0--------|-----0---0-------0--2--3--------------|------------------------|
E|-----3------------------|--------------------------------------|-----3----3-------------|


G|-0----0-------0-------------------|------------------------|------------------------------0-------|
D|----------0-------0---------------|------------------------|------------------0---2---0-----------|
A|----------------------3---2-------|-----0----0---------0---|-0-------0--2--3----------------------|
E|------------------------------3---|------------------------|----------------------------------3---|


G|---------------0---0----|-0-------0------------------------|---------------------------|
D|------------------------|-----0-------0--------------------|---------------------------|
A|------------------------|-----------------3---2--------0---|-----0---------0---0-------|
E|-----3------------------|-------------------------3--------|---------------------------|


G|----------------------0------------|----------0---0----0-------0--|------------------------------|
D|----------0---2---0----------------|-----------------------0------|----0-------------------------|
A|-0--2--3---------------------------|------------------------------|--------3---2--------0----0---|
E|--------------------------3----3---|------------------------------|----------------3-------------|


G|-----------------------------------|---------0-----------------|-----0---0----0-------0-----------|
D|-------------------------------0---|-2---0---------------------|------------------0-------0-------|
A|----------0---0-------0--2--3------|---------------------------|------------------------------3---|
E|-----------------------------------|-------------3----3--------|----------------------------------|


G|------------------------|--------------------------------------|-0------------------0---|
D|------------------------|--------------------------0---2---0---|------------------------|
A|-2--------0----0--------|-----0---0-------0--2--3--------------|------------------------|
E|-----3------------------|--------------------------------------|-----3----3-------------|


G|-0----0-------0-------------------|-----------------|--------------------|-----------------|
D|----------0-------0---------------|-----2-----2-----|-----2-----2----2---|-----3-----------|
A|----------------------3---2-------|-----------------|--------------------|-----------------|
E|------------------------------3---|-----------------|--------------------|-----------1-----|


G|---------------------|------------|-----------------|-----------------|------------|
D|-----3---------3-----|-----4------|-----4-----4-----|-----------------|------------|
A|---------------------|------------|-----------------|-----4-----4-----|-----4------|
E|----------1----------|------------|-----------------|-----------------|------------|


G|------------|------------|------------|------------|--------|--------|--------|--------|
D|------------|------------|------------|------------|--------|--------|--------|--------|
A|-----9------|-----9------|------------|------------|--------|--------|--------|--------|
E|------------|------------|------------|------------|--------|--------|--------|--------|


G|--------|--------|--------|--------|--------|--------|--------|--------|----------------|
D|--------|--------|--------|--------|--------|--------|--------|--------|----------------|
A|--------|--------|--------|--------|--------|--------|--------|--------|----------------|
E|--------|--------|--------|--------|--------|--------|--------|--------|----------------|


G|------------|------------|----------------|------------|-------------|-----------------|
D|------------|------------|----------------|------------|-------------|-----------------|
A|------------|------------|----------------|------------|-------------|-----------------|
E|------------|------------|----------------|------------|-------------|-----------------|


G|--------------------|-----------------|-------------|--------------|-----------------|
D|--------------------|-----------------|-------------|--------------|-----------------|
A|--------------------|-----------------|-------------|--------------|-----------------|
E|--------------------|-----------------|-------------|--------------|-----------------|


G|--------------|-------------|------------|----------------|------------|------------|
D|--------------|-------------|------------|----------------|------------|------------|
A|--------------|-------------|------------|----------------|------------|------------|
E|--------------|-------------|------------|----------------|------------|------------|


G|----------------|------------|-------------|-----------------|--------------------|
D|----------------|------------|-------------|-----------------|--------------------|
A|----------------|------------|-------------|-----------------|--------------------|
E|----------------|------------|-------------|-----------------|---------------2----|


G|-----------------|-------------|-----------------|-------------|-----------------|
D|-----------------|-------------|-----------------|-------------|-----------------|
A|-----------------|-------------|-----------------|-------------|-----------------|
E|------7-----7----|--------7----|------2-----2----|--------2----|------7-----7----|


G|-------------|-----------------|-------------|-----------------|-------------|-----------------|
D|-------------|-----------------|-------------|-----------------|-------------|-----------------|
A|-------------|-----------------|-------------|-----------------|-------------|-----------------|
E|--------7----|------2-----2----|--------2----|------7-----7----|--------7----|------2-----2----|


G|-------------|-----------------|-------------|-----------------|-------------|-----------------|
D|-------------|-----------------|-------------|-----------------|-------------|-----------------|
A|-------------|-----------------|-------------|-----------------|-------------|-----------------|
E|--------2----|------7-----7----|--------7----|------2-----2----|--------2----|------7-----7----|


G|-------------|-----------------|--------|
D|-------------|-----------------|--------|
A|-------------|-----------------|--------|
E|--------7----|------2-----2----|--------|