Menu:

 

Search:

 

mike oldfield - moonlight shadow:

 



Title: Moonlight Shadow
Artist: 
Album: Crises
Author: Mike Oldfield


Track 1: 12 Strings Guitar

E|-7---7-------7---7-------7---7---|-7---7---7---7---7---7---7---7---|-4---4---4---4---4---4---4---2--2--|
B|-9---9-------9---9-------9---9---|-7---7---7---7---7---7---7---7---|-5---5---5---5---5---5---5---4--4--|
G|-9---9-------9---9-------9---9---|-8---8---8---8---8---8---8---8---|-6---6---6---6---6---6---6---4--4--|
D|-9---9---9---9---9---9---9---9---|-9---9---9---9---9---9---9---9---|-6---6---6---6---6---6---6---4--4--|
A|-7---7---7-----------7-----------|-9---9---9---9---9---9---9---9---|-4---4---4---4---4---4---4---2--2--|
E|-7---7---7-----------7-----------|-7---7---7---7---7---7---7---7---|-----------------------------------|


E|-2---2---2---2---2---2---2---2---|--------|--------|--------|--------|--------|--------|
B|-4---4---4---4---4---4---4---4---|--------|--------|--------|--------|--------|--------|
G|-4---4---4---4---4---4---4---4---|--------|--------|--------|--------|--------|--------|
D|-4---4---4---4---4---4---4---4---|--------|--------|--------|--------|--------|--------|
A|-2---2---2---2---2---2---2---2---|--------|--------|--------|--------|--------|--------|
E|---------------------------------|--------|--------|--------|--------|--------|--------|


E|--------|--------|--------|--------|--------|--------|--------|--------|--------|
B|--------|--------|--------|--------|--------|--------|--------|--------|--------|
G|--------|--------|--------|--------|--------|--------|--------|--------|--------|
D|--------|--------|--------|--------|--------|--------|--------|--------|--------|
A|--------|--------|--------|--------|--------|--------|--------|--------|--------|
E|--------|--------|--------|--------|--------|--------|--------|--------|--------|


E|--------|--------|--------|--------|--------|--------|--------|--------|--------|
B|--------|--------|--------|--------|--------|--------|--------|--------|--------|
G|--------|--------|--------|--------|--------|--------|--------|--------|--------|
D|--------|--------|--------|--------|--------|--------|--------|--------|--------|
A|--------|--------|--------|--------|--------|--------|--------|--------|--------|
E|--------|--------|--------|--------|--------|--------|--------|--------|--------|


E|--------|--------|--------|--------|--------|--------|--------|--------|--------|
B|--------|--------|--------|--------|--------|--------|--------|--------|--------|
G|--------|--------|--------|--------|--------|--------|--------|--------|--------|
D|--------|--------|--------|--------|--------|--------|--------|--------|--------|
A|--------|--------|--------|--------|--------|--------|--------|--------|--------|
E|--------|--------|--------|--------|--------|--------|--------|--------|--------|


E|--------|--------|--------|--------|--------|--------|--------|--------|--------|
B|--------|--------|--------|--------|--------|--------|--------|--------|--------|
G|--------|--------|--------|--------|--------|--------|--------|--------|--------|
D|--------|--------|--------|--------|--------|--------|--------|--------|--------|
A|--------|--------|--------|--------|--------|--------|--------|--------|--------|
E|--------|--------|--------|--------|--------|--------|--------|--------|--------|


E|--------|--------|--------|--------|--------|--------|--------|--------|--------|
B|--------|--------|--------|--------|--------|--------|--------|--------|--------|
G|--------|--------|--------|--------|--------|--------|--------|--------|--------|
D|--------|--------|--------|--------|--------|--------|--------|--------|--------|
A|--------|--------|--------|--------|--------|--------|--------|--------|--------|
E|--------|--------|--------|--------|--------|--------|--------|--------|--------|


E|--------|--------|--------|--------|--------|--------|--------|--------|--------|
B|--------|--------|--------|--------|--------|--------|--------|--------|--------|
G|--------|--------|--------|--------|--------|--------|--------|--------|--------|
D|--------|--------|--------|--------|--------|--------|--------|--------|--------|
A|--------|--------|--------|--------|--------|--------|--------|--------|--------|
E|--------|--------|--------|--------|--------|--------|--------|--------|--------|


E|--------|--------|--------|--------|--------|--------|--------|--------|--------|
B|--------|--------|--------|--------|--------|--------|--------|--------|--------|
G|--------|--------|--------|--------|--------|--------|--------|--------|--------|
D|--------|--------|--------|--------|--------|--------|--------|--------|--------|
A|--------|--------|--------|--------|--------|--------|--------|--------|--------|
E|--------|--------|--------|--------|--------|--------|--------|--------|--------|


E|--------|--------|--------|--------|--------|--------|--------|--------|--------|
B|--------|--------|--------|--------|--------|--------|--------|--------|--------|
G|--------|--------|--------|--------|--------|--------|--------|--------|--------|
D|--------|--------|--------|--------|--------|--------|--------|--------|--------|
A|--------|--------|--------|--------|--------|--------|--------|--------|--------|
E|--------|--------|--------|--------|--------|--------|--------|--------|--------|


E|--------|--------|--------|--------|--------|--------|--------|--------|--------|
B|--------|--------|--------|--------|--------|--------|--------|--------|--------|
G|--------|--------|--------|--------|--------|--------|--------|--------|--------|
D|--------|--------|--------|--------|--------|--------|--------|--------|--------|
A|--------|--------|--------|--------|--------|--------|--------|--------|--------|
E|--------|--------|--------|--------|--------|--------|--------|--------|--------|


E|--------|--------|--------|--------|--------|--------|--------|--------|--------|
B|--------|--------|--------|--------|--------|--------|--------|--------|--------|
G|--------|--------|--------|--------|--------|--------|--------|--------|--------|
D|--------|--------|--------|--------|--------|--------|--------|--------|--------|
A|--------|--------|--------|--------|--------|--------|--------|--------|--------|
E|--------|--------|--------|--------|--------|--------|--------|--------|--------|


E|--------|--------|--------|--------|--------|--------|--------|--------|--------|
B|--------|--------|--------|--------|--------|--------|--------|--------|--------|
G|--------|--------|--------|--------|--------|--------|--------|--------|--------|
D|--------|--------|--------|--------|--------|--------|--------|--------|--------|
A|--------|--------|--------|--------|--------|--------|--------|--------|--------|
E|--------|--------|--------|--------|--------|--------|--------|--------|--------|


E|--------|--------|--------|--------|--------|--------|--------|
B|--------|--------|--------|--------|--------|--------|--------|
G|--------|--------|--------|--------|--------|--------|--------|
D|--------|--------|--------|--------|--------|--------|--------|
A|--------|--------|--------|--------|--------|--------|--------|
E|--------|--------|--------|--------|--------|--------|--------|





Track 2: Acoustic Guitar

E|---------------------------------|---------------------------------|---------------------------------|
B|-----5-----------5-----------5---|-----7-----------7-----------7---|-----5-----------5-----------7---|
G|-------------4-----------4-------|-------------4-----------4-------|-------------6-----------6-------|
D|-6-------6-----------6---4-------|-4-------6---4-------4-----------|-6-------6-----------4-----------|
A|---------------------------------|---------------------------------|---------------------------------|
E|---------------------------------|---------------------------------|---------------------------------|


E|---------------------------------|---------------------------------|---------------------------------|
B|-7---7---7---7---7---7---7---7---|-5-----------4---5-----------4---|-5-----------4---5-----------5---|
G|-6---6---6---6---6---6---6---6---|---------6---------------6-------|---------6---------------6-------|
D|-4---4---4---4---4---4---4---4---|-----6---------------6-----------|-----7---------------7-----------|
A|---------------------------------|---------------------------------|---------------------------------|
E|---------------------------------|---------------------------------|---------------------------------|


E|---------------------------------|---------------------------------|---------------------------------|
B|-4-----------4---5---7-------4---|-5-----------5---4-----------4---|-5-----------4---5-----------4---|
G|---------4---------------4-------|---------4---------------4-------|---------6---------------6-------|
D|-----4---------------------------|-----6---------------4-----------|-----6---------------6-----------|
A|---------------------------------|---------------------------------|---------------------------------|
E|---------------------------------|---------------------------------|---------------------------------|


E|---------------------------------|---------------------------------|---------------------------------|
B|-5-----------4---5-----------5---|-4-----------4---5---7-------4---|-5-----------5---4-----------4---|
G|---------6---------------6-------|---------4---------------4-------|---------4---------------4-------|
D|-----7---------------7-----------|-----4---------------------------|-----6---------------4-----------|
A|---------------------------------|---------------------------------|---------------------------------|
E|---------------------------------|---------------------------------|---------------------------------|


E|---------------------------------|---------------------------------|---------------------------------|
B|-5-------5-------5---------------|-----7-----------7-----------7---|-----7-----------5-----------5---|
G|-----4-------4-------------------|-------------4-----------4-------|-------------6-----------6-------|
D|-6-------6-------7---6---4-------|-4-------6---4-------4-----------|-6-------6-----------7-----------|
A|-----------------------------7---|---------------------------------|---------------------------------|
E|---------------------------------|---------------------------------|---------------------------------|


E|---------------------------------|---------------------------------|---------------------------------|
B|-----7-----------7-----------4---|-5-------5-------5---------------|-----7-----------7-----------7---|
G|-------------4-----------4-------|-----4-------4-------------------|-------------4-----------4-------|
D|-4-------4-----------4-----------|-6-------6-------7---6---4-------|-4-------6---4-------4-----------|
A|---------------------------------|-----------------------------7---|---------------------------------|
E|---------------------------------|---------------------------------|---------------------------------|


E|---------------------------------|---------------------------------|---------------------------------|
B|-----7-----------5-----------5---|-----7-----------7-----------4---|-5-----------4---5-----------4---|
G|-------------6-----------6-------|-------------4-----------4-------|---------6---------------6-------|
D|-6-------6-----------7-----------|-4-------4-----------4-----------|-----6---------------6-----------|
A|---------------------------------|---------------------------------|---------------------------------|
E|---------------------------------|---------------------------------|---------------------------------|


E|---------------------------------|---------------------------------|---------------------------------|
B|-5-----------4---5-----------5---|-4-----------4---5---7-------4---|-5-----------5---4-----------4---|
G|---------6---------------6-------|---------4---------------4-------|---------4---------------4-------|
D|-----7---------------7-----------|-----4---------------------------|-----6---------------4-----------|
A|---------------------------------|---------------------------------|---------------------------------|
E|---------------------------------|---------------------------------|---------------------------------|


E|---------------------------------|---------------------------------|---------------------------------|
B|-5-----------4---5-----------4---|-5-----------4---5-----------5---|-4-----------4---5---7-------4---|
G|---------6---------------6-------|---------6---------------6-------|---------4---------------4-------|
D|-----6---------------6-----------|-----7---------------7-----------|-----4---------------------------|
A|---------------------------------|---------------------------------|---------------------------------|
E|---------------------------------|---------------------------------|---------------------------------|


E|---------------------------------|---------------------------------|---------------------------------|
B|-5-----------5---4-----------4---|-5-------5-------5---------------|-----7-----------7-----------7---|
G|---------4---------------4-------|-----4-------4-------------------|-------------4-----------4-------|
D|-----6---------------4-----------|-6-------6-------7---6---4-------|-4-------6---4-------4-----------|
A|---------------------------------|-----------------------------7---|---------------------------------|
E|---------------------------------|---------------------------------|---------------------------------|


E|---------------------------------|---------------------------------|---------------------------------|
B|-----7-----------5-----------5---|-----7-----------7-----------4---|-5-------5-------5---------------|
G|-------------6-----------6-------|-------------4-----------4-------|-----4-------4-------------------|
D|-6-------6-----------7-----------|-4-------4-----------4-----------|-6-------6-------7---6---4-------|
A|---------------------------------|---------------------------------|-----------------------------7---|
E|---------------------------------|---------------------------------|---------------------------------|


E|---------------------------------|---------------------------------|---------------------------------|
B|-----7-----------7-----------7---|-----7-----------5-----------5---|-----7-----------7-----------4---|
G|-------------4-----------4-------|-------------6-----------6-------|-------------4-----------4-------|
D|-4-------6---4-------4-----------|-6-------6-----------7-----------|-4-------4-----------4-----------|
A|---------------------------------|---------------------------------|---------------------------------|
E|---------------------------------|---------------------------------|---------------------------------|


E|---------------------------------|---------------------------------|---------------------------------|
B|---------5-------4-----------4---|---------5-------4-----------4---|---------5---------------5-------|
G|-----4-------------------4-------|-----4-------------------4-------|-----4---------------6-----------|
D|-4-----------4-------4-----------|-4-----------4-------4-----------|-6-----------6---7-----------7---|
A|---------------------------------|---------------------------------|---------------------------------|
E|---------------------------------|---------------------------------|---------------------------------|


E|---------------------------------|---------------------------------|---------------------------------|
B|---------5-------4-----------4---|---------5-------4-----------4---|---------5-------4-----------4---|
G|-----4-------------------4-------|-----4-------------------4-------|-----4-------------------4-------|
D|-4-----------4-------4-----------|-1-----------4-------4-----------|-4-----------4-------4-----------|
A|---------------------------------|---------------------------------|---------------------------------|
E|---------------------------------|---------------------------------|---------------------------------|


E|---------------------------------|---------------------------------|---------------------------------|
B|---------5---------------5-------|---------5-------4-----------4---|-5-----------4---5-----------4---|
G|-----4---------------6-----------|-----4-------------------4-------|---------6---------------6-------|
D|-6-----------6---7-----------7---|-4-----------4-------4-----------|-----6---------------6-----------|
A|---------------------------------|---------------------------------|---------------------------------|
E|---------------------------------|---------------------------------|---------------------------------|


E|---------------------------------|---------------------------------|---------------------------------|
B|-5-----------4---5-----------5---|-4-----------4---5---7-------4---|-5-----------5---4-----------4---|
G|---------6---------------6-------|---------4---------------4-------|---------4---------------4-------|
D|-----7---------------7-----------|-----4---------------------------|-----6---------------4-----------|
A|---------------------------------|---------------------------------|---------------------------------|
E|---------------------------------|---------------------------------|---------------------------------|


E|---------------------------------|---------------------------------|---------------------------------|
B|-5-----------4---5-----------4---|-5-----------4---5-----------5---|-4-----------4---5---7-------4---|
G|---------6---------------6-------|---------6---------------6-------|---------4---------------4-------|
D|-----6---------------6-----------|-----7---------------7-----------|-----4---------------------------|
A|---------------------------------|---------------------------------|---------------------------------|
E|---------------------------------|---------------------------------|---------------------------------|


E|---------------------------------|---------------------------------|---------------------------------|
B|-5-----------5---4-----------4---|-5-------5-------5---------------|-----7-----------7-----------7---|
G|---------4---------------4-------|-----4-------4-------------------|-------------4-----------4-------|
D|-----6---------------4-----------|-6-------6-------7---6---4-------|-4-------6---4-------4-----------|
A|---------------------------------|-----------------------------7---|---------------------------------|
E|---------------------------------|---------------------------------|---------------------------------|


E|---------------------------------|---------------------------------|---------------------------------|
B|-----7-----------5-----------5---|-----7-----------7-----------4---|-5-------5-------5---------------|
G|-------------6-----------6-------|-------------4-----------4-------|-----4-------4-------------------|
D|-6-------6-----------7-----------|-4-------4-----------4-----------|-6-------6-------7---6---4-------|
A|---------------------------------|---------------------------------|-----------------------------7---|
E|---------------------------------|---------------------------------|---------------------------------|


E|---------------------------------|---------------------------------|---------------------------------|
B|-----7-----------7-----------7---|-----7-----------5-----------5---|-----7-----------7-----------4---|
G|-------------4-----------4-------|-------------6-----------6-------|-------------4-----------4-------|
D|-4-------6---4-------4-----------|-6-------6-----------7-----------|-4-------4-----------4-----------|
A|---------------------------------|---------------------------------|---------------------------------|
E|---------------------------------|---------------------------------|---------------------------------|


E|---------------------------------|---------------------------------|---------------------------------|
B|---------5-------4-----------4---|---------5-------4-----------4---|---------5---------------5-------|
G|-----4-------------------4-------|-----4-------------------4-------|-----4---------------6-----------|
D|-4-----------4-------4-----------|-4-----------4-------4-----------|-6-----------6---7-----------7---|
A|---------------------------------|---------------------------------|---------------------------------|
E|---------------------------------|---------------------------------|---------------------------------|


E|---------------------------------|---------------------------------|---------------------------------|
B|---------5-------4-----------4---|---------5-------4-----------4---|---------5-------4-----------4---|
G|-----4-------------------4-------|-----4-------------------4-------|-----4-------------------4-------|
D|-4-----------4-------4-----------|-4-----------4-------4-----------|-4-----------4-------4-----------|
A|---------------------------------|---------------------------------|---------------------------------|
E|---------------------------------|---------------------------------|---------------------------------|


E|---------------------------------|---------------------------------|---------------------------------|
B|---------5---------------5-------|---------5-------4-----------4---|-5-----------4---5-----------4---|
G|-----4---------------6-----------|-----4-------------------4-------|---------6---------------6-------|
D|-6-----------6---7-----------7---|-4-----------4-------4-----------|-----6---------------6-----------|
A|---------------------------------|---------------------------------|---------------------------------|
E|---------------------------------|---------------------------------|---------------------------------|


E|---------------------------------|---------------------------------|---------------------------------|
B|-5-----------4---5-----------5---|-4-----------4---5---7-------4---|-5-----------5---4-----------4---|
G|---------6---------------6-------|---------4---------------4-------|---------4---------------4-------|
D|-----7---------------7-----------|-----4---------------------------|-----6---------------4-----------|
A|---------------------------------|---------------------------------|---------------------------------|
E|---------------------------------|---------------------------------|---------------------------------|


E|---------------------------------|---------------------------------|---------------------------------|
B|-5-----------4---5-----------4---|-5-----------4---5-----------5---|-4-----------4---5---7-------4---|
G|---------6---------------6-------|---------6---------------6-------|---------4---------------4-------|
D|-----6---------------6-----------|-----7---------------7-----------|-----4---------------------------|
A|---------------------------------|---------------------------------|---------------------------------|
E|---------------------------------|---------------------------------|---------------------------------|


E|---------------------------------|---------------------------------|---------------------------------|
B|-5-----------5---4-----------4---|-5-------5-------5---------------|-----7-----------7-----------7---|
G|---------4---------------4-------|-----4-------4-------------------|-------------4-----------4-------|
D|-----6---------------4-----------|-6-------6-------7---6---4-------|-4-------6---4-------4-----------|
A|---------------------------------|-----------------------------7---|---------------------------------|
E|---------------------------------|---------------------------------|---------------------------------|


E|---------------------------------|---------------------------------|---------------------------------|
B|-----7-----------5-----------5---|-----7-----------7-----------4---|-5-------5-------5---------------|
G|-------------6-----------6-------|-------------4-----------4-------|-----4-------4-------------------|
D|-6-------6-----------7-----------|-4-------4-----------4-----------|-6-------6-------7---6---4-------|
A|---------------------------------|---------------------------------|-----------------------------7---|
E|---------------------------------|---------------------------------|---------------------------------|


E|---------------------------------|---------------------------------|---------------------------------|
B|-----7-----------7-----------7---|-----7-----------5-----------5---|-----7-----------7-----------4---|
G|-------------4-----------4-------|-------------6-----------6-------|-------------4-----------4-------|
D|-4-------6---4-------4-----------|-6-------6-----------7-----------|-4-------4-----------4-----------|
A|---------------------------------|---------------------------------|---------------------------------|
E|---------------------------------|---------------------------------|---------------------------------|


E|---------------------------------|---------------------------------|---------------------------------|
B|-5-----------4---5-----------4---|-5-----------4---5-----------5---|-4-----------4---5---7-------4---|
G|---------6---------------6-------|---------6---------------6-------|---------4---------------4-------|
D|-----6---------------6-----------|-----7---------------7-----------|-----4---------------------------|
A|---------------------------------|---------------------------------|---------------------------------|
E|---------------------------------|---------------------------------|---------------------------------|


E|---------------------------------|---------------------------------|---------------------------------|
B|-5-----------5---4-----------4---|-5-----------4---5-----------4---|-5-----------4---5-----------5---|
G|---------4---------------4-------|---------6---------------6-------|---------6---------------6-------|
D|-----6---------------4-----------|-----6---------------6-----------|-----7---------------7-----------|
A|---------------------------------|---------------------------------|---------------------------------|
E|---------------------------------|---------------------------------|---------------------------------|


E|---------------------------------|---------------------------------|---------------------------------|
B|-4-----------4---5---7-------4---|-5-----------5---4-----------4---|-5-------5-------5---------------|
G|---------4---------------4-------|---------4---------------4-------|-----4-------4-------------------|
D|-----4---------------------------|-----6---------------4-----------|-6-------6-------7---6---4-------|
A|---------------------------------|---------------------------------|-----------------------------7---|
E|---------------------------------|---------------------------------|---------------------------------|


E|---------------------------------|---------------------------------|---------------------------------|
B|-----7-----------7-----------7---|-----7-----------5-----------5---|-----7-----------7-----------4---|
G|-------------4-----------4-------|-------------6-----------6-------|-------------4-----------4-------|
D|-4-------6---4-------4-----------|-6-------6-----------7-----------|-4-------4-----------4-----------|
A|---------------------------------|---------------------------------|---------------------------------|
E|---------------------------------|---------------------------------|---------------------------------|


E|---------------------------------|---------------------------------|---------------------------------|
B|-5-------5-------5---------------|-----7-----------7-----------7---|-----7-----------5-----------5---|
G|-----4-------4-------------------|-------------4-----------4-------|-------------6-----------6-------|
D|-6-------6-------7---6---4-------|-4-------6---4-------4-----------|-6-------6-----------7-----------|
A|-----------------------------7---|---------------------------------|---------------------------------|
E|---------------------------------|---------------------------------|---------------------------------|


E|---------------------------------|---------------------------------|---------------------------------|
B|-----7-----------7-----------4---|-5-----------4---5-----------4---|-5-----------4---5-----------5---|
G|-------------4-----------4-------|---------6---------------6-------|---------6---------------6-------|
D|-4-------4-----------4-----------|-----6---------------6-----------|-----7---------------7-----------|
A|---------------------------------|---------------------------------|---------------------------------|
E|---------------------------------|---------------------------------|---------------------------------|


E|---------------------------------|---------------------------------|---------------------------------|
B|-4-----------4---5---7-------4---|-5-----------5---4-----------4---|-5-----------4---5-----------4---|
G|---------4---------------4-------|---------4---------------4-------|---------6---------------6-------|
D|-----4---------------------------|-----6---------------4-----------|-----6---------------6-----------|
A|---------------------------------|---------------------------------|---------------------------------|
E|---------------------------------|---------------------------------|---------------------------------|


E|---------------------------------|---------------------------------|---------------------------------|
B|-5-----------4---5-----------5---|-4-----------4---5---7-------4---|-5-----------5---4-----------4---|
G|---------6---------------6-------|---------4---------------4-------|---------4---------------4-------|
D|-----7---------------7-----------|-----4---------------------------|-----6---------------4-----------|
A|---------------------------------|---------------------------------|---------------------------------|
E|---------------------------------|---------------------------------|---------------------------------|


E|---------------------------------|---------------------------------|---------------------------------|
B|-5-------5-------5---------------|-----7-----------7-----------7---|-----7-----------5-----------5---|
G|-----4-------4-------------------|-------------4-----------4-------|-------------6-----------6-------|
D|-6-------6-------7---6---4-------|-4-------6---4-------4-----------|-6-------6-----------7-----------|
A|-----------------------------7---|---------------------------------|---------------------------------|
E|---------------------------------|---------------------------------|---------------------------------|


E|---------------------------------|---------------------------------|---------------------------------|
B|-----7-----------7-----------4---|-5-------5-------5---------------|-----7-----------7-----------7---|
G|-------------4-----------4-------|-----4-------4-------------------|-------------4-----------4-------|
D|-4-------4-----------4-----------|-6-------6-------7---6---4-------|-4-------6---4-------4-----------|
A|---------------------------------|-----------------------------7---|---------------------------------|
E|---------------------------------|---------------------------------|---------------------------------|


E|---------------------------------|---------------------------------|
B|-----7-----------5-----------5---|-----7-----------7-----------4---|
G|-------------6-----------6-------|-------------4-----------4-------|
D|-6-------6-----------7-----------|-4-------4-----------4-----------|
A|---------------------------------|---------------------------------|
E|---------------------------------|---------------------------------|





Track 3: Electric Guitar

E|---------------------------------|-----------------------------|---------------------------------|
B|-------------7---9---7-----------|-----------------------------|-----------------------------7---|
G|---------9---------------9---6---|-----6---8------------6--8---|-9---9---8---8---6---8---9-------|
D|-----9---------------------------|-9-----------------6---------|---------------------------------|
A|---------------------------------|-------------9---------------|---------------------------------|
E|---------------------------------|-----------------------------|---------------------------------|


E|----------------|--------|--------|--------|--------|--------|--------|--------|
B|-7--------------|--------|--------|--------|--------|--------|--------|--------|
G|----------------|--------|--------|--------|--------|--------|--------|--------|
D|-----9---9------|--------|--------|--------|--------|--------|--------|--------|
A|----------------|--------|--------|--------|--------|--------|--------|--------|
E|----------------|--------|--------|--------|--------|--------|--------|--------|


E|--------|--------|--------|--------|--------|--------|--------|--------|--------|
B|--------|--------|--------|--------|--------|--------|--------|--------|--------|
G|--------|--------|--------|--------|--------|--------|--------|--------|--------|
D|--------|--------|--------|--------|--------|--------|--------|--------|--------|
A|--------|--------|--------|--------|--------|--------|--------|--------|--------|
E|--------|--------|--------|--------|--------|--------|--------|--------|--------|


E|--------|--------|--------|--------|--------|--------|--------|--------|--------|
B|--------|--------|--------|--------|--------|--------|--------|--------|--------|
G|--------|--------|--------|--------|--------|--------|--------|--------|--------|
D|--------|--------|--------|--------|--------|--------|--------|--------|--------|
A|--------|--------|--------|--------|--------|--------|--------|--------|--------|
E|--------|--------|--------|--------|--------|--------|--------|--------|--------|


E|--------|--------|--------|--------|--------|--------|------------7--7--|-7----------7--7--|
B|--------|--------|--------|--------|--------|--------|------------7--7--|-7----------7--7--|
G|--------|--------|--------|--------|--------|--------|------------8--8--|-8----------8--8--|
D|--------|--------|--------|--------|--------|--------|------------9--9--|-9----------9--9--|
A|--------|--------|--------|--------|--------|--------|------------9--9--|-9----------9--9--|
E|--------|--------|--------|--------|--------|--------|------------7--7--|-7----------7--7--|


E|-7---7---7----------|--------|------------7--7--|-7----------7--7--|-7---7---7----------|
B|-7---7---7----------|--------|------------7--7--|-7----------7--7--|-7---7---7----------|
G|-8---8---8----------|--------|------------8--8--|-8----------8--8--|-8---8---8----------|
D|-9---9---9----------|--------|------------9--9--|-9----------9--9--|-9---9---9----------|
A|-9---9---9----------|--------|------------9--9--|-9----------9--9--|-9---9---9----------|
E|-7---7---7----------|--------|------------7--7--|-7----------7--7--|-7---7---7----------|


E|--------|--------|--------|--------|--------|--------|--------|--------|--------|
B|--------|--------|--------|--------|--------|--------|--------|--------|--------|
G|--------|--------|--------|--------|--------|--------|--------|--------|--------|
D|--------|--------|--------|--------|--------|--------|--------|--------|--------|
A|--------|--------|--------|--------|--------|--------|--------|--------|--------|
E|--------|--------|--------|--------|--------|--------|--------|--------|--------|


E|--------|--------|--------|--------|--------|--------|--------|--------|------------7--7--|
B|--------|--------|--------|--------|--------|--------|--------|--------|------------7--7--|
G|--------|--------|--------|--------|--------|--------|--------|--------|------------8--8--|
D|--------|--------|--------|--------|--------|--------|--------|--------|------------9--9--|
A|--------|--------|--------|--------|--------|--------|--------|--------|------------9--9--|
E|--------|--------|--------|--------|--------|--------|--------|--------|------------7--7--|


E|-7----------7--7--|-7---7---7----------|--------|------------7--7--|-7----------7--7--|
B|-7----------7--7--|-7---7---7----------|--------|------------7--7--|-7----------7--7--|
G|-8----------8--8--|-8---8---8----------|--------|------------8--8--|-8----------8--8--|
D|-9----------9--9--|-9---9---9----------|--------|------------9--9--|-9----------9--9--|
A|-9----------9--9--|-9---9---9----------|--------|------------9--9--|-9----------9--9--|
E|-7----------7--7--|-7---7---7----------|--------|------------7--7--|-7----------7--7--|


E|-7---7---7----------|--------|------------------|---------------------------------|
B|-7---7---7----------|--------|------------------|---------9---10--9---------------|
G|-8---8---8----------|--------|------------------|-----9---------------9-----------|
D|-9---9---9----------|--------|-----------9--9---|-11----------------------11--9---|
A|-9---9---9----------|--------|------------------|---------------------------------|
E|-7---7---7----------|--------|------------------|---------------------------------|


E|-------------9----0---11--12--|-14--14--14----------------------|---------------------------------|
B|------------------------------|-14--14--14--14--12--------------|---------12--------------12------|
G|---------9--------------------|---------------------11--13--14--|-----13-------13-----11----------|
D|-----11-----------------------|---------------------------------|-14--------------13----------13--|
A|-12---------------------------|---------------------------------|---------------------------------|
E|------------------------------|---------------------------------|---------------------------------|


E|---------------------------------|-------------9----0---11--12--|-14--14--14----------------------|
B|---------9---10--9---------------|------------------------------|-14--14--14--14--12------12--12--|
G|-----9---------------9-----------|---------9--------------------|---------------------11--13--13--|
D|-11----------------------11--9---|-----11-----------------------|---------------------------------|
A|---------------------------------|-12---------------------------|---------------------------------|
E|---------------------------------|------------------------------|---------------------------------|


E|-----------------------------------|---------------------------------|---------------------------------|
B|-12--12--12--12--12--------12--12--|-12--12--12--12--12------12------|-12------12--12--12--12--12--12--|
G|-13--11--11--11--11-11-9---11--9---|-11--11--11--11--11--9---11--9---|-11--11--11--9---11--11--13--11--|
D|-----------------------------------|---------------------------------|---------------------------------|
A|-----------------------------------|---------------------------------|---------------------------------|
E|-----------------------------------|---------------------------------|---------------------------------|


E|---------------------------------|---------------------------------|-19--19--19--------------19--19--|
B|---------12--------------10------|-12--12--12--12----------17--19--|-19--19--19--19--17------19--19--|
G|-----13--------------9-------9---|-11--11--13--11------16----------|-----------------16--16----------|
D|-14----------13--11--------------|---------------------------------|---------------------------------|
A|---------------------------------|---------------------------------|---------------------------------|
E|---------------------------------|---------------------------------|---------------------------------|


E|-19------19--19--19--19--19------|-----------------------------------------------|
B|-19--19--19--17--19--19--17--19--|-19-17-----------------------------------------|
G|---------------------------------|-------18-16-18-16-----------------------------|
D|---------------------------------|-------------------18-16-14----16----14--------|
A|---------------------------------|----------------------------16----16----16-14--|
E|---------------------------------|-----------------------------------------------|


E|---------------------------|--------|--------|--------|--------|--------|--------|
B|---------------------------|--------|--------|--------|--------|--------|--------|
G|---------------------------|--------|--------|--------|--------|--------|--------|
D|-16--16--18--14--16--------|--------|--------|--------|--------|--------|--------|
A|-14--14--14--14--14--------|--------|--------|--------|--------|--------|--------|
E|---------------------------|--------|--------|--------|--------|--------|--------|


E|--------|--------|--------|--------|--------|--------|--------|--------|--------|
B|--------|--------|--------|--------|--------|--------|--------|--------|--------|
G|--------|--------|--------|--------|--------|--------|--------|--------|--------|
D|--------|--------|--------|--------|--------|--------|--------|--------|--------|
A|--------|--------|--------|--------|--------|--------|--------|--------|--------|
E|--------|--------|--------|--------|--------|--------|--------|--------|--------|


E|------------------|---------------------------------|-------------9----0---11--12--|
B|------------------|---------9---10--9---------------|------------------------------|
G|------------------|-----9---------------9-----------|---------9--------------------|
D|-----------9--9---|-11----------------------11--9---|-----11-----------------------|
A|------------------|---------------------------------|-12---------------------------|
E|------------------|---------------------------------|------------------------------|


E|-14--14--14----------------------|---------------------------------|---------------------------------|
B|-14--14--14--14--12--------------|---------12--------------12------|---------9---10--9---------------|
G|---------------------11--13--14--|-----13-------13-----11----------|-----9---------------9-----------|
D|---------------------------------|-14--------------13----------13--|-11----------------------11--9---|
A|---------------------------------|---------------------------------|---------------------------------|
E|---------------------------------|---------------------------------|---------------------------------|


E|-------------9----0---11--12--|-14--14--14----------------------|-----------------------------------|
B|------------------------------|-14--14--14--14--12------12--12--|-12--12--12--12--12--------12--12--|
G|---------9--------------------|---------------------11--13--13--|-13--11--11--11--11-11-9---11--9---|
D|-----11-----------------------|---------------------------------|-----------------------------------|
A|-12---------------------------|---------------------------------|-----------------------------------|
E|------------------------------|---------------------------------|-----------------------------------|


E|---------------------------------|---------------------------------|---------------------------------|
B|-12--12--12--12--12------12------|-12------12--12--12--12--12--12--|---------12--------------10------|
G|-11--11--11--11--11--9---11--9---|-11--11--11--9---11--11--13--11--|-----13--------------9-------9---|
D|---------------------------------|---------------------------------|-14----------13--11--------------|
A|---------------------------------|---------------------------------|---------------------------------|
E|---------------------------------|---------------------------------|---------------------------------|


E|---------------------------------|-19--19--19--------------19--19--|-19------19--19--19--19--19------|
B|-12--12--12--12----------17--19--|-19--19--19--19--17------19--19--|-19--19--19--17--19--19--17--19--|
G|-11--11--13--11------16----------|-----------------16--16----------|---------------------------------|
D|---------------------------------|---------------------------------|---------------------------------|
A|---------------------------------|---------------------------------|---------------------------------|
E|---------------------------------|---------------------------------|---------------------------------|


E|-----------------------------------------------|--------|
B|-19-17-----------------------------------------|--------|
G|-------18-16-18-16-----------------------------|--------|
D|-------------------18-16-14----16----14--------|--------|
A|----------------------------16----16----16-14--|--------|
E|-----------------------------------------------|--------|





Track 4: Overdriven Guitar

E|--------|--------|--------|--------|--------|--------|--------|--------|--------|
B|--------|--------|--------|--------|--------|--------|--------|--------|--------|
G|--------|--------|--------|--------|--------|--------|--------|--------|--------|
D|--------|--------|--------|--------|--------|--------|--------|--------|--------|
A|--------|--------|--------|--------|--------|--------|--------|--------|--------|
E|--------|--------|--------|--------|--------|--------|--------|--------|--------|


E|--------|--------|--------|--------|--------|--------|--------|--------|--------|
B|--------|--------|--------|--------|--------|--------|--------|--------|--------|
G|--------|--------|--------|--------|--------|--------|--------|--------|--------|
D|--------|--------|--------|--------|--------|--------|--------|--------|--------|
A|--------|--------|--------|--------|--------|--------|--------|--------|--------|
E|--------|--------|--------|--------|--------|--------|--------|--------|--------|


E|--------|--------|--------|--------|--------|--------|--------|--------|--------|
B|--------|--------|--------|--------|--------|--------|--------|--------|--------|
G|--------|--------|--------|--------|--------|--------|--------|--------|--------|
D|--------|--------|--------|--------|--------|--------|--------|--------|--------|
A|--------|--------|--------|--------|--------|--------|--------|--------|--------|
E|--------|--------|--------|--------|--------|--------|--------|--------|--------|


E|--------|--------|--------|--------|--------|--------|--------|--------|--------|
B|--------|--------|--------|--------|--------|--------|--------|--------|--------|
G|--------|--------|--------|--------|--------|--------|--------|--------|--------|
D|--------|--------|--------|--------|--------|--------|--------|--------|--------|
A|--------|--------|--------|--------|--------|--------|--------|--------|--------|
E|--------|--------|--------|--------|--------|--------|--------|--------|--------|


E|--------|--------|--------|--------|--------|--------|--------|--------|--------|
B|--------|--------|--------|--------|--------|--------|--------|--------|--------|
G|--------|--------|--------|--------|--------|--------|--------|--------|--------|
D|--------|--------|--------|--------|--------|--------|--------|--------|--------|
A|--------|--------|--------|--------|--------|--------|--------|--------|--------|
E|--------|--------|--------|--------|--------|--------|--------|--------|--------|


E|--------|--------|--------|--------|--------|--------|--------|--------|--------|
B|--------|--------|--------|--------|--------|--------|--------|--------|--------|
G|--------|--------|--------|--------|--------|--------|--------|--------|--------|
D|--------|--------|--------|--------|--------|--------|--------|--------|--------|
A|--------|--------|--------|--------|--------|--------|--------|--------|--------|
E|--------|--------|--------|--------|--------|--------|--------|--------|--------|


E|--------|--------|--------|--------|--------|--------|--------|--------|--------|
B|--------|--------|--------|--------|--------|--------|--------|--------|--------|
G|--------|--------|--------|--------|--------|--------|--------|--------|--------|
D|--------|--------|--------|--------|--------|--------|--------|--------|--------|
A|--------|--------|--------|--------|--------|--------|--------|--------|--------|
E|--------|--------|--------|--------|--------|--------|--------|--------|--------|


E|--------|--------|--------|--------|--------|--------|--------|--------|--------|
B|--------|--------|--------|--------|--------|--------|--------|--------|--------|
G|--------|--------|--------|--------|--------|--------|--------|--------|--------|
D|--------|--------|--------|--------|--------|--------|--------|--------|--------|
A|--------|--------|--------|--------|--------|--------|--------|--------|--------|
E|--------|--------|--------|--------|--------|--------|--------|--------|--------|


E|--------|--------|--------|--------|--------|--------|--------|--------|--------|
B|--------|--------|--------|--------|--------|--------|--------|--------|--------|
G|--------|--------|--------|--------|--------|--------|--------|--------|--------|
D|--------|--------|--------|--------|--------|--------|--------|--------|--------|
A|--------|--------|--------|--------|--------|--------|--------|--------|--------|
E|--------|--------|--------|--------|--------|--------|--------|--------|--------|


E|--------|--------|----------------19--|-----19----------------------19--|-----19--------------------------|
B|--------|--------|-----------19-------|-19------19--19--17------19------|-19------19--19----------16--17--|
G|--------|--------|--------------------|---------------------18----------|-----------------18--18----------|
D|--------|--------|--------------------|---------------------------------|---------------------------------|
A|--------|--------|--------------------|---------------------------------|---------------------------------|
E|--------|--------|--------------------|---------------------------------|---------------------------------|


E|-----19------19--------------------|-----19------19------------------|------------------------------|
B|-17------17------17-17-0---16--19--|-19------19------19--19--17--19--|-19---------------------------|
G|-----------------------------------|---------------------------------|------18---16-18--------------|
D|-----------------------------------|---------------------------------|------------------18--16------|
A|-----------------------------------|---------------------------------|--------------------------19--|
E|-----------------------------------|---------------------------------|------------------------------|


E|---------------------------------|---------------------------------|---------------------------------|
B|---------------------------------|---------------------------------|-----12------12------------------|
G|---------------------------------|-11--11--13--9---11--11--9---11--|-11------11------11--11--9---11--|
D|-18----------------------13--14--|-9---9---9---9---9---9---9-------|---------------------------------|
A|-----16--16--14--16--16----------|---------------------------------|---------------------------------|
E|---------------------------------|---------------------------------|---------------------------------|


E|-------------|------------------|-----------------------------------------------|
B|-------------|------------------|-----12-14-12----------12-14-12----12----12-14-|
G|-13----------|--------11--9--11-|-11-----------13-11-13----------13----13-------|
D|-------------|------------------|-----------------------------------------------|
A|-------------|------------------|-----------------------------------------------|
E|-------------|------------------|-----------------------------------------------|


E|-12------12------14---14---|--------|------------------|-------------------------------------------------|
B|-----14------14------------|--------|------------24-22-|-------22-24-22----------22-24-22----------22-24-|
G|---------------------------|--------|------------------|-21-23----------23-21-23----------23-21-23-------|
D|---------------------------|--------|------------------|-------------------------------------------------|
A|---------------------------|--------|------------------|-------------------------------------------------|
E|---------------------------|--------|------------------|-------------------------------------------------|


E|----------------------23-24----|--------|--------|--------|--------|--------|--------|
B|-22----------22-24-22----------|--------|--------|--------|--------|--------|--------|
G|----23-21-23-------------------|--------|--------|--------|--------|--------|--------|
D|-------------------------------|--------|--------|--------|--------|--------|--------|
A|-------------------------------|--------|--------|--------|--------|--------|--------|
E|-------------------------------|--------|--------|--------|--------|--------|--------|


E|--------|--------|--------|------------------|-----------------------------------------------|
B|--------|--------|--------|------------------|-----12-14-12----------12-14-12----12----12-14-|
G|--------|--------|--------|--------11--9--11-|-11-----------13-11-13----------13----13-------|
D|--------|--------|--------|------------------|-----------------------------------------------|
A|--------|--------|--------|------------------|-----------------------------------------------|
E|--------|--------|--------|------------------|-----------------------------------------------|


E|-12------12------14---14---|--------19--19--|-19--------------19--19--19------|-19--19--19--19--19------------------|
B|-----14------14------------|--------19--19--|-19--19--17------19--19--19--19--|-19--17--19--19--17--19--19-17-------|
G|---------------------------|----------------|---------16--16------------------|-------------------------------18-16-|
D|---------------------------|----------------|---------------------------------|-------------------------------------|
A|---------------------------|----------------|---------------------------------|-------------------------------------|
E|---------------------------|----------------|---------------------------------|-------------------------------------|


E|----------------------------------------|
B|----------------------------------------|
G|-18-16----------------------------------|
D|-------18-16-14----16----14-------------|
A|----------------16----16----16-14-------|
E|----------------------------------------|





Track 5: Bass

G|-----------------|-----------------|-----------------|--------|-----------------|
D|-----------------|-----------------|-----------------|--------|-----------------|
A|-----------------|-2-----2---2-----|-4-----4---0-----|-2------|-4-----4---4-----|
E|-0-----0---0-----|-----------------|-----------------|--------|-----------------|


G|-----------------|-----------------|-----------------|-----------------|-----------------|
D|-----------------|-----------------|-----------------|-----------------|-----------------|
A|-0-----0---0-----|-2-----2---2-----|-----------2-----|-4-----4---4-----|-0-----0---0-----|
E|-----------------|-----------------|-0-----4---------|-----------------|-----------------|


G|---------------------|------------------------|---------------------|-----------------|
D|---------------------|------------------------|-2-----2---2----4----|-----------------|
A|-2-----2---2-----2---|------------------------|---------------------|-2-----2---2-----|
E|---------------------|-0-----4---7---7----7---|---------------------|-----------------|


G|-----------------|---------------------|---------------------|-----------------|
D|-----------------|---------------------|-2-----2---2----4----|-----------------|
A|-4-----4---0-----|-2-----2---2---2-----|---------------------|-2-----2---2-----|
E|-----------------|---------------------|---------------------|-----------------|


G|-----------------|---------------------|---------------------|---------------------|
D|-----------------|---------------------|---------------------|---------------------|
A|-4-----4---0-----|-2-----2---2---2-----|-4-----4---4-----4---|-0-----0---0-----0---|
E|-----------------|---------------------|---------------------|---------------------|


G|---------------------|---------------------|---------------------|---------------------|
D|-----------1---------|-2----4----1---------|---------------------|---------------------|
A|-2----4---------2----|----------------2----|-4-----4---4-----4---|-0-----0---0-----0---|
E|---------------------|---------------------|---------------------|---------------------|


G|---------------------|---------------------|---------------------|-----------------|
D|-----------1---------|-2----4----1---------|-2-----2---2----4----|-----------------|
A|-2----4---------2----|----------------2----|---------------------|-2-----2---2-----|
E|---------------------|---------------------|---------------------|-----------------|


G|-----------------|------------------------|---------------------|-----------------|
D|-----------------|------------------------|-2-----2---2----4----|-----------------|
A|-4-----4---0-----|-2----------------------|---------------------|-2-----2---2-----|
E|-----------------|-------2---7---7----7---|---------------------|-----------------|


G|---------------------|---------------------------------|---------------------------|
D|---------------------|---------------------------------|---------------------------|
A|-4-----4---0-----0---|-2---2---2---2---2---2---2---2---|-2---2-------0---2-----2---|
E|---------------------|---------------------------------|---------0-----------------|


G|---------------------------|---------------------------|---------------------------|
D|---------------------------|---------------------------|---------------------------|
A|-2---2-------0---2-----2---|--------------0---0----0---|-2---2-------0---2-----2---|
E|---------0-----------------|-0---0----0----------------|---------0-----------------|


G|---------------------------|---------------------------|---------------------------|
D|---------------------------|---------------------------|---------------------------|
A|-2---2-------0---2-----2---|-2---2-------0---2-----2---|--------------0---0----0---|
E|---------0-----------------|---------0-----------------|-0---0----0----------------|


G|---------------------------|---------------------|---------------------|---------------------|
D|---------------------------|---------------------|---------------------|-----------1---------|
A|-2---2---2---2---2-----2---|-4-----4---4-----4---|-0-----0---0-----0---|-2----4---------2----|
E|---------------------------|---------------------|---------------------|---------------------|


G|---------------------|---------------------|---------------------|---------------------|
D|-2----4----1---------|---------------------|---------------------|-----------1---------|
A|----------------2----|-4-----4---4----2----|-0-----0---0-----0---|-2----4---------2----|
E|---------------------|---------------------|---------------------|---------------------|


G|---------------------|---------------------|-----------------|-----------------|
D|-2-----4---9---9-----|-2-----2---2----4----|-----------------|-----------------|
A|---------------------|---------------------|-2-----2---2-----|-4-----4---0-----|
E|---------------------|---------------------|-----------------|-----------------|


G|---------------------------|---------------------|-----------------|---------------------|
D|---------------------------|-2-----2---2----4----|-----------------|---------------------|
A|-2---2----2---2------------|---------------------|-2-----2---2-----|-4-----4---0-----0---|
E|------------------2---7----|---------------------|-----------------|---------------------|


G|---------------------------------|---------------------------|---------------------------|
D|---------------------------------|---------------------------|---------------------------|
A|-2---2---2---2---2---2---2---2---|-2---2-------0---2-----2---|-2---2-------0---2-----2---|
E|---------------------------------|---------0-----------------|---------0-----------------|


G|---------------------------|---------------------------|---------------------------|
D|---------------------------|---------------------------|---------------------------|
A|--------------0---0----0---|-2---2-------0---2-----2---|-2---2-------0---2-----2---|
E|-0---0----0----------------|---------0-----------------|---------0-----------------|


G|---------------------------|---------------------------|---------------------------|
D|---------------------------|---------------------------|---------------------------|
A|-2---2-------0---2-----2---|--------------0---0----0---|-2---2---2---2---2-----2---|
E|---------0-----------------|-0---0----0----------------|---------------------------|


G|---------------------|-----------------|---------------------|---------------------|
D|---------------------|-----------------|---------------------|-2-----2---1-----1---|
A|-4-----4---4-----4---|-0-----0---0-----|-2-----2---2-----2---|---------------------|
E|---------------------|-----------------|---------------------|---------------------|


G|---------------------|-----------------|---------------------|---------------------|
D|---------------------|-----------------|---------------------|---------------------|
A|-4-----4---4-----4---|-0-----0---0-----|-2-----2---2-----2---|-----------2-----2---|
E|---------------------|-----------------|---------------------|-0-----0-------------|


G|---------------------|-----------------|---------------------|---------------------|
D|-2-----2---2----4----|-----------------|---------------------|-----------1---------|
A|---------------------|-2-----2---2-----|-4-----7---0-----4---|-2----4---------2----|
E|---------------------|-----------------|---------------------|---------------------|


G|---------------------|-----------------|---------------------|---------------------------------|
D|-2-----2---2----4----|-----------------|---------------------|---------------------------------|
A|---------------------|-2-----2---2-----|-4-----4---0-----0---|-2---2---2---2---2---2---2---2---|
E|---------------------|-----------------|---------------------|---------------------------------|


G|---------------------|---------------------|---------------------|---------------------|
D|---------------------|---------------------|-----------1---------|-2----4----1---------|
A|-4-----4---4-----4---|-0-----0---0-----0---|-2----4---------2----|----------------2----|
E|---------------------|---------------------|---------------------|---------------------|


G|---------------------|---------------------|---------------------|---------------------|
D|---------------------|---------------------|-----------1---------|-2----4----1---------|
A|-4-----4---4-----4---|-0-----0---0-----0---|-2----4---------2----|----------------2----|
E|---------------------|---------------------|---------------------|---------------------|


G|---------------------|-----------------|---------------------|---------------------|
D|-2-----2---2----4----|-----------------|---------------------|-----------1---------|
A|---------------------|-2-----2---2-----|-4-----7---0-----4---|-2----4---------2----|
E|---------------------|-----------------|---------------------|---------------------|


G|---------------------|-----------------|---------------------|---------------------------------|
D|-2-----2---2----4----|-----------------|---------------------|---------------------------------|
A|---------------------|-2-----2---2-----|-4-----4---0-----0---|-2---2---2---2---2---2---2---2---|
E|---------------------|-----------------|---------------------|---------------------------------|


G|---------------------|---------------------|---------------------|---------------------|
D|---------------------|---------------------|-----------1---------|-2----4----1---------|
A|-4-----4---4-----4---|-0-----0---0-----0---|-2----4---------2----|----------------2----|
E|---------------------|---------------------|---------------------|---------------------|


G|---------------------|---------------------|---------------------|---------------------|
D|---------------------|---------------------|-----------1---------|-2-----4---9---9-----|
A|-4-----4---4----2----|-0-----0---0-----0---|-2----4---------2----|---------------------|
E|---------------------|---------------------|---------------------|---------------------|


G|---------------------|-----------------|-----------------|---------------------------|
D|-2-----2---2----4----|-----------------|-----------------|---------------------------|
A|---------------------|-2-----2---2-----|-4-----4---0-----|-2---2----2---2------------|
E|---------------------|-----------------|-----------------|------------------2---7----|


G|---------------------|-----------------|-----------------|---------------------------|
D|-2-----2---2----4----|-----------------|-----------------|---------------------------|
A|---------------------|-2-----2---2-----|-4-----4---0-----|-2---2----2---2------------|
E|---------------------|-----------------|-----------------|------------------2---7----|