Menu:

 

Search:

 

michael jackson - heal the world:

 



Title: Heal The World
Artist: 
Album: Dangerous
Author: Michael Jackson


Track 1: Steel

E|--------|--------|--------|--------|--------|--------|--------|--------|--------|
B|--------|--------|--------|--------|--------|--------|--------|--------|--------|
G|--------|--------|--------|--------|--------|--------|--------|--------|--------|
D|--------|--------|--------|--------|--------|--------|--------|--------|--------|
A|--------|--------|--------|--------|--------|--------|--------|--------|--------|
E|--------|--------|--------|--------|--------|--------|--------|--------|--------|


E|--------|--------|--------|--------|--------|--------|--------|--------|--------|
B|--------|--------|--------|--------|--------|--------|--------|--------|--------|
G|--------|--------|--------|--------|--------|--------|--------|--------|--------|
D|--------|--------|--------|--------|--------|--------|--------|--------|--------|
A|--------|--------|--------|--------|--------|--------|--------|--------|--------|
E|--------|--------|--------|--------|--------|--------|--------|--------|--------|


E|--------|--------|--------|--------|--------|--------|--------|--------|--------|
B|--------|--------|--------|--------|--------|--------|--------|--------|--------|
G|--------|--------|--------|--------|--------|--------|--------|--------|--------|
D|--------|--------|--------|--------|--------|--------|--------|--------|--------|
A|--------|--------|--------|--------|--------|--------|--------|--------|--------|
E|--------|--------|--------|--------|--------|--------|--------|--------|--------|


E|--------|--------|--------|--------|--------|--------|--------|--------|--------|
B|--------|--------|--------|--------|--------|--------|--------|--------|--------|
G|--------|--------|--------|--------|--------|--------|--------|--------|--------|
D|--------|--------|--------|--------|--------|--------|--------|--------|--------|
A|--------|--------|--------|--------|--------|--------|--------|--------|--------|
E|--------|--------|--------|--------|--------|--------|--------|--------|--------|


E|--------|--------|--------|--------|---------------------------------|------------------------------|
B|--------|--------|--------|--------|-------------2---2-----------2---|-------------3---3------------|
G|--------|--------|--------|--------|---------2-----------2-----------|---------2-----------2--------|
D|--------|--------|--------|--------|-----2-------------------2-------|-----4-------------------4----|
A|--------|--------|--------|--------|-0-------------------------------|-0----------------------------|
E|--------|--------|--------|--------|---------------------------------|------------------------------|


E|---------------------------------|---------------------------------|---------------------------------|
B|-------------5---5---------------|-------------3---3---------------|-------------2---2-----------2---|
G|---------4-----------4-------4---|---------2-----------2-------2---|---------2-----------2-----------|
D|-----6-------------------6-------|-----4-------------------4-------|-----2-------------------2-------|
A|-0-------------------------------|-0-------------------------------|-0-------------------------------|
E|---------------------------------|---------------------------------|---------------------------------|


E|---------------------------------|---------------------------------|---------------------------------|
B|-------------3---3---------------|-------------5---5---------------|-------------3---3---------------|
G|---------2-----------2-------2---|---------4-----------4-------4---|---------2-----------2-------2---|
D|-----4-------------------4-------|-----6-------------------6-------|-----4-------------------4-------|
A|-0-------------------------------|-0-------------------------------|-0-------------------------------|
E|---------------------------------|---------------------------------|---------------------------------|


E|---------------------------------|---------------------------------|---------------------------------|
B|-------------0---0---2-----------|-------------3---3---------------|-------------5---5---------------|
G|---------2-------------------2---|---------2-----------2-------2---|---------4-----------4-------4---|
D|-----2-------------------2-------|-----4-------------------4-------|-----6-------------------6-------|
A|-0-------------------------------|-0-------------------------------|-0-------------------------------|
E|---------------------------------|---------------------------------|---------------------------------|


E|---------------------------------|---------------------------------|---------------------------------|
B|-------------3---3---------------|-------------2---2-----------2---|-------------3---3---------------|
G|---------2-----------2-------2---|---------2-----------2-----------|---------2-----------2-------2---|
D|-----4-------------------4-------|-----2-------------------2-------|-----4-------------------4-------|
A|-0-------------------------------|-0-------------------------------|-0-------------------------------|
E|---------------------------------|---------------------------------|---------------------------------|


E|---------------------------------|---------------------------------|---------------------------------|
B|-------------5---5---------------|-------------3---3---------------|-------------0---0---2-----------|
G|---------4-----------4-------4---|---------2-----------2-------2---|---------2-------------------2---|
D|-----6-------------------6-------|-----4-------------------4-------|-----2-------------------2-------|
A|-0-------------------------------|-0-------------------------------|-0-------------------------------|
E|---------------------------------|---------------------------------|---------------------------------|


E|---------------------------------|---------------------------------|---------------------------------|
B|-------------3---3---------------|-------------5---5---------------|-------------3---3---------------|
G|---------2-----------2-------2---|---------4-----------4-------4---|---------2-----------2-------2---|
D|-----4-------------------4-------|-----6-------------------6-------|-----4-------------------4-------|
A|-0-------------------------------|-0-------------------------------|-0-------------------------------|
E|---------------------------------|---------------------------------|---------------------------------|


E|-2--------------|-4------|-------------|-------4----0-------|-------------|---------------------2---2----|
B|-3--------------|-5------|-7-----------|-2--------------2---|-7-----------|---------2---3---3------------|
G|-4----------4---|-6------|-7-----------|-1------------------|-7-----------|------------------------------|
D|-4--------------|-6------|-7-----------|-2------------------|-7-----------|-----4------------------------|
A|-2--------------|-4------|-4-----------|-0------------------|-4-----------|-2----------------------------|
E|----------------|--------|-------------|--------------------|-------------|------------------------------|


E|-0-----2-----0----|-0---2---2----------|--------|--------|--------|-2-----0-----2----|
B|-0----------------|--------------------|--------|--------|--------|------------------|
G|-1----------------|--------------------|--------|--------|--------|------------------|
D|-2----------------|--------------------|--------|--------|--------|------------------|
A|-2----------------|--------------------|--------|--------|--------|------------------|
E|-0----------------|--------------------|--------|--------|--------|------------------|


E|-0-----------|-----0---0---2---0----2-------|-0-----------|-0-----0---------|---------------------|
B|-3-----------|------------------------------|-3-----------|-------2---------|-------------2-------|
G|-2-----------|-2----------------------------|-2-----------|-----------------|-2-----1-------------|
D|-0-----------|-0----------------------------|-0-----------|-----------------|-2-----2-------------|
A|-------------|------------------------------|-------------|-----------------|---------------------|
E|-------------|------------------------------|-------------|-----------------|---------------------|


E|-------------|-----------------|-0------|----------------|-------------|---------------------------------|
B|-2-----------|-2----------2----|-0------|-2--------------|-0----3------|-------------2---2-----------2---|
G|-1-----------|-1---------------|-1------|-2----------2---|-2-----------|---------2-----------2-----------|
D|-2-----------|-------2---------|-2------|-2--------------|-------------|-----2-------------------2-------|
A|-0-----------|-0---------------|-2------|-0--------------|-------------|-0-------------------------------|
E|-------------|-----------------|-0------|----------------|-------------|---------------------------------|


E|------------------------------|---------------------------------|---------------------------------|
B|-------------3---3------------|-------------5---5---------------|-------------3---3---------------|
G|---------2-----------2--------|---------4-----------4-------4---|---------2-----------2-------2---|
D|-----4-------------------4----|-----6-------------------6-------|-----4-------------------4-------|
A|-0----------------------------|-0-------------------------------|-0-------------------------------|
E|------------------------------|---------------------------------|---------------------------------|


E|---------------------------------|---------------------------------|---------------------------------|
B|-------------2---2-----------2---|-------------3---3---------------|-------------5---5---------------|
G|---------2-----------2-----------|---------2-----------2-------2---|---------4-----------4-------4---|
D|-----2-------------------2-------|-----4-------------------4-------|-----6-------------------6-------|
A|-0-------------------------------|-0-------------------------------|-0-------------------------------|
E|---------------------------------|---------------------------------|---------------------------------|


E|---------------------------------|---------------------------------|---------------------------------|
B|-------------3---3---------------|-------------0---0---2-----------|-------------3---3---------------|
G|---------2-----------2-------2---|---------2-------------------2---|---------2-----------2-------2---|
D|-----4-------------------4-------|-----2-------------------2-------|-----4-------------------4-------|
A|-0-------------------------------|-0-------------------------------|-0-------------------------------|
E|---------------------------------|---------------------------------|---------------------------------|


E|---------------------------------|---------------------------------|---------------------------------|
B|-------------5---5---------------|-------------3---3---------------|-------------2---2-----------2---|
G|---------4-----------4-------4---|---------2-----------2-------2---|---------2-----------2-----------|
D|-----6-------------------6-------|-----4-------------------4-------|-----2-------------------2-------|
A|-0-------------------------------|-0-------------------------------|-0-------------------------------|
E|---------------------------------|---------------------------------|---------------------------------|


E|---------------------------------|---------------------------------|---------------------------------|
B|-------------3---3---------------|-------------5---5---------------|-------------3---3---------------|
G|---------2-----------2-------2---|---------4-----------4-------4---|---------2-----------2-------2---|
D|-----4-------------------4-------|-----6-------------------6-------|-----4-------------------4-------|
A|-0-------------------------------|-0-------------------------------|-0-------------------------------|
E|---------------------------------|---------------------------------|---------------------------------|


E|---------------------------------|---------------------------------|---------------------------------|
B|-------------0---0---2-----------|-------------3---3---------------|-------------5---5---------------|
G|---------2-------------------2---|---------2-----------2-------2---|---------4-----------4-------4---|
D|-----2-------------------2-------|-----4-------------------4-------|-----6-------------------6-------|
A|-0-------------------------------|-0-------------------------------|-0-------------------------------|
E|---------------------------------|---------------------------------|---------------------------------|


E|---------------------------------|-2--------------|-4------|-------------|-------4----0-------|
B|-------------3---3---------------|-3--------------|-5------|-7-----------|-2--------------2---|
G|---------2-----------2-------2---|-4----------4---|-6------|-7-----------|-1------------------|
D|-----4-------------------4-------|-4--------------|-6------|-7-----------|-2------------------|
A|-0-------------------------------|-2--------------|-4------|-4-----------|-0------------------|
E|---------------------------------|----------------|--------|-------------|--------------------|


E|-------------|---------------------2---2----|-0-----2-----0----|-0---2---2----------|
B|-7-----------|---------2---3---3------------|-0----------------|--------------------|
G|-7-----------|------------------------------|-1----------------|--------------------|
D|-7-----------|-----4------------------------|-2----------------|--------------------|
A|-4-----------|-2----------------------------|-2----------------|--------------------|
E|-------------|------------------------------|-0----------------|--------------------|


E|--------|--------|--------|-2-----0-----2----|-0-----------|-----0---0---2---0----2-------|
B|--------|--------|--------|------------------|-3-----------|------------------------------|
G|--------|--------|--------|------------------|-2-----------|-2----------------------------|
D|--------|--------|--------|------------------|-0-----------|-0----------------------------|
A|--------|--------|--------|------------------|-------------|------------------------------|
E|--------|--------|--------|------------------|-------------|------------------------------|


E|-0-----------|-0-----0---------|---------------------|-------------|-----------------|
B|-3-----------|-------2---------|-------------2-------|-2-----------|-2----------2----|
G|-2-----------|-----------------|-2-----1-------------|-1-----------|-1---------------|
D|-0-----------|-----------------|-2-----2-------------|-2-----------|-------2---------|
A|-------------|-----------------|---------------------|-0-----------|-0---------------|
E|-------------|-----------------|---------------------|-------------|-----------------|


E|-0------|----------------|-------------|---------------------------------|------------------------------|
B|-0------|-2--------------|-0----3------|-------------2---2-----------2---|-------------3---3------------|
G|-1------|-2----------2---|-2-----------|---------2-----------2-----------|---------2-----------2--------|
D|-2------|-2--------------|-------------|-----2-------------------2-------|-----4-------------------4----|
A|-2------|-0--------------|-------------|-0-------------------------------|-0----------------------------|
E|-0------|----------------|-------------|---------------------------------|------------------------------|


E|---------------------------------|---------------------------------|---------------------------------|
B|-------------5---5---------------|-------------3---3---------------|-------------2---2-----------2---|
G|---------4-----------4-------4---|---------2-----------2-------2---|---------2-----------2-----------|
D|-----6-------------------6-------|-----4-------------------4-------|-----2-------------------2-------|
A|-0-------------------------------|-0-------------------------------|-0-------------------------------|
E|---------------------------------|---------------------------------|---------------------------------|


E|------------------------------|-------------|-------------|---------------------|
B|-------------2---2------------|-------------|-------0-----|-----------5---------|
G|---------2-----------2--------|-------------|-2-----------|-2---------2---------|
D|-----2-------------------2----|-------0-----|-------------|-----------2---------|
A|-0----------------------------|-2-----------|-------------|-----------0---------|
E|------------------------------|-3-----------|-------------|---------------------|


E|-5----0---0---0-----|-----------3---------|-3---------3-----|-----------5---------|
B|-2----2---2---2-----|-----------3---------|-3---------3-----|-----------5---------|
G|-2------------------|-----------4---------|-4---------4-----|-------6---6---------|
D|--------------------|-------5-------------|-----------5-----|-----------6---------|
A|--------------------|---------------------|-----------------|-0---------------0---|
E|--------------------|-3---------------3---|-------3---------|---------------------|


E|-5---------5---------|------------------5---5----|-4----4---4---4---------|-2----------------2---2-------|
B|-5---------5---------|------7--------------------|-5----5---5---5---------|-3----3-----------------------|
G|-6---------6---------|-6--------6---6------------|-6----6---6---6---------|-2--------2---2---------------|
D|-6---------6---------|---------------------------|-6----6---6---6---------|-0----------------------------|
A|-------0---0---------|---------------------------|-4----4---4---4---------|------------------------------|
E|---------------------|---------------------------|------------------------|------------------------------|


E|------------------------|-2---------------------------2---|-2---------------|-2-------------------0---0-------|
B|-2----2---2---2---------|---------------------0---0-------|-------3---0-----|-------------0---0-----------3---|
G|-1----1---1---1---------|-------------2---2---------------|-----------------|---------2-----------------------|
D|-2----2---2---2---------|---------0-----------------------|-----------------|-----2---------------------------|
A|-0----0---0---0---------|-----2---------------------------|-----------------|---------------------------------|
E|------------------------|---------------------------------|-----------------|---------------------------------|


E|-------0----------|---------------------------------|---------------------------------|
B|-3----------------|-------------2---2-----------2---|-------------3---3---------------|
G|------------------|---------2-----------2-----------|---------2-----------2-------2---|
D|------------0-----|-----2-------------------2-------|-----4-------------------4-------|
A|------------------|-0-------------------------------|-0-------------------------------|
E|------------------|---------------------------------|---------------------------------|


E|---------------------------------|---------------------------------|---------------------------------|
B|-------------5---5---------------|-------------3---3---------------|-------------0---0---2-----------|
G|---------4-----------4-------4---|---------2-----------2-------2---|---------2-------------------2---|
D|-----6-------------------6-------|-----4-------------------4-------|-----2-------------------2-------|
A|-0-------------------------------|-0-------------------------------|-0-------------------------------|
E|---------------------------------|---------------------------------|---------------------------------|


E|---------------------------------|---------------------------------|---------------------------------|
B|-------------3---3---------------|-------------5---5---------------|-------------3---3---------------|
G|---------2-----------2-------2---|---------4-----------4-------4---|---------2-----------2-------2---|
D|-----4-------------------4-------|-----6-------------------6-------|-----4-------------------4-------|
A|-0-------------------------------|-0-------------------------------|-0-------------------------------|
E|---------------------------------|---------------------------------|---------------------------------|


E|---------------------------------|---------------------------------|---------------------------------|
B|-------------2---2-----------2---|-------------3---3---------------|-------------5---5---------------|
G|---------2-----------2-----------|---------2-----------2-------2---|---------4-----------4-------4---|
D|-----2-------------------2-------|-----4-------------------4-------|-----6-------------------6-------|
A|-0-------------------------------|-0-------------------------------|-0-------------------------------|
E|---------------------------------|---------------------------------|---------------------------------|


E|---------------------------------|---------------------------------|---------------------------------|
B|-------------3---3---------------|-------------0---0---2-----------|-------------3---3---------------|
G|---------2-----------2-------2---|---------2-------------------2---|---------2-----------2-------2---|
D|-----4-------------------4-------|-----2-------------------2-------|-----4-------------------4-------|
A|-0-------------------------------|-0-------------------------------|-0-------------------------------|
E|---------------------------------|---------------------------------|---------------------------------|


E|---------------------------------|---------------------------------|-2--------------|
B|-------------5---5---------------|-------------3---3---------------|-3--------------|
G|---------4-----------4-------4---|---------2-----------2-------2---|-4----------4---|
D|-----6-------------------6-------|-----4-------------------4-------|-4--------------|
A|-0-------------------------------|-0-------------------------------|-2--------------|
E|---------------------------------|---------------------------------|----------------|


E|-4------|-------------|-------4----0-------|-------------|---------------------2---2----|
B|-5------|-7-----------|-2--------------2---|-7-----------|---------2---3---3------------|
G|-6------|-7-----------|-1------------------|-7-----------|------------------------------|
D|-6------|-7-----------|-2------------------|-7-----------|-----4------------------------|
A|-4------|-4-----------|-0------------------|-4-----------|-2----------------------------|
E|--------|-------------|--------------------|-------------|------------------------------|


E|-0-----2-----0----|-0---2---2----------|--------|--------|--------|-2-----0-----2----|
B|-0----------------|--------------------|--------|--------|--------|------------------|
G|-1----------------|--------------------|--------|--------|--------|------------------|
D|-2----------------|--------------------|--------|--------|--------|------------------|
A|-2----------------|--------------------|--------|--------|--------|------------------|
E|-0----------------|--------------------|--------|--------|--------|------------------|


E|-0-----------|-----0---0---2---0----2-------|-0-----------|-0-----0---------|---------------------|
B|-3-----------|------------------------------|-3-----------|-------2---------|-------------2-------|
G|-2-----------|-2----------------------------|-2-----------|-----------------|-2-----1-------------|
D|-0-----------|-0----------------------------|-0-----------|-----------------|-2-----2-------------|
A|-------------|------------------------------|-------------|-----------------|---------------------|
E|-------------|------------------------------|-------------|-----------------|---------------------|


E|-------------|-----------------|-0------|----------------|-------------|---------------------------------|
B|-2-----------|-2----------2----|-0------|-2--------------|-0----3------|-------------2---2-----------2---|
G|-1-----------|-1---------------|-1------|-2----------2---|-2-----------|---------2-----------2-----------|
D|-2-----------|-------2---------|-2------|-2--------------|-------------|-----2-------------------2-------|
A|-0-----------|-0---------------|-2------|-0--------------|-------------|-0-------------------------------|
E|-------------|-----------------|-0------|----------------|-------------|---------------------------------|


E|------------------------------|--------|--------|--------|-4-----2-----4----|-0-----------|
B|-------------2---2------------|--------|--------|--------|------------------|-0-----------|
G|---------2-----------2--------|--------|--------|--------|------------------|-1-----------|
D|-----2-------------------2----|--------|--------|--------|------------------|-2-----------|
A|-0----------------------------|--------|--------|--------|------------------|-2-----------|
E|------------------------------|--------|--------|--------|------------------|-0-----------|


E|-----2---2---4---2----4-------|-0-----------|-2-----2---------|-2-----2---------|
B|-0----------------------------|-0-----------|-------0---------|-------4---------|
G|-1----------------------------|-1-----------|-----------------|-----------------|
D|-2----------------------------|-2-----------|-----------------|-------1---------|
A|------------------------------|-2-----------|-------2---------|-----------------|
E|------------------------------|-0-----------|-----------------|-----------------|


E|-2-----------|-----------------|-4------|-2--------------|------0------|---------------------------------|
B|-4-----------|-4----------4----|-2------|-2--------------|-2-----------|-------------4---4-----------4---|
G|-3-----------|-3---------------|-3------|-3----------4---|-4-----------|---------4-----------4-----------|
D|-4-----------|-------4---------|-2------|-4--------------|-------------|-----4-------------------4-------|
A|-2-----------|-2---------------|--------|-4--------------|-------------|-2-------------------------------|
E|-------------|-----------------|--------|-2--------------|-------------|---------------------------------|


E|------------------------------|--------|--------|--------|-6-----4-----6----|-2-----------|
B|-------------4---4------------|--------|--------|--------|------------------|-2-----------|
G|---------4-----------4--------|--------|--------|--------|------------------|-3-----------|
D|-----4-------------------4----|--------|--------|--------|------------------|-4-----------|
A|-2----------------------------|--------|--------|--------|------------------|-4-----------|
E|------------------------------|--------|--------|--------|------------------|-2-----------|


E|-----4---4---6---4----6-------|-2-----------|-4-----4---------|-4-----4---------|
B|-2----------------------------|-2-----------|-----------------|-------6---------|
G|-3----------------------------|-3-----------|-------6---------|-----------------|
D|-4----------------------------|-4-----------|-----------------|-----------------|
A|------------------------------|-4-----------|-------4---------|-----------------|
E|------------------------------|-2-----------|-----------------|-----------------|


E|-4-----------|-----------------|-6------|-4--------------|------2------|---------------------------------|
B|-6-----------|-6----------6----|-4------|-4--------------|-4-----------|-------------6---6-----------6---|
G|-5-----------|-5---------------|-5------|-5----------6---|-6-----------|---------6-----------6-----------|
D|-6-----------|-------6---------|-4------|-6--------------|-------------|-----6-------------------6-------|
A|-4-----------|-4---------------|--------|-6--------------|-------------|-4-------------------------------|
E|-------------|-----------------|--------|-4--------------|-------------|---------------------------------|


E|------------------------------|-4-----4---------|-4-----------|-----------------|
B|-------------6---6------------|-------6---------|-6-----------|-6----------6----|
G|---------6-----------6--------|-----------------|-5-----------|-5---------------|
D|-----6-------------------6----|-----------------|-6-----------|-------6---------|
A|-4----------------------------|-----------------|-4-----------|-4---------------|
E|------------------------------|-----------------|-------------|-----------------|


E|-6------|-4--------------|------2------|---------------------------------|------------------------------|
B|-4------|-4--------------|-4-----------|-------------6---6-----------6---|-------------6---6------------|
G|-5------|-5----------6---|-6-----------|---------6-----------6-----------|---------6-----------6--------|
D|-4------|-6--------------|-------------|-----6-------------------6-------|-----6-------------------6----|
A|--------|-6--------------|-------------|-4-------------------------------|-4----------------------------|
E|--------|-4--------------|-------------|---------------------------------|------------------------------|


E|-4-----4---------|-4-----------|-----------------|-6------|-4--------------|------2------|
B|-------6---------|-6-----------|-6----------6----|-4------|-4--------------|-4-----------|
G|-----------------|-5-----------|-5---------------|-5------|-5----------6---|-6-----------|
D|-----------------|-6-----------|-------6---------|-4------|-6--------------|-------------|
A|-----------------|-4-----------|-4---------------|--------|-6--------------|-------------|
E|-----------------|-------------|-----------------|--------|-4--------------|-------------|


E|---------------------------------|-------------2---2---------------|---------------------------------|
B|-------------6---6-----------6---|---------4-----------4-----------|-------------6---6-----------6---|
G|---------6-----------6-----------|-------------------------3-------|---------6-----------6-----------|
D|-----6-------------------6-------|-----4---------------------------|-----6-------------------6-------|
A|-4-------------------------------|---------------------------------|-4-------------------------------|
E|---------------------------------|-4-------------------------------|---------------------------------|


E|-------------2---2---------------|---------------------------------|-------------2---2---------------|
B|---------4-----------4-----------|-------------6---6-----------6---|---------4-----------4-----------|
G|-------------------------3-------|---------6-----------6-----------|-------------------------3-------|
D|-----4---------------------------|-----6-------------------6-------|-----4---------------------------|
A|---------------------------------|-4-------------------------------|---------------------------------|
E|-4-------------------------------|---------------------------------|-4-------------------------------|


E|---------------------------------|-------------2---2---------------|---------------------------------|
B|-------------6---6-----------6---|---------4-----------4-----------|-------------6---6-----------6---|
G|---------6-----------6-----------|-------------------------3-------|---------6-----------6-----------|
D|-----6-------------------6-------|-----4---------------------------|-----6-------------------6-------|
A|-4-------------------------------|---------------------------------|-4-------------------------------|
E|---------------------------------|-4-------------------------------|---------------------------------|


E|-------------2---2---------------|---------------------------------|-------------2---2---------------|
B|---------4-----------4-----------|-------------6---6-----------6---|---------4-----------4-----------|
G|-------------------------3-------|---------6-----------6-----------|-------------------------3-------|
D|-----4---------------------------|-----6-------------------6-------|-----4---------------------------|
A|---------------------------------|-4-------------------------------|---------------------------------|
E|-4-------------------------------|---------------------------------|-4-------------------------------|


E|---------------------------------|-------------2---2---------------|---------------------------------|
B|-------------6---6-----------6---|---------4-----------4-----------|-------------6---6-----------6---|
G|---------6-----------6-----------|-------------------------3-------|---------6-----------6-----------|
D|-----6-------------------6-------|-----4---------------------------|-----6-------------------6-------|
A|-4-------------------------------|---------------------------------|-4-------------------------------|
E|---------------------------------|-4-------------------------------|---------------------------------|


E|-------------2---2---------------|---------------------------------|-------------2---2---------------|
B|---------4-----------4-----------|-------------6---6-----------6---|---------4-----------4-----------|
G|-------------------------3-------|---------6-----------6-----------|-------------------------3-------|
D|-----4---------------------------|-----6-------------------6-------|-----4---------------------------|
A|---------------------------------|-4-------------------------------|---------------------------------|
E|-4-------------------------------|---------------------------------|-4-------------------------------|


E|---------------------------------|-------------2---2---------------|---------------------------------|
B|-------------6---6-----------6---|---------4-----------4-----------|-------------6---6-----------6---|
G|---------6-----------6-----------|-------------------------3-------|---------6-----------6-----------|
D|-----6-------------------6-------|-----4---------------------------|-----6-------------------6-------|
A|-4-------------------------------|---------------------------------|-4-------------------------------|
E|---------------------------------|-4-------------------------------|---------------------------------|


E|-------------2---2---------------|--------|--------|-------------|--------|--------|
B|---------4-----------4-----------|-5------|-5------|-5-----------|--------|--------|
G|-------------------------3-------|--------|--------|-------------|--------|--------|
D|-----4---------------------------|-2------|-2------|-2-----------|--------|--------|
A|---------------------------------|--------|--------|-------------|--------|--------|
E|-4-------------------------------|--------|--------|-------------|--------|--------|





Track 2: Bass

G|--------|--------|--------|--------|--------|--------|--------|--------|--------|
D|--------|--------|--------|--------|--------|--------|--------|--------|--------|
A|--------|--------|--------|--------|--------|--------|--------|--------|--------|
E|--------|--------|--------|--------|--------|--------|--------|--------|--------|


G|--------|--------|--------|--------|--------|--------|--------|--------|--------|
D|--------|--------|--------|--------|--------|--------|--------|--------|--------|
A|--------|--------|--------|--------|--------|--------|--------|--------|--------|
E|--------|--------|--------|--------|--------|--------|--------|--------|--------|


G|--------|--------|--------|--------|--------|--------|--------|--------|--------|
D|--------|--------|--------|--------|--------|--------|--------|--------|--------|
A|--------|--------|--------|--------|--------|--------|--------|--------|--------|
E|--------|--------|--------|--------|--------|--------|--------|--------|--------|


G|--------|--------|--------|--------|--------|--------|--------|--------|--------|
D|--------|--------|--------|--------|--------|--------|--------|--------|--------|
A|--------|--------|--------|--------|--------|--------|--------|--------|--------|
E|--------|--------|--------|--------|--------|--------|--------|--------|--------|


G|--------|--------|--------|-----------------------|----------------|----------------|
D|--------|--------|--------|---------7---9---7-----|----------------|----------------|
A|--------|--------|--------|-----7-----------------|----------------|----------------|
E|-5------|-5------|-5------|-5---------------------|-5----------5---|-5----------0---|


G|--------|-----------------------|-------------|--------|-------------|--------|-------------|
D|--------|-----------------------|-------------|--------|-------------|--------|-------------|
A|--------|-----7---9---7---7-----|-------------|--------|-4------4----|-7------|-------------|
E|-5------|-----------------------|-5------5----|-7------|-------------|--------|-5------5----|


G|--------|-------------|-----------------|-------------|--------|-------------|--------|
D|--------|-------------|-----------------|-------------|--------|-------------|--------|
A|--------|-4------4----|-7---------------|-------------|--------|-4------4----|-7------|
E|-7------|-------------|-------7---0-----|-5------5----|-7------|-------------|--------|


G|-------------|--------|-------------|--------|----------------|--------|----------------|
D|-------------|--------|-------------|--------|----------------|--------|----------------|
A|-------------|--------|-4------4----|-7------|----------------|-4------|-5----------4---|
E|-5------5----|-7------|-------------|--------|-7----------7---|--------|----------------|


G|--------|----------------|----------------|--------9-------|--------|----------------|
D|--------|----------------|----------------|------------9---|--------|----------------|
A|-4------|----------------|----------------|-7--------------|-7------|----------------|
E|--------|-7----------7---|-7----------7---|----------------|--------|-5----------5---|


G|----------------|---------------------------|--------------------|----------------|
D|----------------|---------------------------|-------9------------|----------------|
A|----------------|---------------------------|-----------9--------|-7----------7---|
E|-5----------5---|-5---7-------7---7-----7---|-7-------------7----|----------------|


G|--------|----------------|-----------------|----------------|--------|----------------|
D|--------|----------------|-----------------|----------------|--------|----------------|
A|--------|----------------|-----------------|----------------|-4------|-5----------4---|
E|-0------|-5----------0---|-5-----0---4-----|-2------5---7---|--------|----------------|


G|--------|----------------|--------|----------------|----------------|--------|-----------------------|
D|--------|----------------|--------|----------------|----------------|--------|-----7---9---7---7-----|
A|-4------|----------------|-7------|----------------|----------------|--------|-----------------------|
E|--------|-7----------7---|--------|-5----------5---|-5----------0---|-5------|-----------------------|


G|-------------|--------|-------------|--------|-------------|--------|-------------|
D|-------------|--------|-------------|--------|-------------|--------|-------------|
A|-------------|--------|-4------4----|-7------|-------------|--------|-4------4----|
E|-5------5----|-7------|-------------|--------|-5------5----|-7------|-------------|


G|-----------------|-------------|--------|-------------|--------|-------------|--------|
D|-----------------|-------------|--------|-------------|--------|-------------|--------|
A|-7---------------|-------------|--------|-4------4----|-7------|-------------|--------|
E|-------7---0-----|-5------5----|-7------|-------------|--------|-5------5----|-7------|


G|-------------|--------|----------------|--------|----------------|--------|----------------|
D|-------------|--------|----------------|--------|----------------|--------|----------------|
A|-4------4----|-7------|----------------|-4------|-5----------4---|-4------|----------------|
E|-------------|--------|-7----------7---|--------|----------------|--------|-7----------7---|


G|----------------|--------9-------|--------|----------------|----------------|---------------------------|
D|----------------|------------9---|--------|----------------|----------------|---------------------------|
A|----------------|-7--------------|-7------|----------------|----------------|---------------------------|
E|-7----------7---|----------------|--------|-5----------5---|-5----------5---|-5---7-------7---7-----7---|


G|--------------------|----------------|--------|----------------|-----------------|
D|-------9------------|----------------|--------|----------------|-----------------|
A|-----------9--------|-7----------7---|--------|----------------|-----------------|
E|-7-------------7----|----------------|-0------|-5----------0---|-5-----0---4-----|


G|----------------|--------|----------------|--------|----------------|--------|----------------|
D|----------------|--------|----------------|--------|----------------|--------|----------------|
A|----------------|-4------|-5----------4---|-4------|----------------|-7------|----------------|
E|-2------5---7---|--------|----------------|--------|-7----------7---|--------|-5----------5---|


G|----------------|--------|-----------------------|----------------|----------------|
D|----------------|--------|-----7---9---7---7-----|----------------|----------------|
A|----------------|--------|-----------------------|----------------|----------------|
E|-5----------0---|-5------|-----------------------|-5----------5---|-5----------0---|


G|----------------|--------|----------------|--------|----------------|--------|----------------|
D|----------------|--------|----------------|--------|----------------|--------|----------------|
A|----------------|--------|----------------|--------|----------------|--------|----------------|
E|-3----------3---|-3------|-5----------0---|-5------|-3----------3---|-3------|-5----------0---|


G|--------|----------------|--------|----------------|----------------|----------------|
D|--------|----------------|--------|----------------|----------------|----------------|
A|--------|----------------|-4------|-5----------5---|-4----------4---|-2--------------|
E|-5------|-2----------2---|--------|----------------|----------------|------------2---|


G|---------------------|----------------|--------|-------------|--------|-------------|
D|-------4-------------|----------------|--------|-------------|--------|-------------|
A|-2---------2---------|-7----------7---|--------|-------------|--------|-4------4----|
E|---------------------|----------------|-0------|-5------5----|-7------|-------------|


G|--------|-------------|--------|-------------|-----------------|-------------|--------|
D|--------|-------------|--------|-------------|-----------------|-------------|--------|
A|-7------|-------------|--------|-4------4----|-7---------------|-------------|--------|
E|--------|-5------5----|-7------|-------------|-------7---0-----|-5------5----|-7------|


G|-------------|--------|-------------|--------|-------------|--------|----------------|
D|-------------|--------|-------------|--------|-------------|--------|----------------|
A|-4------4----|-7------|-------------|--------|-4------4----|-7------|----------------|
E|-------------|--------|-5------5----|-7------|-------------|--------|-7----------7---|


G|--------|----------------|--------|----------------|----------------|--------9-------|
D|--------|----------------|--------|----------------|----------------|------------9---|
A|-4------|-5----------4---|-4------|----------------|----------------|-7--------------|
E|--------|----------------|--------|-7----------7---|-7----------7---|----------------|


G|--------|----------------|----------------|---------------------------|--------------------|
D|--------|----------------|----------------|---------------------------|-------9------------|
A|-7------|----------------|----------------|---------------------------|-----------9--------|
E|--------|-5----------5---|-5----------5---|-5---7-------7---7-----7---|-7-------------7----|


G|----------------|--------|----------------|-----------------|----------------|--------|
D|----------------|--------|----------------|-----------------|----------------|--------|
A|-7----------7---|--------|----------------|-----------------|----------------|-4------|
E|----------------|-0------|-5----------0---|-5-----0---4-----|-2------5---7---|--------|


G|----------------|--------|----------------|--------|----------------|----------------|
D|----------------|--------|----------------|--------|----------------|----------------|
A|-5----------4---|-4------|----------------|-7------|----------------|----------------|
E|----------------|--------|-7----------7---|--------|-5----------5---|-5----------0---|


G|----------------|----------------|---------------------------|-------6------------|
D|----------------|----------------|---------------------------|-----------6--------|
A|-2----------2---|-2----------2---|-2---4-------4---4-----4---|-4-------------4----|
E|----------------|----------------|---------------------------|--------------------|


G|----------------|--------|----------------|-----------------|----------------|--------|
D|-4----------4---|--------|----------------|-----------------|----------------|--------|
A|----------------|--------|-2--------------|-2---------1-----|--------2---4---|-6------|
E|----------------|-2------|------------2---|-------2---------|-4--------------|--------|


G|----------------|--------|----------------|--------|----------------|--------|----------------|
D|----------------|--------|----------------|-4------|----------------|--------|----------------|
A|-7----------6---|-6------|-4----------4---|--------|-2--------------|-2------|-4----------4---|
E|----------------|--------|----------------|--------|------------2---|--------|----------------|


G|----------------|---------------------------|-------8------------|----------------|
D|----------------|---------------------------|-----------8--------|-6----------6---|
A|-4----------4---|-4---6-------6---6-----6---|-6-------------6----|----------------|
E|----------------|---------------------------|--------------------|----------------|


G|--------|----------------|-----------------|----------------|--------|----------------|
D|--------|----------------|-----------------|----------------|--------|----------------|
A|--------|-4--------------|-4---------3-----|--------4---6---|-8------|-9----------8---|
E|-4------|------------4---|-------4---------|-6--------------|--------|----------------|


G|--------|----------------|--------|----------------|--------|----------------|--------|
D|--------|----------------|-6------|----------------|--------|----------------|--------|
A|-8------|-6----------6---|--------|-4--------------|-4------|--------4---6---|-8------|
E|--------|----------------|--------|------------4---|--------|-6--------------|--------|


G|----------------|--------|----------------|--------|----------------|--------|----------------|
D|----------------|--------|----------------|-6------|----------------|--------|----------------|
A|-9----------8---|-8------|-6----------6---|--------|-4--------------|-4------|-4----------4---|
E|----------------|--------|----------------|--------|------------4---|--------|----------------|


G|--------|----------------|-------------|----------------|-------------|----------------|
D|--------|----------------|-------------|----------------|-------------|----------------|
A|--------|-4----------4---|-------------|-4----------4---|-------------|-4----------4---|
E|-4------|----------------|-4-----------|----------------|-4-----------|----------------|


G|-------------|----------------|-------------|----------------|-------------|----------------|
D|-------------|----------------|-------------|----------------|-------------|----------------|
A|-------------|-4----------4---|-------------|-4----------4---|-------------|-4----------4---|
E|-4-----------|----------------|-4-----------|----------------|-4-----------|----------------|


G|-------------|----------------|-------------|----------------|-------------|----------------|
D|-------------|----------------|-------------|----------------|-------------|----------------|
A|-------------|-4----------4---|-------------|-4----------4---|-------------|-4----------4---|
E|-4-----------|----------------|-4-----------|----------------|-4-----------|----------------|


G|-------------|----------------|-------------|--------|--------|--------|--------|
D|-------------|----------------|-------------|--------|--------|--------|--------|
A|-------------|-4----------4---|-------------|-7------|-7------|-7------|--------|
E|-4-----------|----------------|-4-----------|--------|--------|--------|--------|


G|--------|--------|--------|--------|--------|--------|--------|
D|--------|--------|--------|--------|--------|--------|--------|
A|--------|--------|--------|--------|--------|--------|--------|
E|--------|--------|--------|--------|--------|--------|--------|