Menu:

 

Search:

 

michael jackson - billie jean:

 



Title: Billie Jean
Artist: 
Album: Thriller
Author: Jackson


Track 1: Synth

E|--------|--------|--------|--------|--------|--------|--------|--------|--------|
B|--------|--------|--------|--------|--------|--------|--------|--------|--------|
G|--------|--------|--------|--------|--------|--------|--------|--------|--------|
D|--------|--------|--------|--------|--------|--------|--------|--------|--------|
A|--------|--------|--------|--------|--------|--------|--------|--------|--------|
E|--------|--------|--------|--------|--------|--------|--------|--------|--------|


E|--------|---------------------|---------------------|---------------------|---------------------|
B|--------|----------9----------|-10-------9----------|----------9----------|-10-------9----------|
G|--------|-11-------9----------|-11-------9----------|-11-------9----------|-11-------9----------|
D|--------|-11-------9----------|-11-------9----------|-11-------9----------|-11-------9----------|
A|--------|-9-------------------|-9-------------------|-9-------------------|-9-------------------|
E|--------|---------------------|---------------------|---------------------|---------------------|


E|---------------------|---------------------|---------------------|---------------------|
B|----------9----------|-10-------9----------|----------9----------|-10-------9----------|
G|-11-------9----------|-11-------9----------|-11-------9----------|-11-------9----------|
D|-11-------9----------|-11-------9----------|-11-------9----------|-11-------9----------|
A|-9-------------------|-9-------------------|-9-------------------|-9-------------------|
E|---------------------|---------------------|---------------------|---------------------|


E|---------------------|---------------------|---------------------|---------------------|
B|-7--------7----------|-7--------7----------|----------9----------|-10-------9----------|
G|-7--------7----------|-7--------7----------|-11-------9----------|-11-------9----------|
D|-7--------7----------|-7--------7----------|-11-------9----------|-11-------9----------|
A|---------------------|---------------------|-9-------------------|-9-------------------|
E|---------------------|---------------------|---------------------|---------------------|


E|---------------------|---------------------|---------------------|-9-------------------|
B|-7--------7----------|-7--------7-----7----|----------9----------|-10-------9----------|
G|-7--------7----------|-7--------7-----7----|-11-------9----------|-11-------9----------|
D|-7--------7----------|-7--------7-----7----|-11-------9----------|-11-------9----------|
A|---------------------|---------------------|-9-------------------|-9-------------------|
E|---------------------|---------------------|---------------------|---------------------|


E|---------------------|---------------------|---------------------|---------------------|
B|----------9----------|-10-------9----------|----------9----------|-10-------9----------|
G|-11-------9----------|-11-------9----------|-11-------9----------|-11-------9----------|
D|-11-------9----------|-11-------9----------|-11-------9----------|-11-------9----------|
A|-9-------------------|-9-------------------|-9-------------------|-9-------------------|
E|---------------------|---------------------|---------------------|---------------------|


E|---------------------|---------------------|---------------------|---------------------|
B|-7--------7----------|-7--------7-----7----|----------9----------|-10-------9----------|
G|-7--------7----------|-7--------7-----7----|-11-------9----------|-11-------9----------|
D|-7--------7----------|-7--------7-----7----|-11-------9----------|-11-------9----------|
A|---------------------|---------------------|-9-------------------|-9-------------------|
E|---------------------|---------------------|---------------------|---------------------|


E|---------------------|--------|---------------------|--------|---------------------|
B|-7-----7-------------|--------|-7-----7-------------|--------|-7-----7-------------|
G|-7-----7-------------|-11-----|-7-----7-------------|-11-----|-7-----7-------------|
D|-7-----7-------------|-11-----|-7-----7-------------|-11-----|-7-----7-------------|
A|-5-----5---7----5----|-9------|-5-----5---7----5----|-9------|-5-----5---7----5----|
E|---------------------|--------|---------------------|--------|---------------------|


E|--------|--------|------------------------------|---------------------|---------------------|
B|--------|-7------|------------------------------|----------9----------|-10-------9----------|
G|-11-----|-7------|-6---6---6---6---6---6---6----|-11-------9----------|-11-------9----------|
D|-11-----|-7------|-6---6---6---6---6---6---6----|-11-------9----------|-11-------9----------|
A|-9------|-5------|-4---4---4---4---4---4---4----|-9-------------------|-9-------------------|
E|--------|--------|------------------------------|---------------------|---------------------|


E|---------------------|---------------------|--------|--------|--------|--------|
B|----------9----------|-10-------9----------|--------|--------|--------|--------|
G|-11-------9----------|-11-------9----------|--------|--------|--------|--------|
D|-11-------9----------|-11-------9----------|--------|--------|--------|--------|
A|-9-------------------|-9-------------------|--------|--------|--------|--------|
E|---------------------|---------------------|--------|--------|--------|--------|


E|--------|--------|--------|--------|--------|--------|--------|--------|--------|
B|--------|--------|--------|--------|--------|--------|--------|--------|--------|
G|--------|--------|--------|--------|--------|--------|--------|--------|--------|
D|--------|--------|--------|--------|--------|--------|--------|--------|--------|
A|--------|--------|--------|--------|--------|--------|--------|--------|--------|
E|--------|--------|--------|--------|--------|--------|--------|--------|--------|


E|--------|--------|--------|--------|--------|--------|--------|--------|--------|
B|--------|--------|--------|--------|--------|--------|--------|--------|--------|
G|--------|--------|--------|--------|--------|--------|--------|--------|--------|
D|--------|--------|--------|--------|--------|--------|--------|--------|--------|
A|--------|--------|--------|--------|--------|--------|--------|--------|--------|
E|--------|--------|--------|--------|--------|--------|--------|--------|--------|


E|--------|--------|--------|--------|--------|--------|---------------------|--------|
B|--------|--------|--------|--------|--------|--------|-7-----7-------------|--------|
G|--------|--------|--------|--------|--------|--------|-7-----7-------------|-11-----|
D|--------|--------|--------|--------|--------|--------|-7-----7-------------|-11-----|
A|--------|--------|--------|--------|--------|--------|-5-----5---7----5----|-9------|
E|--------|--------|--------|--------|--------|--------|---------------------|--------|


E|---------------------|--------|---------------------|--------|--------|------------------------------|
B|-7-----7-------------|--------|-7-----7-------------|--------|-7------|------------------------------|
G|-7-----7-------------|-11-----|-7-----7-------------|-11-----|-7------|-6---6---6---6---6---6---6----|
D|-7-----7-------------|-11-----|-7-----7-------------|-11-----|-7------|-6---6---6---6---6---6---6----|
A|-5-----5---7----5----|-9------|-5-----5---7----5----|-9------|-5------|-4---4---4---4---4---4---4----|
E|---------------------|--------|---------------------|--------|--------|------------------------------|


E|---------------------|---------------------|---------------------|--------------------------|
B|----------9----------|-10-------9----------|----------9----------|-10-------9---------------|
G|-11-------9----------|-11-------9----------|-11-------9----------|-11-------9---------------|
D|-11-------9----------|-11-------9----------|-11-------9----------|-11-------9---------------|
A|-9-------------------|-9-------------------|-9-------------------|-9------------------------|
E|---------------------|---------------------|---------------------|--------------------------|


E|--------|--------|--------|--------|--------|--------|--------|--------|--------|
B|--------|--------|--------|--------|--------|--------|--------|--------|--------|
G|--------|--------|--------|--------|--------|--------|--------|--------|--------|
D|--------|--------|--------|--------|--------|--------|--------|--------|--------|
A|--------|--------|--------|--------|--------|--------|--------|--------|--------|
E|--------|--------|--------|--------|--------|--------|--------|--------|--------|


E|--------|--------|--------|--------|--------|--------|--------|--------|--------|
B|--------|--------|--------|--------|--------|--------|--------|--------|--------|
G|--------|--------|--------|--------|--------|--------|--------|--------|--------|
D|--------|--------|--------|--------|--------|--------|--------|--------|--------|
A|--------|--------|--------|--------|--------|--------|--------|--------|--------|
E|--------|--------|--------|--------|--------|--------|--------|--------|--------|


E|--------|--------|--------|--------|--------|--------|--------|--------|--------|
B|--------|--------|--------|--------|--------|--------|--------|--------|--------|
G|--------|--------|--------|--------|--------|--------|--------|--------|--------|
D|--------|--------|--------|--------|--------|--------|--------|--------|--------|
A|--------|--------|--------|--------|--------|--------|--------|--------|--------|
E|--------|--------|--------|--------|--------|--------|--------|--------|--------|


E|--------|--------|--------|--------|--------|--------|--------|--------|--------|
B|--------|--------|--------|--------|--------|--------|--------|--------|--------|
G|--------|--------|--------|--------|--------|--------|--------|--------|--------|
D|--------|--------|--------|--------|--------|--------|--------|--------|--------|
A|--------|--------|--------|--------|--------|--------|--------|--------|--------|
E|--------|--------|--------|--------|--------|--------|--------|--------|--------|


E|--------|--------|--------|--------|--------|--------|--------|--------|--------|
B|--------|--------|--------|--------|--------|--------|--------|--------|--------|
G|--------|--------|--------|--------|--------|--------|--------|--------|--------|
D|--------|--------|--------|--------|--------|--------|--------|--------|--------|
A|--------|--------|--------|--------|--------|--------|--------|--------|--------|
E|--------|--------|--------|--------|--------|--------|--------|--------|--------|


E|--------|--------|--------|--------|--------|--------|--------|--------|--------|
B|--------|--------|--------|--------|--------|--------|--------|--------|--------|
G|--------|--------|--------|--------|--------|--------|--------|--------|--------|
D|--------|--------|--------|--------|--------|--------|--------|--------|--------|
A|--------|--------|--------|--------|--------|--------|--------|--------|--------|
E|--------|--------|--------|--------|--------|--------|--------|--------|--------|


E|--------|--------|
B|--------|--------|
G|--------|--------|
D|--------|--------|
A|--------|--------|
E|--------|--------|





Track 2: Trumpet

E|--------|--------|--------|--------|--------|--------|--------|--------|--------|
B|--------|--------|--------|--------|--------|--------|--------|--------|--------|
G|--------|--------|--------|--------|--------|--------|--------|--------|--------|
D|--------|--------|--------|--------|--------|--------|--------|--------|--------|
A|--------|--------|--------|--------|--------|--------|--------|--------|--------|
E|--------|--------|--------|--------|--------|--------|--------|--------|--------|


E|--------|--------|--------|--------|--------|--------|--------|--------|--------|
B|--------|--------|--------|--------|--------|--------|--------|--------|--------|
G|--------|--------|--------|--------|--------|--------|--------|--------|--------|
D|--------|--------|--------|--------|--------|--------|--------|--------|--------|
A|--------|--------|--------|--------|--------|--------|--------|--------|--------|
E|--------|--------|--------|--------|--------|--------|--------|--------|--------|


E|--------|--------|--------|--------|--------|--------|--------|--------|--------|
B|--------|--------|--------|--------|--------|--------|--------|--------|--------|
G|--------|--------|--------|--------|--------|--------|--------|--------|--------|
D|--------|--------|--------|--------|--------|--------|--------|--------|--------|
A|--------|--------|--------|--------|--------|--------|--------|--------|--------|
E|--------|--------|--------|--------|--------|--------|--------|--------|--------|


E|--------|--------|--------|--------|--------|--------|--------|--------|-------------------12--9---|
B|--------|--------|--------|--------|--------|--------|--------|--------|-----------10--------------|
G|--------|--------|--------|--------|--------|--------|--------|--------|-------11------11----------|
D|--------|--------|--------|--------|--------|--------|--------|--------|---------------------------|
A|--------|--------|--------|--------|--------|--------|--------|--------|---------------------------|
E|--------|--------|--------|--------|--------|--------|--------|--------|---------------------------|


E|--------|--------|--------|-------------------12--9---|--------|--------|--------|
B|--------|--------|--------|-----------10--------------|--------|--------|--------|
G|--------|--------|--------|-------11------11----------|--------|--------|--------|
D|--------|--------|--------|---------------------------|--------|--------|--------|
A|--------|--------|--------|---------------------------|--------|--------|--------|
E|--------|--------|--------|---------------------------|--------|--------|--------|


E|--------|--------|--------|--------|--------|--------|--------|--------|--------|
B|--------|--------|--------|--------|--------|--------|--------|--------|--------|
G|--------|--------|--------|--------|--------|--------|--------|--------|--------|
D|--------|--------|--------|--------|--------|--------|--------|--------|--------|
A|--------|--------|--------|--------|--------|--------|--------|--------|--------|
E|--------|--------|--------|--------|--------|--------|--------|--------|--------|


E|--------|--------|--------|--------|--------|--------|--------|--------|--------|
B|--------|--------|--------|--------|--------|--------|--------|--------|--------|
G|--------|--------|--------|--------|--------|--------|--------|--------|--------|
D|--------|--------|--------|--------|--------|--------|--------|--------|--------|
A|--------|--------|--------|--------|--------|--------|--------|--------|--------|
E|--------|--------|--------|--------|--------|--------|--------|--------|--------|


E|--------|--------|--------|--------|--------|--------|--------|--------|--------|
B|--------|--------|--------|--------|--------|--------|--------|--------|--------|
G|--------|--------|--------|--------|--------|--------|--------|--------|--------|
D|--------|--------|--------|--------|--------|--------|--------|--------|--------|
A|--------|--------|--------|--------|--------|--------|--------|--------|--------|
E|--------|--------|--------|--------|--------|--------|--------|--------|--------|


E|--------|--------|--------|--------|--------|--------|--------|--------|--------|
B|--------|--------|--------|--------|--------|--------|--------|--------|--------|
G|--------|--------|--------|--------|--------|--------|--------|--------|--------|
D|--------|--------|--------|--------|--------|--------|--------|--------|--------|
A|--------|--------|--------|--------|--------|--------|--------|--------|--------|
E|--------|--------|--------|--------|--------|--------|--------|--------|--------|


E|--------|--------|--------|--------|--------|--------|--------|--------|--------|
B|--------|--------|--------|--------|--------|--------|--------|--------|--------|
G|--------|--------|--------|--------|--------|--------|--------|--------|--------|
D|--------|--------|--------|--------|--------|--------|--------|--------|--------|
A|--------|--------|--------|--------|--------|--------|--------|--------|--------|
E|--------|--------|--------|--------|--------|--------|--------|--------|--------|


E|--------|--------|-----------9---9---9---|-9-----7--5---5--9--------|-----------9---9---9---|
B|--------|--------|-----------------------|--------------------------|-----------------------|
G|--------|--------|-----------------------|--------------------------|-----------------------|
D|--------|--------|-----------------------|--------------------------|-----------------------|
A|--------|--------|-----------------------|--------------------------|-----------------------|
E|--------|--------|-----------------------|--------------------------|-----------------------|


E|-9-----7--5---5-----------|--------|--------|---------21------------|--------|--------|
B|-----------------7--------|--------|--------|-----------------------|--------|--------|
G|--------------------------|--------|--------|-----18------18--------|--------|--------|
D|--------------------------|--------|--------|-----------------------|--------|--------|
A|--------------------------|--------|--------|-----------------------|--------|--------|
E|--------------------------|--------|--------|-----------------------|--------|--------|


E|--------|--------|--------|--------|--------|--------|--------|--------|--------|
B|--------|--------|--------|--------|--------|--------|--------|--------|--------|
G|--------|--------|--------|--------|--------|--------|--------|--------|--------|
D|--------|--------|--------|--------|--------|--------|--------|--------|--------|
A|--------|--------|--------|--------|--------|--------|--------|--------|--------|
E|--------|--------|--------|--------|--------|--------|--------|--------|--------|


E|--------|--------|--------|--------|--------|--------|--------|--------|--------|
B|--------|--------|--------|--------|--------|--------|--------|--------|--------|
G|--------|--------|--------|--------|--------|--------|--------|--------|--------|
D|--------|--------|--------|--------|--------|--------|--------|--------|--------|
A|--------|--------|--------|--------|--------|--------|--------|--------|--------|
E|--------|--------|--------|--------|--------|--------|--------|--------|--------|


E|--------|--------|--------|--------|--------|--------|--------|--------|--------|
B|--------|--------|--------|--------|--------|--------|--------|--------|--------|
G|--------|--------|--------|--------|--------|--------|--------|--------|--------|
D|--------|--------|--------|--------|--------|--------|--------|--------|--------|
A|--------|--------|--------|--------|--------|--------|--------|--------|--------|
E|--------|--------|--------|--------|--------|--------|--------|--------|--------|


E|--------|--------|--------|--------|--------|--------|--------|--------|--------|
B|--------|--------|--------|--------|--------|--------|--------|--------|--------|
G|--------|--------|--------|--------|--------|--------|--------|--------|--------|
D|--------|--------|--------|--------|--------|--------|--------|--------|--------|
A|--------|--------|--------|--------|--------|--------|--------|--------|--------|
E|--------|--------|--------|--------|--------|--------|--------|--------|--------|


E|--------|--------|--------|--------|--------|--------|--------|
B|--------|--------|--------|--------|--------|--------|--------|
G|--------|--------|--------|--------|--------|--------|--------|
D|--------|--------|--------|--------|--------|--------|--------|
A|--------|--------|--------|--------|--------|--------|--------|
E|--------|--------|--------|--------|--------|--------|--------|





Track 3: Organ

E|--------|--------|--------|--------|--------|--------|--------|--------|--------|
B|--------|--------|--------|--------|--------|--------|--------|--------|--------|
G|--------|--------|--------|--------|--------|--------|--------|--------|--------|
D|--------|--------|--------|--------|--------|--------|--------|--------|--------|
A|--------|--------|--------|--------|--------|--------|--------|--------|--------|
E|--------|--------|--------|--------|--------|--------|--------|--------|--------|


E|--------|--------|--------|--------|--------|--------|--------|--------|--------|
B|--------|--------|--------|--------|--------|--------|--------|--------|--------|
G|--------|--------|--------|--------|--------|--------|--------|--------|--------|
D|--------|--------|--------|--------|--------|--------|--------|--------|--------|
A|--------|--------|--------|--------|--------|--------|--------|--------|--------|
E|--------|--------|--------|--------|--------|--------|--------|--------|--------|


E|--------|--------|--------|--------|--------|--------|--------|--------|--------|
B|--------|--------|--------|--------|--------|--------|--------|--------|--------|
G|--------|--------|--------|--------|--------|--------|--------|--------|--------|
D|--------|--------|--------|--------|--------|--------|--------|--------|--------|
A|--------|--------|--------|--------|--------|--------|--------|--------|--------|
E|--------|--------|--------|--------|--------|--------|--------|--------|--------|


E|--------|--------|--------|--------|--------|--------|--------|--------|--------|
B|--------|--------|--------|--------|--------|--------|--------|--------|--------|
G|--------|--------|--------|--------|--------|--------|--------|--------|--------|
D|--------|--------|--------|--------|--------|--------|--------|--------|--------|
A|--------|--------|--------|--------|--------|--------|--------|--------|--------|
E|--------|--------|--------|--------|--------|--------|--------|--------|--------|


E|--------|--------|--------|--------|-5------|-9-----16----|--------|--------|--------|
B|--------|--------|--------|--------|-7------|-9-----17----|--------|--------|--------|
G|--------|--------|--------|--------|--------|-------------|--------|--------|--------|
D|--------|--------|--------|--------|--------|-------------|--------|--------|--------|
A|--------|--------|--------|--------|--------|-------------|--------|--------|--------|
E|--------|--------|--------|--------|--------|-------------|--------|--------|--------|


E|--------|--------|--------|--------|--------|--------|--------|--------|--------|
B|--------|--------|--------|--------|--------|--------|--------|--------|--------|
G|--------|--------|--------|--------|--------|--------|--------|--------|--------|
D|--------|--------|--------|--------|--------|--------|--------|--------|--------|
A|--------|--------|--------|--------|--------|--------|--------|--------|--------|
E|--------|--------|--------|--------|--------|--------|--------|--------|--------|


E|--------|-----------------|--------|-----------------|--------|-------------|--------|
B|--------|-----------------|--------|-----------------|--------|-------------|--------|
G|--------|-------8---------|--------|-----------------|--------|-------------|--------|
D|-11-----|-11---------9----|-11-----|-11----9----7----|--------|-------------|--------|
A|--------|-----------------|--------|-----------------|-9------|-9-----------|--------|
E|--------|-----------------|--------|-----------------|--------|-------------|--------|


E|--------|--------|--------|--------|--------|--------|-----------------|--------|
B|--------|--------|--------|--------|--------|--------|-----------------|--------|
G|--------|--------|--------|--------|--------|--------|-------8---------|--------|
D|--------|--------|--------|--------|--------|-11-----|-11---------9----|-11-----|
A|--------|--------|--------|--------|--------|--------|-----------------|--------|
E|--------|--------|--------|--------|--------|--------|-----------------|--------|


E|-----------------|--------|-------------|--------|--------|--------|--------|--------|
B|-----------------|--------|-------------|--------|--------|--------|--------|--------|
G|-----------------|--------|-------------|--------|--------|--------|--------|--------|
D|-11----9----7----|--------|-------------|--------|--------|--------|--------|--------|
A|-----------------|-9------|-9-----------|--------|--------|--------|--------|--------|
E|-----------------|--------|-------------|--------|--------|--------|--------|--------|


E|--------|--------|--------|--------|--------|--------|--------|--------|--------|
B|--------|--------|--------|--------|--------|--------|--------|--------|--------|
G|--------|--------|--------|--------|--------|--------|--------|--------|--------|
D|--------|--------|--------|--------|--------|--------|--------|--------|--------|
A|--------|--------|--------|--------|--------|--------|--------|--------|--------|
E|--------|--------|--------|--------|--------|--------|--------|--------|--------|


E|--------|--------|--------|--------|--------|--------|--------|--------|--------|
B|--------|--------|--------|--------|--------|--------|--------|--------|--------|
G|--------|--------|--------|--------|--------|--------|--------|--------|--------|
D|--------|--------|--------|--------|--------|--------|--------|--------|--------|
A|--------|--------|--------|--------|--------|--------|--------|--------|--------|
E|--------|--------|--------|--------|--------|--------|--------|--------|--------|


E|--------|--------|--------|--------|--------|--------|--------|--------|--------|
B|--------|--------|--------|--------|--------|--------|--------|--------|--------|
G|--------|--------|--------|--------|--------|--------|--------|--------|--------|
D|--------|--------|--------|--------|--------|--------|--------|--------|--------|
A|--------|--------|--------|--------|--------|--------|--------|--------|--------|
E|--------|--------|--------|--------|--------|--------|--------|--------|--------|


E|--------|--------|--------|--------|--------|--------|--------|--------|--------|
B|--------|--------|--------|--------|--------|--------|--------|--------|--------|
G|--------|--------|--------|--------|--------|--------|--------|--------|--------|
D|--------|--------|--------|--------|--------|--------|--------|--------|--------|
A|--------|--------|--------|--------|--------|--------|--------|--------|--------|
E|--------|--------|--------|--------|--------|--------|--------|--------|--------|


E|--------|--------|--------|--------|--------|--------|--------|--------|--------|
B|--------|--------|--------|--------|--------|--------|--------|--------|--------|
G|--------|--------|--------|--------|--------|--------|--------|--------|--------|
D|--------|--------|--------|--------|--------|--------|--------|--------|--------|
A|--------|--------|--------|--------|--------|--------|--------|--------|--------|
E|--------|--------|--------|--------|--------|--------|--------|--------|--------|


E|--------|--------|--------|--------|--------|--------|--------|--------|--------|
B|--------|--------|--------|--------|--------|--------|--------|--------|--------|
G|--------|--------|--------|--------|--------|--------|--------|--------|--------|
D|--------|--------|--------|--------|--------|--------|--------|--------|--------|
A|--------|--------|--------|--------|--------|--------|--------|--------|--------|
E|--------|--------|--------|--------|--------|--------|--------|--------|--------|


E|--------|--------|--------|--------|--------|--------|--------|--------|--------|
B|--------|--------|--------|--------|--------|--------|--------|--------|--------|
G|--------|--------|--------|--------|--------|--------|--------|--------|--------|
D|--------|--------|--------|--------|--------|--------|--------|--------|--------|
A|--------|--------|--------|--------|--------|--------|--------|--------|--------|
E|--------|--------|--------|--------|--------|--------|--------|--------|--------|


E|--------|--------|
B|--------|--------|
G|--------|--------|
D|--------|--------|
A|--------|--------|
E|--------|--------|





Track 4: Guitar I

E|--------|--------|--------|--------|--------|--------|--------|--------|--------|
B|--------|--------|--------|--------|--------|--------|--------|--------|--------|
G|--------|--------|--------|--------|--------|--------|--------|--------|--------|
D|--------|--------|--------|--------|--------|--------|--------|--------|--------|
A|--------|--------|--------|--------|--------|--------|--------|--------|--------|
E|--------|--------|--------|--------|--------|--------|--------|--------|--------|


E|--------|--------|--------|--------|--------|--------|--------|--------|--------|
B|--------|--------|--------|--------|--------|--------|--------|--------|--------|
G|--------|--------|--------|--------|--------|--------|--------|--------|--------|
D|--------|--------|--------|--------|--------|--------|--------|--------|--------|
A|--------|--------|--------|--------|--------|--------|--------|--------|--------|
E|--------|--------|--------|--------|--------|--------|--------|--------|--------|


E|--------|--------|--------|--------|--------|--------|--------|--------|--------|
B|--------|--------|--------|--------|--------|--------|--------|--------|--------|
G|--------|--------|--------|--------|--------|--------|--------|--------|--------|
D|--------|--------|--------|--------|--------|--------|--------|--------|--------|
A|--------|--------|--------|--------|--------|--------|--------|--------|--------|
E|--------|--------|--------|--------|--------|--------|--------|--------|--------|


E|--------|--------|--------|--------|--------|--------|--------|--------|--------|
B|--------|--------|--------|--------|--------|--------|--------|--------|--------|
G|--------|--------|--------|--------|--------|--------|--------|--------|--------|
D|--------|--------|--------|--------|--------|--------|--------|--------|--------|
A|--------|--------|--------|--------|--------|--------|--------|--------|--------|
E|--------|--------|--------|--------|--------|--------|--------|--------|--------|


E|--------|--------|--------|--------|--------|--------|--------|--------|--------|
B|--------|--------|--------|--------|--------|--------|--------|--------|--------|
G|--------|--------|--------|--------|--------|--------|--------|--------|--------|
D|--------|--------|--------|--------|--------|--------|--------|--------|--------|
A|--------|--------|--------|--------|--------|--------|--------|--------|--------|
E|--------|--------|--------|--------|--------|--------|--------|--------|--------|


E|--------|-----------------------------------------|-----------------------------------------|
B|--------|-----------------------------------------|-----------------------------------------|
G|--------|-11--11-11-11--11-11-11--11-11-11--11-11-|-11--11-11-11--11-11-11--11-11-11--11-11-|
D|--------|-9---9--9--9---9--9--9---9--9--9---9--9--|-9---9--9--9---9--9--9---9--9--9---9--9--|
A|--------|-9---9--9--9---9--9--9---9--9--9---9--9--|-9---9--9--9---9--9--9---9--9--9---9--9--|
E|--------|-----------------------------------------|-----------------------------------------|


E|-----------------|----------------|-----------------------------------------|-----------------------------------------|
B|-----------------|----------------|-----------------------------------------|-----------------------------------------|
G|-11--------------|-------------11-|-11--11-11-11--11-11-11--11-11-11--11-11-|-11--11-11-11--11-11-11--11-11-11--11-11-|
D|-9---------------|-------------9--|-9---9--9--9---9--9--9---9--9--9---9--9--|-9---9--9--9---9--9--9---9--9--9---9--9--|
A|-9---------------|-------------9--|-9---9--9--9---9--9--9---9--9--9---9--9--|-9---9--9--9---9--9--9---9--9--9---9--9--|
E|-----------------|----------------|-----------------------------------------|-----------------------------------------|


E|-----------------|--------|--------|--------|--------|--------|--------|--------|
B|-----------------|--------|--------|--------|--------|--------|--------|--------|
G|-11--------------|--------|--------|--------|--------|--------|--------|--------|
D|-9---------------|--------|--------|--------|--------|--------|--------|--------|
A|-9---------------|--------|--------|--------|--------|--------|--------|--------|
E|-----------------|--------|--------|--------|--------|--------|--------|--------|


E|--------|--------|--------|--------|--------|--------|--------|--------|--------|
B|--------|--------|--------|--------|--------|--------|--------|--------|--------|
G|--------|--------|--------|--------|--------|--------|--------|--------|--------|
D|--------|--------|--------|--------|--------|--------|--------|--------|--------|
A|--------|--------|--------|--------|--------|--------|--------|--------|--------|
E|--------|--------|--------|--------|--------|--------|--------|--------|--------|


E|--------|--------|--------|--------|--------|--------|--------|--------|--------|
B|--------|--------|--------|--------|--------|--------|--------|--------|--------|
G|--------|--------|--------|--------|--------|--------|--------|--------|--------|
D|--------|--------|--------|--------|--------|--------|--------|--------|--------|
A|--------|--------|--------|--------|--------|--------|--------|--------|--------|
E|--------|--------|--------|--------|--------|--------|--------|--------|--------|


E|--------|--------|--------|--------|--------|--------|--------|----------------|
B|--------|--------|--------|--------|--------|--------|--------|----------------|
G|--------|--------|--------|--------|--------|--------|--------|-------------11-|
D|--------|--------|--------|--------|--------|--------|--------|-------------9--|
A|--------|--------|--------|--------|--------|--------|--------|-------------9--|
E|--------|--------|--------|--------|--------|--------|--------|----------------|


E|-----------------------------------------|-----------------------------------------|
B|-----------------------------------------|-----------------------------------------|
G|-11--11-11-11--11-11-11--11-11-11--11-11-|-11--11-11-11--11-11-11--11-11-11--11-11-|
D|-9---9--9--9---9--9--9---9--9--9---9--9--|-9---9--9--9---9--9--9---9--9--9---9--9--|
A|-9---9--9--9---9--9--9---9--9--9---9--9--|-9---9--9--9---9--9--9---9--9--9---9--9--|
E|-----------------------------------------|-----------------------------------------|


E|-----------------|--------|--------|--------|--------|--------|-----------------------------------------|
B|-----------------|--------|--------|--------|--------|--------|-----------------------------------------|
G|-11--------------|--------|--------|--------|--------|--------|-11--11-11-11--11-11-11--11-11-11--11-11-|
D|-9---------------|--------|--------|--------|--------|--------|-9---9--9--9---9--9--9---9--9--9---9--9--|
A|-9---------------|--------|--------|--------|--------|--------|-9---9--9--9---9--9--9---9--9--9---9--9--|
E|-----------------|--------|--------|--------|--------|--------|-----------------------------------------|


E|-----------------------------------------|-----------------|--------|-----------------------------------------|
B|-----------------------------------------|-----------------|--------|-----------------------------------------|
G|-11--11-11-11--11-11-11--11-11-11--11-11-|-11--------------|--------|-11--11-11-11--11-11-11--11-11-11--11-11-|
D|-9---9--9--9---9--9--9---9--9--9---9--9--|-9---------------|--------|-9---9--9--9---9--9--9---9--9--9---9--9--|
A|-9---9--9--9---9--9--9---9--9--9---9--9--|-9---------------|--------|-9---9--9--9---9--9--9---9--9--9---9--9--|
E|-----------------------------------------|-----------------|--------|-----------------------------------------|


E|-----------------------------------------|-----------------|--------|--------|--------|
B|-----------------------------------------|-----------------|--------|--------|--------|
G|-11--11-11-11--11-11-11--11-11-11--11-11-|-11--------------|--------|--------|--------|
D|-9---9--9--9---9--9--9---9--9--9---9--9--|-9---------------|--------|--------|--------|
A|-9---9--9--9---9--9--9---9--9--9---9--9--|-9---------------|--------|--------|--------|
E|-----------------------------------------|-----------------|--------|--------|--------|


E|--------|--------|--------|--------|--------|--------|-----------------------------------------|
B|--------|--------|--------|--------|--------|--------|-----------------------------------------|
G|--------|--------|--------|--------|--------|--------|-11--11-11-11--11-11-11--11-11-11--11-11-|
D|--------|--------|--------|--------|--------|--------|-9---9--9--9---9--9--9---9--9--9---9--9--|
A|--------|--------|--------|--------|--------|--------|-9---9--9--9---9--9--9---9--9--9---9--9--|
E|--------|--------|--------|--------|--------|--------|-----------------------------------------|


E|-----------------------------------------|-----------------|--------|--------|--------|
B|-----------------------------------------|-----------------|--------|--------|--------|
G|-11--11-11-11--11-11-11--11-11-11--11-11-|-11--------------|--------|--------|--------|
D|-9---9--9--9---9--9--9---9--9--9---9--9--|-9---------------|--------|--------|--------|
A|-9---9--9--9---9--9--9---9--9--9---9--9--|-9---------------|--------|--------|--------|
E|-----------------------------------------|-----------------|--------|--------|--------|


E|--------|--------|-----------------------------------------|-----------------------------------------|
B|--------|--------|-----------------------------------------|-----------------------------------------|
G|--------|--------|-11--11-11-11--11-11-11--11-11-11--11-11-|-11--11-11-11--11-11-11--11-11-11--11-11-|
D|--------|--------|-9---9--9--9---9--9--9---9--9--9---9--9--|-9---9--9--9---9--9--9---9--9--9---9--9--|
A|--------|--------|-9---9--9--9---9--9--9---9--9--9---9--9--|-9---9--9--9---9--9--9---9--9--9---9--9--|
E|--------|--------|-----------------------------------------|-----------------------------------------|


E|-----------------|--------|--------|--------|--------|--------|--------|--------|
B|-----------------|--------|--------|--------|--------|--------|--------|--------|
G|-11--------------|--------|--------|--------|--------|--------|--------|--------|
D|-9---------------|--------|--------|--------|--------|--------|--------|--------|
A|-9---------------|--------|--------|--------|--------|--------|--------|--------|
E|-----------------|--------|--------|--------|--------|--------|--------|--------|


E|--------|--------|--------|--------|--------|--------|--------|--------|--------|
B|--------|--------|--------|--------|--------|--------|--------|--------|--------|
G|--------|--------|--------|--------|--------|--------|--------|--------|--------|
D|--------|--------|--------|--------|--------|--------|--------|--------|--------|
A|--------|--------|--------|--------|--------|--------|--------|--------|--------|
E|--------|--------|--------|--------|--------|--------|--------|--------|--------|


E|--------|--------|--------|--------|--------|
B|--------|--------|--------|--------|--------|
G|--------|--------|--------|--------|--------|
D|--------|--------|--------|--------|--------|
A|--------|--------|--------|--------|--------|
E|--------|--------|--------|--------|--------|





Track 5: Strings

E|--------|--------|--------|--------|--------|--------|--------|--------|--------|
B|--------|--------|--------|--------|--------|--------|--------|--------|--------|
G|--------|--------|--------|--------|--------|--------|--------|--------|--------|
D|--------|--------|--------|--------|--------|--------|--------|--------|--------|
A|--------|--------|--------|--------|--------|--------|--------|--------|--------|
E|--------|--------|--------|--------|--------|--------|--------|--------|--------|


E|--------|--------|--------|--------|--------|--------|--------|--------|--------|
B|--------|--------|--------|--------|--------|--------|--------|--------|--------|
G|--------|--------|--------|--------|--------|--------|--------|--------|--------|
D|--------|--------|--------|--------|--------|--------|--------|--------|--------|
A|--------|--------|--------|--------|--------|--------|--------|--------|--------|
E|--------|--------|--------|--------|--------|--------|--------|--------|--------|


E|--------|--------|--------|--------|--------|--------|--------|--------|--------|
B|--------|--------|--------|--------|--------|--------|--------|--------|--------|
G|--------|--------|--------|--------|--------|--------|--------|--------|--------|
D|--------|--------|--------|--------|--------|--------|--------|--------|--------|
A|--------|--------|--------|--------|--------|--------|--------|--------|--------|
E|--------|--------|--------|--------|--------|--------|--------|--------|--------|


E|--------|--------|--------|--------|--------|--------|--------|--------|--------|
B|--------|--------|--------|--------|--------|--------|--------|--------|--------|
G|--------|--------|--------|--------|--------|--------|--------|--------|--------|
D|--------|--------|--------|--------|--------|--------|--------|--------|--------|
A|--------|--------|--------|--------|--------|--------|--------|--------|--------|
E|--------|--------|--------|--------|--------|--------|--------|--------|--------|


E|--------|--------|--------|--------|--------|--------|--------|--------|--------|
B|--------|--------|--------|--------|--------|--------|--------|--------|--------|
G|--------|--------|--------|--------|--------|--------|--------|--------|--------|
D|--------|--------|--------|--------|--------|--------|--------|--------|--------|
A|--------|--------|--------|--------|--------|--------|--------|--------|--------|
E|--------|--------|--------|--------|--------|--------|--------|--------|--------|


E|--------|--------|--------|--------|--------|--------|--------|--------|--------|
B|--------|--------|--------|--------|--------|--------|--------|--------|--------|
G|--------|--------|--------|--------|--------|--------|--------|--------|--------|
D|--------|--------|--------|--------|--------|--------|--------|--------|--------|
A|--------|--------|--------|--------|--------|--------|--------|--------|--------|
E|--------|--------|--------|--------|--------|--------|--------|--------|--------|


E|--------|--------|--------|--------|--------|--------|--------|--------|--------|
B|--------|--------|--------|--------|--------|--------|--------|--------|--------|
G|--------|--------|--------|--------|--------|--------|--------|--------|--------|
D|--------|--------|--------|--------|--------|--------|--------|--------|--------|
A|--------|--------|--------|--------|--------|--------|--------|--------|--------|
E|--------|--------|--------|--------|--------|--------|--------|--------|--------|


E|--------|--------|--------|--------|--------|--------|--------|--------|--------|
B|--------|--------|--------|--------|--------|--------|--------|--------|--------|
G|--------|--------|--------|--------|--------|--------|--------|--------|--------|
D|--------|--------|--------|--------|--------|--------|--------|--------|--------|
A|--------|--------|--------|--------|--------|--------|--------|--------|--------|
E|--------|--------|--------|--------|--------|--------|--------|--------|--------|


E|--------|--------|-14-----|-14----14--16--17--19--|-14----14------------|-9------|
B|--------|--------|-15-----|-15----15--17--17--17--|-15----15--5----3----|--------|
G|--------|--------|--------|-----------------------|---------------------|-6------|
D|--------|--------|--------|-----------------------|---------------------|--------|
A|--------|--------|--------|-----------------------|-----------7----5----|--------|
E|--------|--------|--------|-----------------------|---------------------|--------|


E|-14-----|-14----14--16--17--19--|-14-----|-17---17---21----|--------|--------|--------|
B|-15-----|-15----15--17--17--17--|-15-----|-19---19---21----|--------|--------|--------|
G|--------|-----------------------|--------|-----------------|--------|--------|--------|
D|--------|-----------------------|--------|-----------------|--------|--------|--------|
A|--------|-----------------------|--------|-----------------|--------|--------|--------|
E|--------|-----------------------|--------|-----------------|--------|--------|--------|


E|--------|--------|--------|-------21-19------------|-------------|--------|--------|
B|--------|--------|--------|-------------22-21-19---|-19----------|--------|--------|
G|--------|--------|--------|-------------------18---|-18----------|--------|--------|
D|--------|--------|--------|------------------------|-------------|--------|--------|
A|--------|--------|--------|------------------------|-------------|--------|--------|
E|--------|--------|--------|------------------------|-------------|--------|--------|


E|--------|--------|--------|--------|-------21-19------------|-------------|--------|
B|--------|--------|--------|--------|-------------22-21-19---|-19----------|--------|
G|--------|--------|--------|--------|-------------------18---|-18----------|--------|
D|--------|--------|--------|--------|------------------------|-------------|--------|
A|--------|--------|--------|--------|------------------------|-------------|--------|
E|--------|--------|--------|--------|------------------------|-------------|--------|


E|--------|-------21-19------------|--------------------|--------|--------|--------|
B|--------|-------------22-21-19---|-19-----------------|--------|--------|--------|
G|--------|-------------------18---|-18-----------------|--------|--------|--------|
D|--------|------------------------|--------------------|--------|--------|--------|
A|--------|------------------------|--------------------|--------|--------|--------|
E|--------|------------------------|--------------------|--------|--------|--------|


E|--------|--------|--------|--------|--------|--------|--------|-------21-19------------|
B|--------|--------|--------|--------|--------|--------|--------|-------------22-21-19---|
G|--------|--------|--------|--------|--------|--------|--------|-------------------18---|
D|--------|--------|--------|--------|--------|--------|--------|------------------------|
A|--------|--------|--------|--------|--------|--------|--------|------------------------|
E|--------|--------|--------|--------|--------|--------|--------|------------------------|


E|-------------|--------|--------|--------|--------|--------|--------|-------21-19------------|
B|-19----------|--------|--------|--------|--------|--------|--------|-------------22-21-19---|
G|-18----------|--------|--------|--------|--------|--------|--------|-------------------18---|
D|-------------|--------|--------|--------|--------|--------|--------|------------------------|
A|-------------|--------|--------|--------|--------|--------|--------|------------------------|
E|-------------|--------|--------|--------|--------|--------|--------|------------------------|


E|-------------|-----------------------------------------|-----------------------------------------|
B|-19----------|-----------------------------------------|-----------------------------------------|
G|-18----------|-11--11-11-11--11-11-11--11-11-11--11-11-|-11--11-11-11--11-11-11--11-11-11--11-11-|
D|-------------|-9---9--9--9---9--9--9---9--9--9---9--9--|-9---9--9--9---9--9--9---9--9--9---9--9--|
A|-------------|-9---9--9--9---9--9--9---9--9--9---9--9--|-9---9--9--9---9--9--9---9--9--9---9--9--|
E|-------------|-----------------------------------------|-----------------------------------------|


E|-----------21-19------------|-------------|--------|--------|--------|--------|--------|
B|-----------------22-21-19---|-19----------|--------|--------|--------|--------|--------|
G|-11--------------------18---|-18----------|--------|--------|--------|--------|--------|
D|-9--------------------------|-------------|--------|--------|--------|--------|--------|
A|-9--------------------------|-------------|--------|--------|--------|--------|--------|
E|----------------------------|-------------|--------|--------|--------|--------|--------|


E|--------|--------|--------|--------|--------|--------|--------|--------|--------|
B|--------|--------|--------|--------|--------|--------|--------|--------|--------|
G|--------|--------|--------|--------|--------|--------|--------|--------|--------|
D|--------|--------|--------|--------|--------|--------|--------|--------|--------|
A|--------|--------|--------|--------|--------|--------|--------|--------|--------|
E|--------|--------|--------|--------|--------|--------|--------|--------|--------|


E|--------|--------|
B|--------|--------|
G|--------|--------|
D|--------|--------|
A|--------|--------|
E|--------|--------|





Track 6: Guitar II

E|--------|--------|--------|--------|--------|--------|--------|--------|--------|
B|--------|--------|--------|--------|--------|--------|--------|--------|--------|
G|--------|--------|--------|--------|--------|--------|--------|--------|--------|
D|--------|--------|--------|--------|--------|--------|--------|--------|--------|
A|--------|--------|--------|--------|--------|--------|--------|--------|--------|
E|--------|--------|--------|--------|--------|--------|--------|--------|--------|


E|--------|--------|--------|--------|--------|--------|--------|--------|--------|
B|--------|--------|--------|--------|--------|--------|--------|--------|--------|
G|--------|--------|--------|--------|--------|--------|--------|--------|--------|
D|--------|--------|--------|--------|--------|--------|--------|--------|--------|
A|--------|--------|--------|--------|--------|--------|--------|--------|--------|
E|--------|--------|--------|--------|--------|--------|--------|--------|--------|


E|--------|--------|--------|--------|--------|--------|--------|--------|--------|
B|--------|--------|--------|--------|--------|--------|--------|--------|--------|
G|--------|--------|--------|--------|--------|--------|--------|--------|--------|
D|--------|--------|--------|--------|--------|--------|--------|--------|--------|
A|--------|--------|--------|--------|--------|--------|--------|--------|--------|
E|--------|--------|--------|--------|--------|--------|--------|--------|--------|


E|--------|--------|--------|--------|--------|--------|--------|--------|--------|
B|--------|--------|--------|--------|--------|--------|--------|--------|--------|
G|--------|--------|--------|--------|--------|--------|--------|--------|--------|
D|--------|--------|--------|--------|--------|--------|--------|--------|--------|
A|--------|--------|--------|--------|--------|--------|--------|--------|--------|
E|--------|--------|--------|--------|--------|--------|--------|--------|--------|


E|--------|--------|--------|--------|--------|--------|--------|--------|--------|
B|--------|--------|--------|--------|--------|--------|--------|--------|--------|
G|--------|--------|--------|--------|--------|--------|--------|--------|--------|
D|--------|--------|--------|--------|--------|--------|--------|--------|--------|
A|--------|--------|--------|--------|--------|--------|--------|--------|--------|
E|--------|--------|--------|--------|--------|--------|--------|--------|--------|


E|--------|--------|--------|--------|--------|--------|--------|--------|--------|
B|--------|--------|--------|--------|--------|--------|--------|--------|--------|
G|--------|--------|--------|--------|--------|--------|--------|--------|--------|
D|--------|--------|--------|--------|--------|--------|--------|--------|--------|
A|--------|--------|--------|--------|--------|--------|--------|--------|--------|
E|--------|--------|--------|--------|--------|--------|--------|--------|--------|


E|--------|--------|--------|--------|--------|--------|--------|--------|--------|
B|--------|--------|--------|--------|--------|--------|--------|--------|--------|
G|--------|--------|--------|--------|--------|--------|--------|--------|--------|
D|--------|--------|--------|--------|--------|--------|--------|--------|--------|
A|--------|--------|--------|--------|--------|--------|--------|--------|--------|
E|--------|--------|--------|--------|--------|--------|--------|--------|--------|


E|--------|--------|--------|--------|--------|--------|--------|--------|--------|
B|--------|--------|--------|--------|--------|--------|--------|--------|--------|
G|--------|--------|--------|--------|--------|--------|--------|--------|--------|
D|--------|--------|--------|--------|--------|--------|--------|--------|--------|
A|--------|--------|--------|--------|--------|--------|--------|--------|--------|
E|--------|--------|--------|--------|--------|--------|--------|--------|--------|


E|--------|--------|--------|--------|--------|--------|--------|--------|--------|
B|--------|--------|--------|--------|--------|--------|--------|--------|--------|
G|--------|--------|--------|--------|--------|--------|--------|--------|--------|
D|--------|--------|--------|--------|--------|--------|--------|--------|--------|
A|--------|--------|--------|--------|--------|--------|--------|--------|--------|
E|--------|--------|--------|--------|--------|--------|--------|--------|--------|


E|--------|--------|--------|--------|--------|--------|--------|--------|--------|
B|--------|--------|--------|--------|--------|--------|--------|--------|--------|
G|--------|--------|--------|--------|--------|--------|--------|--------|--------|
D|--------|--------|--------|--------|--------|--------|--------|--------|--------|
A|--------|--------|--------|--------|--------|--------|--------|--------|--------|
E|--------|--------|--------|--------|--------|--------|--------|--------|--------|


E|------------------------------------|------------------------------------|------------------------------------|
B|------------------------------------|------------------------------------|------------------------------------|
G|-4--6---4------6--6--------4--4--4--|-4--6---4------6--6--------4--4--4--|-4--6---4------6--6--------4--4--4--|
D|------------7--------------4--4--4--|------------7--------------4--4--4--|------------7--------------4--4--4--|
A|------------------------------------|------------------------------------|------------------------------------|
E|------------------------------------|------------------------------------|------------------------------------|


E|-------------------------------|--------|--------|--------|--------|--------|--------|
B|-------------------------------|--------|--------|--------|--------|--------|--------|
G|-4--6---4------6--6------------|--------|--------|--------|--------|--------|--------|
D|------------7------------------|--------|--------|--------|--------|--------|--------|
A|-------------------------------|--------|--------|--------|--------|--------|--------|
E|-------------------------------|--------|--------|--------|--------|--------|--------|


E|--------|--------------------|------------------------------------|------------------------------------|
B|--------|--------------------|------------------------------------|------------------------------------|
G|--------|-----------4--4--4--|-4--6---4------6--6--------4--4--4--|-4--6---4------6--6--------4--4--4--|
D|--------|-----------4--4--4--|------------7--------------4--4--4--|------------7--------------4--4--4--|
A|--------|--------------------|------------------------------------|------------------------------------|
E|--------|--------------------|------------------------------------|------------------------------------|


E|------------------------------------|-----------------------------------------|------------------------------------|
B|------------------------------------|-----------------------------------------|------------------------------------|
G|-4--6---4------6--6--------4--4--4--|-4--6---4------4--4--4--6---4---4--4--4--|-4--6---4------6--6--------4--4--4--|
D|------------7--------------4--4--4--|------------7--4--4-------------4--4--4--|------------7--------------4--4--4--|
A|------------------------------------|-----------------------------------------|------------------------------------|
E|------------------------------------|-----------------------------------------|------------------------------------|


E|-----------------------------------------|------------------------------------|-------------------------------|
B|-----------------------------------------|------------------------------------|-------------------------------|
G|-4--6---4------4--4--4--6---4---4--4--4--|-4--6---4------6--6--------4--4--4--|-4--6---4------6--6------------|
D|------------7--4--4-------------4--4--4--|------------7--------------4--4--4--|------------7------------------|
A|-----------------------------------------|------------------------------------|-------------------------------|
E|-----------------------------------------|------------------------------------|-------------------------------|


E|--------|--------|--------|--------|--------|--------|--------|--------|---------------------------------|
B|--------|--------|--------|--------|--------|--------|--------|--------|---------------------------------|
G|--------|--------|--------|--------|--------|--------|--------|--------|-----6--4---2--4---2----4--------|
D|--------|--------|--------|--------|--------|--------|--------|--------|---------------------------------|
A|--------|--------|--------|--------|--------|--------|--------|--------|---------------------------------|
E|--------|--------|--------|--------|--------|--------|--------|--------|---------------------------------|


E|---------------------------------|--------|--------|--------|--------|--------|--------|
B|---------------------------------|--------|--------|--------|--------|--------|--------|
G|-----6--4---2--4---2-------------|--------|--------|--------|--------|--------|--------|
D|------------------------4--------|--------|--------|--------|--------|--------|--------|
A|---------------------------------|--------|--------|--------|--------|--------|--------|
E|---------------------------------|--------|--------|--------|--------|--------|--------|


E|------------------------------------|------------------------------------|------------------------------------|
B|------------------------------------|------------------------------------|------------------------------------|
G|-4--6---4------6--6--------4--4--4--|-4--6---4------6--6--------4--4--4--|-4--6---4------6--6--------4--4--4--|
D|------------7--------------4--4--4--|------------7--------------4--4--4--|------------7--------------4--4--4--|
A|------------------------------------|------------------------------------|------------------------------------|
E|------------------------------------|------------------------------------|------------------------------------|


E|-----------------------------------------|------------------------------------|------------------------------------|
B|-----------------------------------------|------------------------------------|------------------------------------|
G|-4--6---4------4--4--4--6---4---4--4--4--|-4--6---4------6--6--------4--4--4--|-4--6---4------6--6--------4--4--4--|
D|------------7--4--4-------------4--4--4--|------------7--------------4--4--4--|------------7--------------4--4--4--|
A|-----------------------------------------|------------------------------------|------------------------------------|
E|-----------------------------------------|------------------------------------|------------------------------------|


E|------------------------------------|-----------------------------------------|------------------------------------|
B|------------------------------------|-----------------------------------------|------------------------------------|
G|-4--6---4------6--6--------4--4--4--|-4--6---4------4--4--4--6---4---4--4--4--|-4--6---4------6--6--------4--4--4--|
D|------------7--------------4--4--4--|------------7--4--4-------------4--4--4--|------------7--------------4--4--4--|
A|------------------------------------|-----------------------------------------|------------------------------------|
E|------------------------------------|-----------------------------------------|------------------------------------|


E|------------------------------------|------------------------------------|-----------------------------------------|
B|------------------------------------|------------------------------------|-----------------------------------------|
G|-4--6---4------6--6--------4--4--4--|-4--6---4------6--6--------4--4--4--|-4--6---4------4--4--4--6---4---4--4--4--|
D|------------7--------------4--4--4--|------------7--------------4--4--4--|------------7--4--4-------------4--4--4--|
A|------------------------------------|------------------------------------|-----------------------------------------|
E|------------------------------------|------------------------------------|-----------------------------------------|


E|------------------------------------|------------------------------------|------------------------------------|
B|------------------------------------|------------------------------------|------------------------------------|
G|-4--6---4------6--6--------4--4--4--|-4--6---4------6--6--------4--4--4--|-4--6---4------6--6--------4--4--4--|
D|------------7--------------4--4--4--|------------7--------------4--4--4--|------------7--------------4--4--4--|
A|------------------------------------|------------------------------------|------------------------------------|
E|------------------------------------|------------------------------------|------------------------------------|


E|-----------------------------------------|
B|-----------------------------------------|
G|-4--6---4------4--4--4--6---4---4--4--4--|
D|------------7--4--4-------------4--4--4--|
A|-----------------------------------------|
E|-----------------------------------------|





Track 7: Synth

E|--------|--------|--------|--------|--------|--------|--------|--------|--------|
B|--------|--------|--------|--------|--------|--------|--------|--------|--------|
G|--------|--------|--------|--------|--------|--------|--------|--------|--------|
D|--------|--------|--------|--------|--------|--------|--------|--------|--------|
A|--------|--------|--------|--------|--------|--------|--------|--------|--------|
E|--------|--------|--------|--------|--------|--------|--------|--------|--------|


E|--------|--------|--------|--------|--------|--------|--------|--------|--------|
B|--------|--------|--------|--------|--------|--------|--------|--------|--------|
G|--------|--------|--------|--------|--------|--------|--------|--------|--------|
D|--------|--------|--------|--------|--------|--------|--------|--------|--------|
A|--------|--------|--------|--------|--------|--------|--------|--------|--------|
E|--------|--------|--------|--------|--------|--------|--------|--------|--------|


E|--------|--------|--------|--------|--------|--------|--------|--------|--------|
B|--------|--------|--------|--------|--------|--------|--------|--------|--------|
G|--------|--------|--------|--------|--------|--------|--------|--------|--------|
D|--------|--------|--------|--------|--------|--------|--------|--------|--------|
A|--------|--------|--------|--------|--------|--------|--------|--------|--------|
E|--------|--------|--------|--------|--------|--------|--------|--------|--------|


E|--------|--------|--------|--------|--------|--------|--------|--------|--------|
B|--------|--------|--------|--------|--------|--------|--------|--------|--------|
G|--------|--------|--------|--------|--------|--------|--------|--------|--------|
D|--------|--------|--------|--------|--------|--------|--------|--------|--------|
A|--------|--------|--------|--------|--------|--------|--------|--------|--------|
E|--------|--------|--------|--------|--------|--------|--------|--------|--------|


E|--------|--------|--------|--------|--------|--------|--------|--------|--------|
B|--------|--------|--------|--------|--------|--------|--------|--------|--------|
G|--------|--------|--------|--------|--------|--------|--------|--------|--------|
D|--------|--------|--------|--------|--------|--------|--------|--------|--------|
A|--------|--------|--------|--------|--------|--------|--------|--------|--------|
E|--------|--------|--------|--------|--------|--------|--------|--------|--------|


E|--------|--------|--------|--------|--------|--------|--------|--------|--------|
B|--------|--------|--------|--------|--------|--------|--------|--------|--------|
G|--------|--------|--------|--------|--------|--------|--------|--------|--------|
D|--------|--------|--------|--------|--------|--------|--------|--------|--------|
A|--------|--------|--------|--------|--------|--------|--------|--------|--------|
E|--------|--------|--------|--------|--------|--------|--------|--------|--------|


E|--------|--------|--------|--------|--------|--------|--------|--------|--------|
B|--------|--------|--------|--------|--------|--------|--------|--------|--------|
G|--------|--------|--------|--------|--------|--------|--------|--------|--------|
D|--------|--------|--------|--------|--------|--------|--------|--------|--------|
A|--------|--------|--------|--------|--------|--------|--------|--------|--------|
E|--------|--------|--------|--------|--------|--------|--------|--------|--------|


E|--------|--------|--------|--------|--------|--------|--------|--------|--------|
B|--------|--------|--------|--------|--------|--------|--------|--------|--------|
G|--------|--------|--------|--------|--------|--------|--------|--------|--------|
D|--------|--------|--------|--------|--------|--------|--------|--------|--------|
A|--------|--------|--------|--------|--------|--------|--------|--------|--------|
E|--------|--------|--------|--------|--------|--------|--------|--------|--------|


E|--------|--------|--------|--------|--------|--------|--------|--------|--------|
B|--------|--------|--------|--------|--------|--------|--------|--------|--------|
G|--------|--------|--------|--------|--------|--------|--------|--------|--------|
D|--------|--------|--------|--------|--------|--------|--------|--------|--------|
A|--------|--------|--------|--------|--------|--------|--------|--------|--------|
E|--------|--------|--------|--------|--------|--------|--------|--------|--------|


E|--------|--------|--------|--------|--------|--------|--------|--------|--------|
B|--------|--------|--------|--------|--------|--------|--------|--------|--------|
G|--------|--------|--------|--------|--------|--------|--------|--------|--------|
D|--------|--------|--------|--------|--------|--------|--------|--------|--------|
A|--------|--------|--------|--------|--------|--------|--------|--------|--------|
E|--------|--------|--------|--------|--------|--------|--------|--------|--------|


E|--------|--------|--------|--------|--------|--------|-------------|---------21------------|
B|--------|--------|--------|--------|--------|--------|-------------|-----------------------|
G|--------|--------|--------|--------|--------|--------|-------------|-----18------18--------|
D|--------|--------|--------|--------|--------|--------|-------------|-----------------------|
A|--------|--------|--------|--------|--------|--------|-------------|-----------------------|
E|--------|--------|--------|--------|--------|--------|-------------|-----------------------|


E|--------|--------|--------|--------|--------|--------|--------|--------|--------|
B|--------|--------|--------|--------|--------|--------|--------|--------|--------|
G|--------|--------|--------|--------|--------|--------|--------|--------|--------|
D|--------|--------|--------|--------|--------|--------|--------|--------|--------|
A|--------|--------|--------|--------|--------|--------|--------|--------|--------|
E|--------|--------|--------|--------|--------|--------|--------|--------|--------|


E|--------|--------|--------|--------|--------|--------|--------|--------|--------|
B|--------|--------|--------|--------|--------|--------|--------|--------|--------|
G|--------|--------|--------|--------|--------|--------|--------|--------|--------|
D|--------|--------|--------|--------|--------|--------|--------|--------|--------|
A|--------|--------|--------|--------|--------|--------|--------|--------|--------|
E|--------|--------|--------|--------|--------|--------|--------|--------|--------|


E|--------|--------|--------|--------|--------|--------|--------|--------|--------|
B|--------|--------|--------|--------|--------|--------|--------|--------|--------|
G|--------|--------|--------|--------|--------|--------|--------|--------|--------|
D|--------|--------|--------|--------|--------|--------|--------|--------|--------|
A|--------|--------|--------|--------|--------|--------|--------|--------|--------|
E|--------|--------|--------|--------|--------|--------|--------|--------|--------|


E|--------|--------|--------|--------|--------|--------|--------|--------|--------|
B|--------|--------|--------|--------|--------|--------|--------|--------|--------|
G|--------|--------|--------|--------|--------|--------|--------|--------|--------|
D|--------|--------|--------|--------|--------|--------|--------|--------|--------|
A|--------|--------|--------|--------|--------|--------|--------|--------|--------|
E|--------|--------|--------|--------|--------|--------|--------|--------|--------|


E|--------|--------|--------|--------|--------|--------|--------|--------|
B|--------|--------|--------|--------|--------|--------|--------|--------|
G|--------|--------|--------|--------|--------|--------|--------|--------|
D|--------|--------|--------|--------|--------|--------|--------|--------|
A|--------|--------|--------|--------|--------|--------|--------|--------|
E|--------|--------|--------|--------|--------|--------|--------|--------|





Track 8: Synth

E|--------|--------|--------|--------|--------|--------|--------|--------|--------|
B|--------|--------|--------|--------|--------|--------|--------|--------|--------|
G|--------|--------|--------|--------|--------|--------|--------|--------|--------|
D|--------|--------|--------|--------|--------|--------|--------|--------|--------|
A|--------|--------|--------|--------|--------|--------|--------|--------|--------|
E|--------|--------|--------|--------|--------|--------|--------|--------|--------|


E|--------|--------|--------|--------|--------|--------|--------|--------|--------|
B|--------|--------|--------|--------|--------|--------|--------|--------|--------|
G|--------|--------|--------|--------|--------|--------|--------|--------|--------|
D|--------|--------|--------|--------|--------|--------|--------|--------|--------|
A|--------|--------|--------|--------|--------|--------|--------|--------|--------|
E|--------|--------|--------|--------|--------|--------|--------|--------|--------|


E|--------|--------|--------|--------|--------|--------|--------|--------|--------|
B|--------|--------|--------|--------|--------|--------|--------|--------|--------|
G|--------|--------|--------|--------|--------|--------|--------|--------|--------|
D|--------|--------|--------|--------|--------|--------|--------|--------|--------|
A|--------|--------|--------|--------|--------|--------|--------|--------|--------|
E|--------|--------|--------|--------|--------|--------|--------|--------|--------|


E|--------|--------|--------|--------|--------|--------|--------|--------|--------|
B|--------|--------|--------|--------|--------|--------|--------|--------|--------|
G|--------|--------|--------|--------|--------|--------|--------|--------|--------|
D|--------|--------|--------|--------|--------|--------|--------|--------|--------|
A|--------|--------|--------|--------|--------|--------|--------|--------|--------|
E|--------|--------|--------|--------|--------|--------|--------|--------|--------|


E|--------|--------|--------|--------|--------|--------|--------|--------|--------|
B|--------|--------|--------|--------|--------|--------|--------|--------|--------|
G|--------|--------|--------|--------|--------|--------|--------|--------|--------|
D|--------|--------|--------|--------|--------|--------|--------|--------|--------|
A|--------|--------|--------|--------|--------|--------|--------|--------|--------|
E|--------|--------|--------|--------|--------|--------|--------|--------|--------|


E|--------|--------|--------|--------|--------|--------|--------|--------|--------|
B|--------|--------|--------|--------|--------|--------|--------|--------|--------|
G|--------|--------|--------|--------|--------|--------|--------|--------|--------|
D|--------|--------|--------|--------|--------|--------|--------|--------|--------|
A|--------|--------|--------|--------|--------|--------|--------|--------|--------|
E|--------|--------|--------|--------|--------|--------|--------|--------|--------|


E|--------|--------|--------|--------|--------|--------|--------|--------|--------|
B|--------|--------|--------|--------|--------|--------|--------|--------|--------|
G|--------|--------|--------|--------|--------|--------|--------|--------|--------|
D|--------|--------|--------|--------|--------|--------|--------|--------|--------|
A|--------|--------|--------|--------|--------|--------|--------|--------|--------|
E|--------|--------|--------|--------|--------|--------|--------|--------|--------|


E|--------|--------|--------|--------|--------|--------|--------|--------|--------|
B|--------|--------|--------|--------|--------|--------|--------|--------|--------|
G|--------|--------|--------|--------|--------|--------|--------|--------|--------|
D|--------|--------|--------|--------|--------|--------|--------|--------|--------|
A|--------|--------|--------|--------|--------|--------|--------|--------|--------|
E|--------|--------|--------|--------|--------|--------|--------|--------|--------|


E|--------|--------|--------|--------|--------|--------|--------|--------|--------|
B|--------|--------|--------|--------|--------|--------|--------|--------|--------|
G|--------|--------|--------|--------|--------|--------|--------|--------|--------|
D|--------|--------|--------|--------|--------|--------|--------|--------|--------|
A|--------|--------|--------|--------|--------|--------|--------|--------|--------|
E|--------|--------|--------|--------|--------|--------|--------|--------|--------|


E|--------|--------|--------|--------|--------|--------|--------|--------|--------|
B|--------|--------|--------|--------|--------|--------|--------|--------|--------|
G|--------|--------|--------|--------|--------|--------|--------|--------|--------|
D|--------|--------|--------|--------|--------|--------|--------|--------|--------|
A|--------|--------|--------|--------|--------|--------|--------|--------|--------|
E|--------|--------|--------|--------|--------|--------|--------|--------|--------|


E|--------|--------|--------|--------|--------|--------|--------|--------|--------|
B|--------|--------|--------|--------|--------|--------|--------|--------|--------|
G|--------|--------|--------|--------|--------|--------|--------|--------|--------|
D|--------|--------|--------|--------|--------|--------|--------|--------|--------|
A|--------|--------|--------|--------|--------|--------|--------|--------|--------|
E|--------|--------|--------|--------|--------|--------|--------|--------|--------|


E|--------|---------21------------|--------|--------|--------|--------|--------|--------|
B|--------|-----------------------|--------|--------|--------|--------|--------|--------|
G|--------|-----18------18--------|--------|--------|--------|--------|--------|--------|
D|--------|-----------------------|--------|--------|--------|--------|--------|--------|
A|--------|-----------------------|--------|--------|--------|--------|--------|--------|
E|--------|-----------------------|--------|--------|--------|--------|--------|--------|


E|--------|--------|--------|--------|--------|--------|--------|--------|--------|
B|--------|--------|--------|--------|--------|--------|--------|--------|--------|
G|--------|--------|--------|--------|--------|--------|--------|--------|--------|
D|--------|--------|--------|--------|--------|--------|--------|--------|--------|
A|--------|--------|--------|--------|--------|--------|--------|--------|--------|
E|--------|--------|--------|--------|--------|--------|--------|--------|--------|


E|--------|--------|--------|--------|--------|--------|--------|--------|--------|
B|--------|--------|--------|--------|--------|--------|--------|--------|--------|
G|--------|--------|--------|--------|--------|--------|--------|--------|--------|
D|--------|--------|--------|--------|--------|--------|--------|--------|--------|
A|--------|--------|--------|--------|--------|--------|--------|--------|--------|
E|--------|--------|--------|--------|--------|--------|--------|--------|--------|


E|--------|--------|--------|--------|--------|--------|--------|--------|--------|
B|--------|--------|--------|--------|--------|--------|--------|--------|--------|
G|--------|--------|--------|--------|--------|--------|--------|--------|--------|
D|--------|--------|--------|--------|--------|--------|--------|--------|--------|
A|--------|--------|--------|--------|--------|--------|--------|--------|--------|
E|--------|--------|--------|--------|--------|--------|--------|--------|--------|


E|--------|--------|--------|--------|--------|--------|--------|--------|
B|--------|--------|--------|--------|--------|--------|--------|--------|
G|--------|--------|--------|--------|--------|--------|--------|--------|
D|--------|--------|--------|--------|--------|--------|--------|--------|
A|--------|--------|--------|--------|--------|--------|--------|--------|
E|--------|--------|--------|--------|--------|--------|--------|--------|





Track 9: Synth

E|--------|--------|--------|--------|--------|--------|--------|--------|--------|
B|--------|--------|--------|--------|--------|--------|--------|--------|--------|
G|--------|--------|--------|--------|--------|--------|--------|--------|--------|
D|--------|--------|--------|--------|--------|--------|--------|--------|--------|
A|--------|--------|--------|--------|--------|--------|--------|--------|--------|
E|--------|--------|--------|--------|--------|--------|--------|--------|--------|


E|--------|--------|--------|--------|--------|--------|--------|--------|--------|
B|--------|--------|--------|--------|--------|--------|--------|--------|--------|
G|--------|--------|--------|--------|--------|--------|--------|--------|--------|
D|--------|--------|--------|--------|--------|--------|--------|--------|--------|
A|--------|--------|--------|--------|--------|--------|--------|--------|--------|
E|--------|--------|--------|--------|--------|--------|--------|--------|--------|


E|--------|--------|--------|--------|--------|--------|--------|--------|--------|
B|--------|--------|--------|--------|--------|--------|--------|--------|--------|
G|--------|--------|--------|--------|--------|--------|--------|--------|--------|
D|--------|--------|--------|--------|--------|--------|--------|--------|--------|
A|--------|--------|--------|--------|--------|--------|--------|--------|--------|
E|--------|--------|--------|--------|--------|--------|--------|--------|--------|


E|--------|--------|--------|--------|--------|--------|--------|--------|--------|
B|--------|--------|--------|--------|--------|--------|--------|--------|--------|
G|--------|--------|--------|--------|--------|--------|--------|--------|--------|
D|--------|--------|--------|--------|--------|--------|--------|--------|--------|
A|--------|--------|--------|--------|--------|--------|--------|--------|--------|
E|--------|--------|--------|--------|--------|--------|--------|--------|--------|


E|--------|--------|--------|--------|--------|--------|--------|--------|--------|
B|--------|--------|--------|--------|--------|--------|--------|--------|--------|
G|--------|--------|--------|--------|--------|--------|--------|--------|--------|
D|--------|--------|--------|--------|--------|--------|--------|--------|--------|
A|--------|--------|--------|--------|--------|--------|--------|--------|--------|
E|--------|--------|--------|--------|--------|--------|--------|--------|--------|


E|--------|--------|--------|--------|--------|--------|--------|--------|--------|
B|--------|--------|--------|--------|--------|--------|--------|--------|--------|
G|--------|--------|--------|--------|--------|--------|--------|--------|--------|
D|--------|--------|--------|--------|--------|--------|--------|--------|--------|
A|--------|--------|--------|--------|--------|--------|--------|--------|--------|
E|--------|--------|--------|--------|--------|--------|--------|--------|--------|


E|--------|--------|--------|--------|--------|--------|--------|--------|--------|
B|--------|--------|--------|--------|--------|--------|--------|--------|--------|
G|--------|--------|--------|--------|--------|--------|--------|--------|--------|
D|--------|--------|--------|--------|--------|--------|--------|--------|--------|
A|--------|--------|--------|--------|--------|--------|--------|--------|--------|
E|--------|--------|--------|--------|--------|--------|--------|--------|--------|


E|--------|--------|--------|--------|--------|--------|--------|--------|--------|
B|--------|--------|--------|--------|--------|--------|--------|--------|--------|
G|--------|--------|--------|--------|--------|--------|--------|--------|--------|
D|--------|--------|--------|--------|--------|--------|--------|--------|--------|
A|--------|--------|--------|--------|--------|--------|--------|--------|--------|
E|--------|--------|--------|--------|--------|--------|--------|--------|--------|


E|--------|--------|--------|--------|--------|--------|--------|--------|--------|
B|--------|--------|--------|--------|--------|--------|--------|--------|--------|
G|--------|--------|--------|--------|--------|--------|--------|--------|--------|
D|--------|--------|--------|--------|--------|--------|--------|--------|--------|
A|--------|--------|--------|--------|--------|--------|--------|--------|--------|
E|--------|--------|--------|--------|--------|--------|--------|--------|--------|


E|--------|--------|--------|--------|--------|--------|--------|--------|--------|
B|--------|--------|--------|--------|--------|--------|--------|--------|--------|
G|--------|--------|--------|--------|--------|--------|--------|--------|--------|
D|--------|--------|--------|--------|--------|--------|--------|--------|--------|
A|--------|--------|--------|--------|--------|--------|--------|--------|--------|
E|--------|--------|--------|--------|--------|--------|--------|--------|--------|


E|--------|--------|--------|--------|--------|--------|--------|--------|--------|
B|--------|--------|--------|--------|--------|--------|--------|--------|--------|
G|--------|--------|--------|--------|--------|--------|--------|--------|--------|
D|--------|--------|--------|--------|--------|--------|--------|--------|--------|
A|--------|--------|--------|--------|--------|--------|--------|--------|--------|
E|--------|--------|--------|--------|--------|--------|--------|--------|--------|


E|--------|-------------|---------21------------|--------|--------|--------|--------|
B|--------|-------------|-----------------------|--------|--------|--------|--------|
G|--------|-------------|-----18------18--------|--------|--------|--------|--------|
D|--------|-------------|-----------------------|--------|--------|--------|--------|
A|--------|-------------|-----------------------|--------|--------|--------|--------|
E|--------|-------------|-----------------------|--------|--------|--------|--------|


E|--------|--------|--------|--------|--------|--------|--------|--------|--------|
B|--------|--------|--------|--------|--------|--------|--------|--------|--------|
G|--------|--------|--------|--------|--------|--------|--------|--------|--------|
D|--------|--------|--------|--------|--------|--------|--------|--------|--------|
A|--------|--------|--------|--------|--------|--------|--------|--------|--------|
E|--------|--------|--------|--------|--------|--------|--------|--------|--------|


E|--------|--------|--------|--------|--------|--------|--------|--------|--------|
B|--------|--------|--------|--------|--------|--------|--------|--------|--------|
G|--------|--------|--------|--------|--------|--------|--------|--------|--------|
D|--------|--------|--------|--------|--------|--------|--------|--------|--------|
A|--------|--------|--------|--------|--------|--------|--------|--------|--------|
E|--------|--------|--------|--------|--------|--------|--------|--------|--------|


E|--------|--------|--------|--------|--------|--------|--------|--------|--------|
B|--------|--------|--------|--------|--------|--------|--------|--------|--------|
G|--------|--------|--------|--------|--------|--------|--------|--------|--------|
D|--------|--------|--------|--------|--------|--------|--------|--------|--------|
A|--------|--------|--------|--------|--------|--------|--------|--------|--------|
E|--------|--------|--------|--------|--------|--------|--------|--------|--------|


E|--------|--------|--------|--------|--------|--------|--------|--------|--------|
B|--------|--------|--------|--------|--------|--------|--------|--------|--------|
G|--------|--------|--------|--------|--------|--------|--------|--------|--------|
D|--------|--------|--------|--------|--------|--------|--------|--------|--------|
A|--------|--------|--------|--------|--------|--------|--------|--------|--------|
E|--------|--------|--------|--------|--------|--------|--------|--------|--------|





Track 10: Synth

E|--------|--------|--------|--------|--------|--------|--------|--------|--------|
B|--------|--------|--------|--------|--------|--------|--------|--------|--------|
G|--------|--------|--------|--------|--------|--------|--------|--------|--------|
D|--------|--------|--------|--------|--------|--------|--------|--------|--------|
A|--------|--------|--------|--------|--------|--------|--------|--------|--------|
E|--------|--------|--------|--------|--------|--------|--------|--------|--------|


E|--------|--------|--------|--------|--------|--------|--------|--------|--------|
B|--------|--------|--------|--------|--------|--------|--------|--------|--------|
G|--------|--------|--------|--------|--------|--------|--------|--------|--------|
D|--------|--------|--------|--------|--------|--------|--------|--------|--------|
A|--------|--------|--------|--------|--------|--------|--------|--------|--------|
E|--------|--------|--------|--------|--------|--------|--------|--------|--------|


E|--------|--------|--------|--------|--------|--------|--------|--------|--------|
B|--------|--------|--------|--------|--------|--------|--------|--------|--------|
G|--------|--------|--------|--------|--------|--------|--------|--------|--------|
D|--------|--------|--------|--------|--------|--------|--------|--------|--------|
A|--------|--------|--------|--------|--------|--------|--------|--------|--------|
E|--------|--------|--------|--------|--------|--------|--------|--------|--------|


E|--------|--------|--------|--------|--------|--------|--------|--------|--------|
B|--------|--------|--------|--------|--------|--------|--------|--------|--------|
G|--------|--------|--------|--------|--------|--------|--------|--------|--------|
D|--------|--------|--------|--------|--------|--------|--------|--------|--------|
A|--------|--------|--------|--------|--------|--------|--------|--------|--------|
E|--------|--------|--------|--------|--------|--------|--------|--------|--------|


E|--------|--------|--------|--------|--------|--------|--------|--------|--------|
B|--------|--------|--------|--------|--------|--------|--------|--------|--------|
G|--------|--------|--------|--------|--------|--------|--------|--------|--------|
D|--------|--------|--------|--------|--------|--------|--------|--------|--------|
A|--------|--------|--------|--------|--------|--------|--------|--------|--------|
E|--------|--------|--------|--------|--------|--------|--------|--------|--------|


E|--------|--------|--------|--------|--------|--------|--------|--------|--------|
B|--------|--------|--------|--------|--------|--------|--------|--------|--------|
G|--------|--------|--------|--------|--------|--------|--------|--------|--------|
D|--------|--------|--------|--------|--------|--------|--------|--------|--------|
A|--------|--------|--------|--------|--------|--------|--------|--------|--------|
E|--------|--------|--------|--------|--------|--------|--------|--------|--------|


E|--------|--------|--------|--------|--------|--------|--------|--------|--------|
B|--------|--------|--------|--------|--------|--------|--------|--------|--------|
G|--------|--------|--------|--------|--------|--------|--------|--------|--------|
D|--------|--------|--------|--------|--------|--------|--------|--------|--------|
A|--------|--------|--------|--------|--------|--------|--------|--------|--------|
E|--------|--------|--------|--------|--------|--------|--------|--------|--------|


E|--------|--------|--------|--------|--------|--------|--------|--------|--------|
B|--------|--------|--------|--------|--------|--------|--------|--------|--------|
G|--------|--------|--------|--------|--------|--------|--------|--------|--------|
D|--------|--------|--------|--------|--------|--------|--------|--------|--------|
A|--------|--------|--------|--------|--------|--------|--------|--------|--------|
E|--------|--------|--------|--------|--------|--------|--------|--------|--------|


E|--------|--------|--------|--------|--------|--------|--------|--------|--------|
B|--------|--------|--------|--------|--------|--------|--------|--------|--------|
G|--------|--------|--------|--------|--------|--------|--------|--------|--------|
D|--------|--------|--------|--------|--------|--------|--------|--------|--------|
A|--------|--------|--------|--------|--------|--------|--------|--------|--------|
E|--------|--------|--------|--------|--------|--------|--------|--------|--------|


E|--------|--------|--------|--------|--------|--------|--------|--------|--------|
B|--------|--------|--------|--------|--------|--------|--------|--------|--------|
G|--------|--------|--------|--------|--------|--------|--------|--------|--------|
D|--------|--------|--------|--------|--------|--------|--------|--------|--------|
A|--------|--------|--------|--------|--------|--------|--------|--------|--------|
E|--------|--------|--------|--------|--------|--------|--------|--------|--------|


E|--------|--------|--------|--------|--------|--------|--------|--------|--------|
B|--------|--------|--------|--------|--------|--------|--------|--------|--------|
G|--------|--------|--------|--------|--------|--------|--------|--------|--------|
D|--------|--------|--------|--------|--------|--------|--------|--------|--------|
A|--------|--------|--------|--------|--------|--------|--------|--------|--------|
E|--------|--------|--------|--------|--------|--------|--------|--------|--------|


E|--------|--------|--------|--------|--------|--------|--------|--------|--------|
B|--------|--------|--------|--------|--------|--------|--------|--------|--------|
G|--------|--------|--------|--------|--------|--------|--------|--------|--------|
D|--------|--------|--------|--------|--------|--------|--------|--------|--------|
A|--------|--------|--------|--------|--------|--------|--------|--------|--------|
E|--------|--------|--------|--------|--------|--------|--------|--------|--------|


E|--------|--------|--------|--------|--------|--------|--------|--------|--------|
B|--------|--------|--------|--------|--------|--------|--------|--------|--------|
G|--------|--------|--------|--------|--------|--------|--------|--------|--------|
D|--------|--------|--------|--------|--------|--------|--------|--------|--------|
A|--------|--------|--------|--------|--------|--------|--------|--------|--------|
E|--------|--------|--------|--------|--------|--------|--------|--------|--------|


E|--------|--------|--------|--------|--------|---------------------------------|---------------------------------|
B|--------|--------|--------|--------|--------|---------------------------------|---------------------------------|
G|--------|--------|--------|--------|--------|-----6--4---2--4---2----4--------|-----6--4---2--4---2-------------|
D|--------|--------|--------|--------|--------|---------------------------------|------------------------4--------|
A|--------|--------|--------|--------|--------|---------------------------------|---------------------------------|
E|--------|--------|--------|--------|--------|---------------------------------|---------------------------------|


E|--------|--------|--------|--------|--------|--------|--------|--------|--------|
B|--------|--------|--------|--------|--------|--------|--------|--------|--------|
G|--------|--------|--------|--------|--------|--------|--------|--------|--------|
D|--------|--------|--------|--------|--------|--------|--------|--------|--------|
A|--------|--------|--------|--------|--------|--------|--------|--------|--------|
E|--------|--------|--------|--------|--------|--------|--------|--------|--------|


E|--------|--------|--------|--------|--------|--------|--------|--------|--------|
B|--------|--------|--------|--------|--------|--------|--------|--------|--------|
G|--------|--------|--------|--------|--------|--------|--------|--------|--------|
D|--------|--------|--------|--------|--------|--------|--------|--------|--------|
A|--------|--------|--------|--------|--------|--------|--------|--------|--------|
E|--------|--------|--------|--------|--------|--------|--------|--------|--------|





Track 11: Synth

E|--------|--------|--------|--------|--------|--------|--------|--------|--------|
B|--------|--------|--------|--------|--------|--------|--------|--------|--------|
G|--------|--------|--------|--------|--------|--------|--------|--------|--------|
D|--------|--------|--------|--------|--------|--------|--------|--------|--------|
A|--------|--------|--------|--------|--------|--------|--------|--------|--------|
E|--------|--------|--------|--------|--------|--------|--------|--------|--------|


E|--------|--------|--------|--------|--------|--------|--------|--------|--------|
B|--------|--------|--------|--------|--------|--------|--------|--------|--------|
G|--------|--------|--------|--------|--------|--------|--------|--------|--------|
D|--------|--------|--------|--------|--------|--------|--------|--------|--------|
A|--------|--------|--------|--------|--------|--------|--------|--------|--------|
E|--------|--------|--------|--------|--------|--------|--------|--------|--------|


E|--------|--------|--------|--------|--------|--------|--------|--------|--------|
B|--------|--------|--------|--------|--------|--------|--------|--------|--------|
G|--------|--------|--------|--------|--------|--------|--------|--------|--------|
D|--------|--------|--------|--------|--------|--------|--------|--------|--------|
A|--------|--------|--------|--------|--------|--------|--------|--------|--------|
E|--------|--------|--------|--------|--------|--------|--------|--------|--------|


E|--------|--------|--------|--------|--------|--------|--------|--------|--------|
B|--------|--------|--------|--------|--------|--------|--------|--------|--------|
G|--------|--------|--------|--------|--------|--------|--------|--------|--------|
D|--------|--------|--------|--------|--------|--------|--------|--------|--------|
A|--------|--------|--------|--------|--------|--------|--------|--------|--------|
E|--------|--------|--------|--------|--------|--------|--------|--------|--------|


E|--------|--------|--------|--------|--------|--------|--------|--------|--------|
B|--------|--------|--------|--------|--------|--------|--------|--------|--------|
G|--------|--------|--------|--------|--------|--------|--------|--------|--------|
D|--------|--------|--------|--------|--------|--------|--------|--------|--------|
A|--------|--------|--------|--------|--------|--------|--------|--------|--------|
E|--------|--------|--------|--------|--------|--------|--------|--------|--------|


E|--------|--------|--------|--------|--------|--------|--------|--------|--------|
B|--------|--------|--------|--------|--------|--------|--------|--------|--------|
G|--------|--------|--------|--------|--------|--------|--------|--------|--------|
D|--------|--------|--------|--------|--------|--------|--------|--------|--------|
A|--------|--------|--------|--------|--------|--------|--------|--------|--------|
E|--------|--------|--------|--------|--------|--------|--------|--------|--------|


E|--------|--------|--------|--------|--------|--------|--------|--------|--------|
B|--------|--------|--------|--------|--------|--------|--------|--------|--------|
G|--------|--------|--------|--------|--------|--------|--------|--------|--------|
D|--------|--------|--------|--------|--------|--------|--------|--------|--------|
A|--------|--------|--------|--------|--------|--------|--------|--------|--------|
E|--------|--------|--------|--------|--------|--------|--------|--------|--------|


E|--------|--------|--------|--------|--------|--------|--------|--------|--------|
B|--------|--------|--------|--------|--------|--------|--------|--------|--------|
G|--------|--------|--------|--------|--------|--------|--------|--------|--------|
D|--------|--------|--------|--------|--------|--------|--------|--------|--------|
A|--------|--------|--------|--------|--------|--------|--------|--------|--------|
E|--------|--------|--------|--------|--------|--------|--------|--------|--------|


E|--------|--------|--------|--------|--------|--------|--------|--------|--------|
B|--------|--------|--------|--------|--------|--------|--------|--------|--------|
G|--------|--------|--------|--------|--------|--------|--------|--------|--------|
D|--------|--------|--------|--------|--------|--------|--------|--------|--------|
A|--------|--------|--------|--------|--------|--------|--------|--------|--------|
E|--------|--------|--------|--------|--------|--------|--------|--------|--------|


E|--------|--------|--------|--------|--------|--------|--------|--------|--------|
B|--------|--------|--------|--------|--------|--------|--------|--------|--------|
G|--------|--------|--------|--------|--------|--------|--------|--------|--------|
D|--------|--------|--------|--------|--------|--------|--------|--------|--------|
A|--------|--------|--------|--------|--------|--------|--------|--------|--------|
E|--------|--------|--------|--------|--------|--------|--------|--------|--------|


E|--------|--------|--------|--------|--------|--------|--------|--------|--------|
B|--------|--------|--------|--------|--------|--------|--------|--------|--------|
G|--------|--------|--------|--------|--------|--------|--------|--------|--------|
D|--------|--------|--------|--------|--------|--------|--------|--------|--------|
A|--------|--------|--------|--------|--------|--------|--------|--------|--------|
E|--------|--------|--------|--------|--------|--------|--------|--------|--------|


E|--------|--------|--------|--------|--------|--------|--------|--------|--------|
B|--------|--------|--------|--------|--------|--------|--------|--------|--------|
G|--------|--------|--------|--------|--------|--------|--------|--------|--------|
D|--------|--------|--------|--------|--------|--------|--------|--------|--------|
A|--------|--------|--------|--------|--------|--------|--------|--------|--------|
E|--------|--------|--------|--------|--------|--------|--------|--------|--------|


E|--------|--------|--------|--------|--------|--------|--------|--------|--------|
B|--------|--------|--------|--------|--------|--------|--------|--------|--------|
G|--------|--------|--------|--------|--------|--------|--------|--------|--------|
D|--------|--------|--------|--------|--------|--------|--------|--------|--------|
A|--------|--------|--------|--------|--------|--------|--------|--------|--------|
E|--------|--------|--------|--------|--------|--------|--------|--------|--------|


E|--------|--------|--------|--------|--------|--------|--------|--------|--------|
B|--------|--------|--------|--------|--------|--------|--------|--------|--------|
G|--------|--------|--------|--------|--------|--------|--------|--------|--------|
D|--------|--------|--------|--------|--------|--------|--------|--------|--------|
A|--------|--------|--------|--------|--------|--------|--------|--------|--------|
E|--------|--------|--------|--------|--------|--------|--------|--------|--------|


E|--------|--------|--------|--------|--------|--------|--------|--------|--------|
B|--------|--------|--------|--------|--------|--------|--------|--------|--------|
G|--------|--------|--------|--------|--------|--------|--------|--------|--------|
D|--------|--------|--------|--------|--------|--------|--------|--------|--------|
A|--------|--------|--------|--------|--------|--------|--------|--------|--------|
E|--------|--------|--------|--------|--------|--------|--------|--------|--------|


E|--------|--------|--------|--------|--------|--------|--------|
B|--------|--------|--------|--------|--------|--------|--------|
G|--------|--------|--------|--------|--------|--------|--------|
D|--------|--------|--------|--------|--------|--------|--------|
A|--------|--------|--------|--------|--------|--------|--------|
E|--------|--------|--------|--------|--------|--------|--------|





Track 12: Synth Bass

G|--------|--------|---------------------------------|---------------------------------|
D|--------|--------|-4-------2---4---2---------------|-4-------2---4---2---------------|
A|--------|--------|-----4---------------4---2---4---|-----4---------------4---2---4---|
E|--------|--------|---------------------------------|---------------------------------|


G|---------------------------------|---------------------------------|---------------------------------|
D|-4-------2---4---2---------------|-4-------2---4---2---------------|-4-------2---4---2---------------|
A|-----4---------------4---2---4---|-----4---------------4---2---4---|-----4---------------4---2---4---|
E|---------------------------------|---------------------------------|---------------------------------|


G|---------------------------------|---------------------------------|---------------------------------|
D|-4-------2---4---2---------------|-4-------2---4---2---------------|-4-------2---4---2---------------|
A|-----4---------------4---2---4---|-----4---------------4---2---4---|-----4---------------4---2---4---|
E|---------------------------------|---------------------------------|---------------------------------|


G|---------------------------------|---------------------------------|---------------------------------|
D|-4-------2---4---2---------------|-4-------2---4---2---------------|-4-------2---4---2---------------|
A|-----4---------------4---2---4---|-----4---------------4---2---4---|-----4---------------4---2---4---|
E|---------------------------------|---------------------------------|---------------------------------|


G|---------------------------------|---------------------------------|---------------------------------|
D|-4-------2---4---2---------------|-4-------2---4---2---------------|-4-------2---4---2---------------|
A|-----4---------------4---2---4---|-----4---------------4---2---4---|-----4---------------4---2---4---|
E|---------------------------------|---------------------------------|---------------------------------|


G|---------------------------------|---------------------------------|-4-------2---4-------------------|
D|-4-------2---4---2---------------|-4-------2---4---2---------------|-----4---------------4---2---4---|
A|-----4---------------4---2---4---|-----4---------------4---2---4---|---------------------------------|
E|---------------------------------|---------------------------------|---------------------------------|


G|-4-------2---4-------------------|---------------------------------|---------------------------------|
D|-----4---------------4---2---4---|-4-------2---4---2---------------|-4-------2---4---2---------------|
A|---------------------------------|-----4---------------4---2---4---|-----4---------------4---2---4---|
E|---------------------------------|---------------------------------|---------------------------------|


G|-4-------2---4-------------------|-4-------2---4-------------------|---------------------------------|
D|-----4---------------4---2---4---|-----4---------------4---2---4---|-4-------2---4---2---------------|
A|---------------------------------|---------------------------------|-----4---------------4---2---4---|
E|---------------------------------|---------------------------------|---------------------------------|


G|---------------------------------|---------------------------------|---------------------------------|
D|-4-------2---4---2---------------|-4-------2---4---2---------------|-4-------2---4---2---------------|
A|-----4---------------4---2---4---|-----4---------------4---2---4---|-----4---------------4---2---4---|
E|---------------------------------|---------------------------------|---------------------------------|


G|---------------------------------|---------------------------------|-4-------2---4-------------------|
D|-4-------2---4---2---------------|-4-------2---4---2---------------|-----4---------------4---2---4---|
A|-----4---------------4---2---4---|-----4---------------4---2---4---|---------------------------------|
E|---------------------------------|---------------------------------|---------------------------------|


G|-4-------2---4-------------------|---------------------------------|---------------------------------|
D|-----4---------------4---2---4---|-4-------2---4---2---------------|-4-------2---4---2---------------|
A|---------------------------------|-----4---------------4---2---4---|-----4---------------4---2---4---|
E|---------------------------------|---------------------------------|---------------------------------|


G|-------------------|-----------------|-------------------|-----------------|-------------------|
D|-------------2--2--|-4---------------|-------------2--2--|-4---------------|-------------2--2--|
A|-5-----5-----------|-----------------|-5-----5-----------|-----------------|-5-----5-----------|
E|-------------------|-------2-----2---|-------------------|-------2-----2---|-------------------|


G|-----------------|----------------------|------------------------------|---------------------------------|
D|-4---------------|----------------------|------------------------------|-4-------2---4---2---------------|
A|-----------------|-5-----5----5---5--5--|-4---4---4---4---4---4---4----|-----4---------------4---2---4---|
E|-------2-----2---|----------------------|------------------------------|---------------------------------|


G|---------------------------------|---------------------------------|---------------------------------|
D|-4-------2---4---2---------------|-4-------2---4---2---------------|-4-------2---4---2---------------|
A|-----4---------------4---2---4---|-----4---------------4---2---4---|-----4---------------4---2---4---|
E|---------------------------------|---------------------------------|---------------------------------|


G|-4-------2---4-------------------|-4-------2---4-------------------|---------------------------------|
D|-----4---------------4---2---4---|-----4---------------4---2---4---|-4-------2---4---2---------------|
A|---------------------------------|---------------------------------|-----4---------------4---2---4---|
E|---------------------------------|---------------------------------|---------------------------------|


G|---------------------------------|-4-------2---4-------------------|-4-------2---4-------------------|
D|-4-------2---4---2---------------|-----4---------------4---2---4---|-----4---------------4---2---4---|
A|-----4---------------4---2---4---|---------------------------------|---------------------------------|
E|---------------------------------|---------------------------------|---------------------------------|


G|---------------------------------|---------------------------------|---------------------------------|
D|-4-------2---4---2---------------|-4-------2---4---2---------------|-4-------2---4---2---------------|
A|-----4---------------4---2---4---|-----4---------------4---2---4---|-----4---------------4---2---4---|
E|---------------------------------|---------------------------------|---------------------------------|


G|---------------------------------|---------------------------------|---------------------------------|
D|-4-------2---4---2---------------|-4-------2---4---2---------------|-4-------2---4---2---------------|
A|-----4---------------4---2---4---|-----4---------------4---2---4---|-----4---------------4---2---4---|
E|---------------------------------|---------------------------------|---------------------------------|


G|-4-------2---4-------------------|-4-------2---4-------------------|---------------------------------|
D|-----4---------------4---2---4---|-----4---------------4---2---4---|-4-------2---4---2---------------|
A|---------------------------------|---------------------------------|-----4---------------4---2---4---|
E|---------------------------------|---------------------------------|---------------------------------|


G|---------------------------------|-4-------2---4-------------------|-4-------2---4-------------------|
D|-4-------2---4---2---------------|-----4---------------4---2---4---|-----4---------------4---2---4---|
A|-----4---------------4---2---4---|---------------------------------|---------------------------------|
E|---------------------------------|---------------------------------|---------------------------------|


G|---------------------------------|---------------------------------|---------------------------------|
D|-4-------2---4---2---------------|-4-------2---4---2---------------|-4-------2---4---2---------------|
A|-----4---------------4---2---4---|-----4---------------4---2---4---|-----4---------------4---2---4---|
E|---------------------------------|---------------------------------|---------------------------------|


G|---------------------------------|---------------------------------|---------------------------------|
D|-4-------2---4---2---------------|-4-------2---4---2---------------|-4-------2---4---2---------------|
A|-----4---------------4---2---4---|-----4---------------4---2---4---|-----4---------------4---2---4---|
E|---------------------------------|---------------------------------|---------------------------------|


G|-4-------2---4-------------------|-4-------2---4-------------------|---------------------------------|
D|-----4---------------4---2---4---|-----4---------------4---2---4---|-4-------2---4---2---------------|
A|---------------------------------|---------------------------------|-----4---------------4---2---4---|
E|---------------------------------|---------------------------------|---------------------------------|


G|---------------------------------|-------------------|-------------------|-------------------|
D|-4-------2---4---2---------------|-------------2--2--|-4-----------------|-------------2--2--|
A|-----4---------------4---2---4---|-5-----5-----------|-------------------|-5-----5-----------|
E|---------------------------------|-------------------|-------2-----2--2--|-------------------|


G|-------------------|-------------------|-------------------|----------------------|
D|-4-----------------|-------------2--2--|-4-----------------|----------------------|
A|-------------------|-5-----5-----------|-------------------|-5-----5----5---5--5--|
E|-------2-----2--2--|-------------------|-------2-----2--2--|----------------------|


G|------------------------------|---------------------------------|---------------------------------|
D|------------------------------|-4-------2---4---2---------------|-4-------2---4---2---------------|
A|-4---4---4---4---4---4---4----|-----4---------------4---2---4---|-----4---------------4---2---4---|
E|------------------------------|---------------------------------|---------------------------------|


G|---------------------------------|---------------------------------|-4-------2---4-------------------|
D|-4-------2---4---2---------------|-4-------2---4---2---------------|-----4---------------4---2---4---|
A|-----4---------------4---2---4---|-----4---------------4---2---4---|---------------------------------|
E|---------------------------------|---------------------------------|---------------------------------|


G|-4-------2---4-------------------|---------------------------------|---------------------------------|
D|-----4---------------4---2---4---|-4-------2---4---2---------------|-4-------2---4---2---------------|
A|---------------------------------|-----4---------------4---2---4---|-----4---------------4---2---4---|
E|---------------------------------|---------------------------------|---------------------------------|


G|---------------------------------|---------------------------------|---------------------------------|
D|-4-------2---4---2---------------|-4-------2---4---2---------------|-4-------2---4---2---------------|
A|-----4---------------4---2---4---|-----4---------------4---2---4---|-----4---------------4---2---4---|
E|---------------------------------|---------------------------------|---------------------------------|


G|---------------------------------|-4-------2---4-------------------|-4-------2---4-------------------|
D|-4-------2---4---2---------------|-----4---------------4---2---4---|-----4---------------4---2---4---|
A|-----4---------------4---2---4---|---------------------------------|---------------------------------|
E|---------------------------------|---------------------------------|---------------------------------|


G|---------------------------------|---------------------------------|-4-------2---4-------------------|
D|-4-------2---4---2---------------|-4-------2---4---2---------------|-----4---------------4---2---4---|
A|-----4---------------4---2---4---|-----4---------------4---2---4---|---------------------------------|
E|---------------------------------|---------------------------------|---------------------------------|


G|-4-------2---4-------------------|---------------------------------|---------------------------------|
D|-----4---------------4---2---4---|-4-------2---4---2---------------|-4-------2---4---2---------------|
A|---------------------------------|-----4---------------4---2---4---|-----4---------------4---2---4---|
E|---------------------------------|---------------------------------|---------------------------------|


G|---------------------------------|---------------------------------|---------------------------------|
D|-4-------2---4---2---------------|-4-------2---4---2---------------|-4-------2---4---2---------------|
A|-----4---------------4---2---4---|-----4---------------4---2---4---|-----4---------------4---2---4---|
E|---------------------------------|---------------------------------|---------------------------------|


G|---------------------------------|---------------------------------|---------------------------------|
D|-4-------2---4---2---------------|-4-------2---4---2---------------|-4-------2---4---2---------------|
A|-----4---------------4---2---4---|-----4---------------4---2---4---|-----4---------------4---2---4---|
E|---------------------------------|---------------------------------|---------------------------------|


G|---------------------------------|---------------------------------|-4-------2---4-------------------|
D|-4-------2---4---2---------------|-4-------2---4---2---------------|-----4---------------4---2---4---|
A|-----4---------------4---2---4---|-----4---------------4---2---4---|---------------------------------|
E|---------------------------------|---------------------------------|---------------------------------|


G|-4-------2---4-------------------|---------------------------------|---------------------------------|
D|-----4---------------4---2---4---|-4-------2---4---2---------------|-4-------2---4---2---------------|
A|---------------------------------|-----4---------------4---2---4---|-----4---------------4---2---4---|
E|---------------------------------|---------------------------------|---------------------------------|


G|---------------------------------|---------------------------------|---------------------------------|
D|-4-------2---4---2---------------|-4-------2---4---2---------------|-4-------2---4---2---------------|
A|-----4---------------4---2---4---|-----4---------------4---2---4---|-----4---------------4---2---4---|
E|---------------------------------|---------------------------------|---------------------------------|


G|---------------------------------|-4-------2---4-------------------|-4-------2---4-------------------|
D|-4-------2---4---2---------------|-----4---------------4---2---4---|-----4---------------4---2---4---|
A|-----4---------------4---2---4---|---------------------------------|---------------------------------|
E|---------------------------------|---------------------------------|---------------------------------|


G|---------------------------------|---------------------------------|-4-------2---4-------------------|
D|-4-------2---4---2---------------|-4-------2---4---2---------------|-----4---------------4---2---4---|
A|-----4---------------4---2---4---|-----4---------------4---2---4---|---------------------------------|
E|---------------------------------|---------------------------------|---------------------------------|


G|-4-------2---4-------------------|---------------------------------|---------------------------------|
D|-----4---------------4---2---4---|-4-------2---4---2---------------|-4-------2---4---2---------------|
A|---------------------------------|-----4---------------4---2---4---|-----4---------------4---2---4---|
E|---------------------------------|---------------------------------|---------------------------------|


G|---------------------------------|---------------------------------|---------------------------------|
D|-4-------2---4---2---------------|-4-------2---4---2---------------|-4-------2---4---2---------------|
A|-----4---------------4---2---4---|-----4---------------4---2---4---|-----4---------------4---2---4---|
E|---------------------------------|---------------------------------|---------------------------------|


G|---------------------------------|---------------------------------|---------------------------------|
D|-4-------2---4---2---------------|-4-------2---4---2---------------|-4-------2---4---2---------------|
A|-----4---------------4---2---4---|-----4---------------4---2---4---|-----4---------------4---2---4---|
E|---------------------------------|---------------------------------|---------------------------------|


G|---------------------------------|---------------------------------|---------------------------------|
D|-4-------2---4---2---------------|-4-------2---4---2---------------|-4-------2---4---2---------------|
A|-----4---------------4---2---4---|-----4---------------4---2---4---|-----4---------------4---2---4---|
E|---------------------------------|---------------------------------|---------------------------------|


G|---------------------------------|---------------------------------|---------------------------------|
D|-4-------2---4---2---------------|-4-------2---4---2---------------|-4-------2---4---2---------------|
A|-----4---------------4---2---4---|-----4---------------4---2---4---|-----4---------------4---2---4---|
E|---------------------------------|---------------------------------|---------------------------------|


G|---------------------------------|---------------------------------|---------------------------------|
D|-4-------2---4---2---------------|-4-------2---4---2---------------|-4-------2---4---2---------------|
A|-----4---------------4---2---4---|-----4---------------4---2---4---|-----4---------------4---2---4---|
E|---------------------------------|---------------------------------|---------------------------------|


G|---------------------------------|
D|-4-------2---4---2---------------|
A|-----4---------------4---2---4---|
E|---------------------------------|