Menu:

 

Search:

 

michael jackson - beat it:

 



Title: Beat It
Artist: 
Album: Thriller
Author: Michael Jackson & Eddie Van Halen


Track 1: Steve Lukather - main riff w/dist

D#|--------|--------------------|------------------------------|---------------------------|
A#|--------|--------------------|------------------------------|---------------------------|
F#|--------|--------------------|------------------------------|---------------------------|
C#|--------|--------------------|-------------5---2----2---4---|-4---2---0----0------------|
G#|--------|--------------------|---------2--------------------|---------------------------|
D#|--------|----------------0---|-0---3------------------------|-----------------------0---|


D#|------------------------------|------------------------|------------------------------|
A#|------------------------------|------------------------|------------------------------|
F#|------------------------------|------------------------|------------------------------|
C#|-------------5---2----2---4---|-4---2---0--------------|-------------5---2----2---4---|
G#|---------2--------------------|------------------------|---------2--------------------|
D#|-0---3------------------------|--------------------0---|-0---3------------------------|


D#|---------------------------|------------------------------|--------------------|
A#|---------------------------|------------------------------|--------------------|
F#|---------------------------|------------------------------|--------------------|
C#|-4---2---0----0------------|-------------5---2----2---4---|-4---2--------------|
G#|---------------------------|---------2--------------------|---------5----------|
D#|-----------------------0---|-0---3------------------------|--------------------|


D#|--------|--------|--------|--------|--------|--------|--------|--------|--------|
A#|--------|--------|--------|--------|--------|--------|--------|--------|--------|
F#|--------|--------|--------|--------|--------|--------|--------|--------|--------|
C#|--------|--------|--------|--------|--------|--------|--------|--------|--------|
G#|--------|--------|--------|--------|--------|--------|--------|--------|--------|
D#|--------|--------|--------|--------|--------|--------|--------|--------|--------|


D#|--------|--------|--------|--------|--------|--------|----------------|------------------------------|
A#|--------|--------|--------|--------|--------|--------|----------------|------------------------------|
F#|--------|--------|--------|--------|--------|--------|----------------|------------------------------|
C#|--------|--------|--------|--------|--------|--------|----------------|-------------5---2----2---4---|
G#|--------|--------|--------|--------|--------|--------|----------------|---------2--------------------|
D#|--------|--------|--------|--------|--------|--------|------------0---|-0---3------------------------|


D#|---------------------------|------------------------------|------------------------|
A#|---------------------------|------------------------------|------------------------|
F#|---------------------------|------------------------------|------------------------|
C#|-4---2---0----0------------|-------------5---2----2---4---|-4---2---0--------------|
G#|---------------------------|---------2--------------------|------------------------|
D#|-----------------------0---|-0---3------------------------|--------------------0---|


D#|------------------------------|---------------------------|------------------------------|
A#|------------------------------|---------------------------|------------------------------|
F#|------------------------------|---------------------------|------------------------------|
C#|-------------5---2----2---4---|-4---2---0----0------------|-------------5---2----2---4---|
G#|---------2--------------------|---------------------------|---------2--------------------|
D#|-0---3------------------------|-----------------------0---|-0---3------------------------|


D#|------------------------|------------------------------|---------------------------|
A#|------------------------|------------------------------|---------------------------|
F#|------------------------|------------------------------|---------------------------|
C#|-4---2---0--------------|-------------5---2----2---4---|-4---2---0----0------------|
G#|------------------------|---------2--------------------|---------------------------|
D#|--------------------0---|-0---3------------------------|-----------------------0---|


D#|------------------------------|--------------------|------------------------------|
A#|------------------------------|--------------------|------------------------------|
F#|------------------------------|--------------------|-----9---9-------9--------7---|
C#|-------------5---2----2---4---|-4---2---0----------|-----9---9-------9--------7---|
G#|---------2--------------------|--------------------|------------------------------|
D#|-0---3------------------------|--------------------|------------------------------|


D#|-----------------------|------------------------------|-----------------------|
A#|-----------------------|------------------------------|-----------------------|
F#|-7-------7-------------|-----9---9-------9--------7---|-7-------7-------------|
C#|-7-------7-------------|-----9---9-------9--------7---|-7-------7-------------|
G#|-----------------------|------------------------------|-----------------------|
D#|-----------------------|------------------------------|-----------------------|


D#|------------------------------|-----------------------|------------------------------|
A#|------------------------------|-----------------------|------------------------------|
F#|-----5---5-------5--------7---|-7-------7-------------|-----9---9-------9--------7---|
C#|-----5---5-------5--------7---|-7-------7-------------|-----9---9-------9--------7---|
G#|------------------------------|-----------------------|------------------------------|
D#|------------------------------|-----------------------|------------------------------|


D#|-----------------------|--------|--------|--------|--------|--------|--------|--------|
A#|-----------------------|--------|--------|--------|--------|--------|--------|--------|
F#|-7-------7-------------|--------|--------|--------|--------|--------|--------|--------|
C#|-7-------7-------------|--------|--------|--------|--------|--------|--------|--------|
G#|-----------------------|--------|--------|--------|--------|--------|--------|--------|
D#|-----------------------|--------|--------|--------|--------|--------|--------|--------|


D#|----------------|------------------------------|---------------------------|------------------------------|
A#|----------------|------------------------------|---------------------------|------------------------------|
F#|----------------|------------------------------|---------------------------|------------------------------|
C#|----------------|-------------5---2----2---4---|-4---2---0----0------------|-------------5---2----2---4---|
G#|----------------|---------2--------------------|---------------------------|---------2--------------------|
D#|------------0---|-0---3------------------------|-----------------------0---|-0---3------------------------|


D#|------------------------|------------------------------|---------------------------|
A#|------------------------|------------------------------|---------------------------|
F#|------------------------|------------------------------|---------------------------|
C#|-4---2---0--------------|-------------5---2----2---4---|-4---2---0----0------------|
G#|------------------------|---------2--------------------|---------------------------|
D#|--------------------0---|-0---3------------------------|-----------------------0---|


D#|------------------------------|------------------------|------------------------------|
A#|------------------------------|------------------------|------------------------------|
F#|------------------------------|------------------------|------------------------------|
C#|-------------5---2----2---4---|-4---2---0--------------|------------------------------|
G#|---------2--------------------|------------------------|------------------------------|
D#|-0---3------------------------|--------------------0---|-----0---0-------0--------0---|


D#|---------------------------|------------------------------|---------------------------|
A#|---------------------------|------------------------------|---------------------------|
F#|---------------------------|------------------------------|---------------------------|
C#|---------------------------|------------------------------|---------------------------|
G#|---------------------------|------------------------------|---------------------------|
D#|-0-------0-------------0---|-----0---0-------0--------0---|-0-------0-------------0---|


D#|------------------------------|---------------------------|------------------------------|
A#|------------------------------|---------------------------|------------------------------|
F#|------------------------------|---------------------------|------------------------------|
C#|------------------------------|---------------------------|------------------------------|
G#|------------------------------|---------------------------|------------------------------|
D#|-----0---0-------0--------0---|-0-------0-------------0---|-----0---0-------0--------0---|


D#|---------------------------|------------------------------|---------------------------|
A#|---------------------------|------------------------------|---------------------------|
F#|---------------------------|------------------------------|---------------------------|
C#|---------------------------|------------------------------|---------------------------|
G#|---------------------------|------------------------------|---------------------------|
D#|-0-------0-------------0---|-----0---0-------0--------0---|-0-------0-------------0---|


D#|------------------------------|---------------------------|------------------------------|
A#|------------------------------|---------------------------|------------------------------|
F#|------------------------------|---------------------------|------------------------------|
C#|------------------------------|---------------------------|------------------------------|
G#|------------------------------|---------------------------|------------------------------|
D#|-----0---0-------0--------0---|-0-------0-------------0---|-----0---0-------0--------0---|


D#|---------------------------|------------------------------|---------------------------|
A#|---------------------------|------------------------------|---------------------------|
F#|---------------------------|------------------------------|---------------------------|
C#|---------------------------|------------------------------|---------------------------|
G#|---------------------------|------------------------------|---------------------------|
D#|-0-------0-------------0---|-----0---0-------0--------0---|-0-------0-------------0---|


D#|--------|--------|--------|--------|--------|--------|--------|--------|--------|
A#|--------|--------|--------|--------|--------|--------|--------|--------|--------|
F#|--------|--------|--------|--------|--------|--------|--------|--------|--------|
C#|--------|--------|--------|--------|--------|--------|--------|--------|--------|
G#|--------|--------|--------|--------|--------|--------|--------|--------|--------|
D#|--------|--------|--------|--------|--------|--------|--------|--------|--------|


D#|--------|--------|--------|--------|--------|--------|----------------|------------------------------|
A#|--------|--------|--------|--------|--------|--------|----------------|------------------------------|
F#|--------|--------|--------|--------|--------|--------|----------------|------------------------------|
C#|--------|--------|--------|--------|--------|--------|----------------|-------------5---2----2---4---|
G#|--------|--------|--------|--------|--------|--------|----------------|---------2--------------------|
D#|--------|--------|--------|--------|--------|--------|------------0---|-0---3------------------------|


D#|---------------------------|------------------------------|---------------------------|
A#|---------------------------|------------------------------|---------------------------|
F#|---------------------------|------------------------------|---------------------------|
C#|-4---2---0----0------------|-------------5---2----2---4---|-4---2---0-----------------|
G#|---------------------------|---------2--------------------|---------------------------|
D#|-----------------------0---|-0---3------------------------|-----------------------0---|


D#|------------------------------|---------------------------|------------------------------|
A#|------------------------------|---------------------------|------------------------------|
F#|------------------------------|---------------------------|------------------------------|
C#|-------------5---2----2---4---|-4---2---0----0------------|-------------5---2----2---4---|
G#|---------2--------------------|---------------------------|---------2--------------------|
D#|-0---3------------------------|-----------------------0---|-0---3------------------------|


D#|------------------------|------------------------------|---------------------------|
A#|------------------------|------------------------------|---------------------------|
F#|------------------------|------------------------------|---------------------------|
C#|-4---2---0--------------|-------------5---2----2---4---|-4---2---0----0------------|
G#|------------------------|---------2--------------------|---------------------------|
D#|--------------------0---|-0---3------------------------|-----------------------0---|


D#|------------------------------|------------------------|------------------------------|
A#|------------------------------|------------------------|------------------------------|
F#|------------------------------|------------------------|------------------------------|
C#|-------------5---2----2---4---|-4---2---0--------------|-------------5---2----2---4---|
G#|---------2--------------------|------------------------|---------2--------------------|
D#|-0---3------------------------|--------------------0---|-0---3------------------------|


D#|---------------------------|------------------------------|------------------------|
A#|---------------------------|------------------------------|------------------------|
F#|---------------------------|------------------------------|------------------------|
C#|-4---2---0----0------------|-------------5---2----2---4---|-4---2---0--------------|
G#|---------------------------|---------2--------------------|------------------------|
D#|-----------------------0---|-0---3------------------------|--------------------0---|


D#|------------------------------|---------------------------|------------------------------|
A#|------------------------------|---------------------------|------------------------------|
F#|------------------------------|---------------------------|------------------------------|
C#|-------------5---2----2---4---|-4---2---0----0------------|-------------5---2----2---4---|
G#|---------2--------------------|---------------------------|---------2--------------------|
D#|-0---3------------------------|-----------------------0---|-0---3------------------------|


D#|------------------------|------------------------------|---------------------------|
A#|------------------------|------------------------------|---------------------------|
F#|------------------------|------------------------------|---------------------------|
C#|-4---2---0--------------|-------------5---2----2---4---|-4---2---0----0------------|
G#|------------------------|---------2--------------------|---------------------------|
D#|--------------------0---|-0---3------------------------|-----------------------0---|


D#|------------------------------|------------------------|------------------------------|
A#|------------------------------|------------------------|------------------------------|
F#|------------------------------|------------------------|------------------------------|
C#|-------------5---2----2---4---|-4---2---0--------------|-------------5---2----2---4---|
G#|---------2--------------------|------------------------|---------2--------------------|
D#|-0---3------------------------|--------------------0---|-0---3------------------------|


D#|---------------------------|------------------------------|------------------------|
A#|---------------------------|------------------------------|------------------------|
F#|---------------------------|------------------------------|------------------------|
C#|-4---2---0----0------------|-------------5---2----2---4---|-4---2---0--------------|
G#|---------------------------|---------2--------------------|------------------------|
D#|-----------------------0---|-0---3------------------------|--------------------0---|


D#|------------------------------|---------------------------|------------------------------|
A#|------------------------------|---------------------------|------------------------------|
F#|------------------------------|---------------------------|------------------------------|
C#|-------------5---2----2---4---|-4---2---0----0------------|-------------5---2----2---4---|
G#|---------2--------------------|---------------------------|---------2--------------------|
D#|-0---3------------------------|-----------------------0---|-0---3------------------------|


D#|------------------------|
A#|------------------------|
F#|------------------------|
C#|-4---2---0--------------|
G#|------------------------|
D#|--------------------0---|





Track 2: Rhythm w/dist

D#|--------|--------|--------|--------|--------|-------------------|--------------------------------------|
A#|--------|--------|--------|--------|--------|-------------------|--------------------------------------|
F#|--------|--------|--------|--------|--------|-------------------|-------------12--------12-------------|
C#|--------|--------|--------|--------|--------|-------------------|-------------12--------12--14---------|
G#|--------|--------|--------|--------|--------|-------------14-14-|-14-14-14-14--------14-----14---12-12-|
D#|--------|--------|--------|--------|--------|-------------------|--------------------------------------|


D#|--------------------------------|------------------------------------|--------------------------------|
A#|--------------------------------|------------------------------------|--------------------------------|
F#|-----------------------------4--|-12--------12--------12-------------|--------------------------------|
C#|-12--------12--12--12---12------|-----------12--------12--14---------|-12--------12--12--12---12------|
G#|-12--12-12-12--12--12---12------|-----14-14--------14-----14---12-12-|-12--12-12-12--12--12---12------|
D#|--------------------------------|------------------------------------|--------------------------------|


D#|------------------------------|-----------------------|------------------------------|
A#|------------------------------|-----------------------|------------------------------|
F#|-----9---9-------9--------7---|-7-------7-------------|-----9---9-------9--------7---|
C#|-----9---9-------9--------7---|-7-------7-------------|-----9---9-------9--------7---|
G#|------------------------------|-----------------------|------------------------------|
D#|------------------------------|-----------------------|------------------------------|


D#|-----------------------|------------------------------|-----------------------|
A#|-----------------------|------------------------------|-----------------------|
F#|-7-------7-------------|-----5---5-------5--------7---|-7-------7-------------|
C#|-7-------7-------------|-----5---5-------5--------7---|-7-------7-------------|
G#|-----------------------|------------------------------|-----------------------|
D#|-----------------------|------------------------------|-----------------------|


D#|------------------------------|-----------------------|------------------------------|
A#|------------------------------|-----------------------|------------------------------|
F#|-----9---9-------9--------7---|-7-------7-------------|-----9---9-------9--------7---|
C#|-----9---9-------9--------7---|-7-------7-------------|-----9---9-------9--------7---|
G#|------------------------------|-----------------------|------------------------------|
D#|------------------------------|-----------------------|------------------------------|


D#|-----------------------|------------------------------|-----------------------|
A#|-----------------------|------------------------------|-----------------------|
F#|-7-------7-------------|-----9---9-------9--------7---|-7-------7-------------|
C#|-7-------7-------------|-----9---9-------9--------7---|-7-------7-------------|
G#|-----------------------|------------------------------|-----------------------|
D#|-----------------------|------------------------------|-----------------------|


D#|------------------------------|-----------------------|------------------------------|
A#|------------------------------|-----------------------|------------------------------|
F#|-----5---5-------5--------7---|-7-------7-------------|-----9---9-------9--------7---|
C#|-----5---5-------5--------7---|-7-------7-------------|-----9---9-------9--------7---|
G#|------------------------------|-----------------------|------------------------------|
D#|------------------------------|-----------------------|------------------------------|


D#|-----------------------|--------|--------|--------|--------|--------|--------|--------|
A#|-----------------------|--------|--------|--------|--------|--------|--------|--------|
F#|-7-------7-------------|--------|--------|--------|--------|--------|--------|--------|
C#|-7-------7-------------|--------|--------|--------|--------|--------|--------|--------|
G#|-----------------------|--------|--------|--------|--------|--------|--------|--------|
D#|-----------------------|--------|--------|--------|--------|--------|--------|--------|


D#|--------|--------|--------|--------|--------|--------|--------|--------|--------|
A#|--------|--------|--------|--------|--------|--------|--------|--------|--------|
F#|--------|--------|--------|--------|--------|--------|--------|--------|--------|
C#|--------|--------|--------|--------|--------|--------|--------|--------|--------|
G#|--------|--------|--------|--------|--------|--------|--------|--------|--------|
D#|--------|--------|--------|--------|--------|--------|--------|--------|--------|


D#|--------|--------|--------|--------|------------------------------|-----------------------|
A#|--------|--------|--------|--------|------------------------------|-----------------------|
F#|--------|--------|--------|--------|-----9---9-------9--------7---|-7-------7-------------|
C#|--------|--------|--------|--------|-----9---9-------9--------7---|-7-------7-------------|
G#|--------|--------|--------|--------|------------------------------|-----------------------|
D#|--------|--------|--------|--------|------------------------------|-----------------------|


D#|------------------------------|-----------------------|------------------------------|
A#|------------------------------|-----------------------|------------------------------|
F#|-----9---9-------9--------7---|-7-------7-------------|-----5---5-------5--------7---|
C#|-----9---9-------9--------7---|-7-------7-------------|-----5---5-------5--------7---|
G#|------------------------------|-----------------------|------------------------------|
D#|------------------------------|-----------------------|------------------------------|


D#|-----------------------|------------------------------|-----------------------|
A#|-----------------------|------------------------------|-----------------------|
F#|-7-------7-------------|-----9---9-------9--------7---|-7-------7-------------|
C#|-7-------7-------------|-----9---9-------9--------7---|-7-------7-------------|
G#|-----------------------|------------------------------|-----------------------|
D#|-----------------------|------------------------------|-----------------------|


D#|--------|--------|--------|--------|--------|--------|--------|--------|--------|
A#|--------|--------|--------|--------|--------|--------|--------|--------|--------|
F#|--------|--------|--------|--------|--------|--------|--------|--------|--------|
C#|--------|--------|--------|--------|--------|--------|--------|--------|--------|
G#|--------|--------|--------|--------|--------|--------|--------|--------|--------|
D#|--------|--------|--------|--------|--------|--------|--------|--------|--------|


D#|--------|--------|--------|--------|--------|--------|--------|------------------------------------|
A#|--------|--------|--------|--------|--------|--------|--------|------------------------------------|
F#|--------|--------|--------|--------|--------|--------|--------|-----------12--------12-------------|
C#|--------|--------|--------|--------|--------|--------|--------|-----------12--------12--14---------|
G#|--------|--------|--------|--------|--------|--------|--------|-----14-14--------14-----14---12-12-|
D#|--------|--------|--------|--------|--------|--------|--------|------------------------------------|


D#|-----------------------------|------------------------------------|-----------------------------|
A#|-----------------------------|------------------------------------|-----------------------------|
F#|-12--------12----------------|-----------12--------12-------------|-12--------12----------------|
C#|-12--------12--14--14--------|-----------12--------12--14---------|-12--------12--14--14--------|
G#|--------14-----14--14--------|-----14-14--------14-----14---12-12-|--------14-----14--14--------|
D#|-----------------------------|------------------------------------|-----------------------------|


D#|------------------------------------|-----------------------------|------------------------------------|
A#|------------------------------------|-----------------------------|------------------------------------|
F#|-----------12--------12-------------|-12--------12----------------|-----------12--------12-------------|
C#|-----------12--------12--14---------|-12--------12--14--14--------|-----------12--------12--14---------|
G#|-----14-14--------14-----14---12-12-|--------14-----14--14--------|-----14-14--------14-----14---12-12-|
D#|------------------------------------|-----------------------------|------------------------------------|


D#|-----------------------------|------------------------------|-----------------------|
A#|-----------------------------|------------------------------|-----------------------|
F#|-12--------12----------------|-----9---9-------9--------7---|-7-------7-------------|
C#|-12--------12--14--14--------|-----9---9-------9--------7---|-7-------7-------------|
G#|--------14-----14--14--------|------------------------------|-----------------------|
D#|-----------------------------|------------------------------|-----------------------|


D#|------------------------------|---------------------------|------------------------------|
A#|------------------------------|---------------------------|------------------------------|
F#|-----9---9-------9--------7---|-7-------7-----------------|-----5---5-------5--------7---|
C#|-----9---9-------9--------7---|-7-------7-----------------|-----5---5-------5--------7---|
G#|------------------------------|---------------------------|------------------------------|
D#|------------------------------|---------------------------|------------------------------|


D#|-----------------------|------------------------------|-----------------------|
A#|-----------------------|------------------------------|-----------------------|
F#|-7-------7-------------|-----9---9-------9--------7---|-7-------7-------------|
C#|-7-------7-------------|-----9---9-------9--------7---|-7-------7-------------|
G#|-----------------------|------------------------------|-----------------------|
D#|-----------------------|------------------------------|-----------------------|


D#|------------------------------|-----------------------|------------------------------|
A#|------------------------------|-----------------------|------------------------------|
F#|-----9---9-------9--------7---|-7-------7-------------|-----9---9-------9--------7---|
C#|-----9---9-------9--------7---|-7-------7-------------|-----9---9-------9--------7---|
G#|------------------------------|-----------------------|------------------------------|
D#|------------------------------|-----------------------|------------------------------|


D#|---------------------------|------------------------------|-----------------------|
A#|---------------------------|------------------------------|-----------------------|
F#|-7-------7-----------------|-----5---5-------5--------7---|-7-------7-------------|
C#|-7-------7-----------------|-----5---5-------5--------7---|-7-------7-------------|
G#|---------------------------|------------------------------|-----------------------|
D#|---------------------------|------------------------------|-----------------------|


D#|------------------------------|---------------------------|--------|--------|--------|
A#|------------------------------|---------------------------|--------|--------|--------|
F#|-----9---9-------9--------7---|-7-------7-----------------|--------|--------|--------|
C#|-----9---9-------9--------7---|-7-------7-----------------|--------|--------|--------|
G#|------------------------------|---------------------------|--------|--------|--------|
D#|------------------------------|---------------------------|--------|--------|--------|


D#|--------|--------|--------|--------|--------|--------|--------|--------|--------|
A#|--------|--------|--------|--------|--------|--------|--------|--------|--------|
F#|--------|--------|--------|--------|--------|--------|--------|--------|--------|
C#|--------|--------|--------|--------|--------|--------|--------|--------|--------|
G#|--------|--------|--------|--------|--------|--------|--------|--------|--------|
D#|--------|--------|--------|--------|--------|--------|--------|--------|--------|


D#|--------|--------|--------|--------|--------|--------|--------|--------|--------|
A#|--------|--------|--------|--------|--------|--------|--------|--------|--------|
F#|--------|--------|--------|--------|--------|--------|--------|--------|--------|
C#|--------|--------|--------|--------|--------|--------|--------|--------|--------|
G#|--------|--------|--------|--------|--------|--------|--------|--------|--------|
D#|--------|--------|--------|--------|--------|--------|--------|--------|--------|


D#|--------|--------|--------|--------|--------|--------|--------|--------|--------|
A#|--------|--------|--------|--------|--------|--------|--------|--------|--------|
F#|--------|--------|--------|--------|--------|--------|--------|--------|--------|
C#|--------|--------|--------|--------|--------|--------|--------|--------|--------|
G#|--------|--------|--------|--------|--------|--------|--------|--------|--------|
D#|--------|--------|--------|--------|--------|--------|--------|--------|--------|


D#|--------|--------|
A#|--------|--------|
F#|--------|--------|
C#|--------|--------|
G#|--------|--------|
D#|--------|--------|





Track 3: Clean electric

D#|--------|--------|--------|--------|--------|--------|--------|--------|--------|
A#|--------|--------|--------|--------|--------|--------|--------|--------|--------|
F#|--------|--------|--------|--------|--------|--------|--------|--------|--------|
C#|--------|--------|--------|--------|--------|--------|--------|--------|--------|
G#|--------|--------|--------|--------|--------|--------|--------|--------|--------|
D#|--------|--------|--------|--------|--------|--------|--------|--------|--------|


D#|--------|--------|--------|--------|--------|--------|--------|--------|--------|
A#|--------|--------|--------|--------|--------|--------|--------|--------|--------|
F#|--------|--------|--------|--------|--------|--------|--------|--------|--------|
C#|--------|--------|--------|--------|--------|--------|--------|--------|--------|
G#|--------|--------|--------|--------|--------|--------|--------|--------|--------|
D#|--------|--------|--------|--------|--------|--------|--------|--------|--------|


D#|---------------------------------|---------------------------------|---------------------------------|
A#|---------------------------------|---------------------------------|---------------------------------|
F#|---------------------------------|---------------------------------|---------------------------------|
C#|-----2---0---2---0---2-------2---|-0---2---0---2---4---2---0---2---|-----2---0---2---0---2-------2---|
G#|---------------------------------|---------------------------------|---------------------------------|
D#|---------------------------------|---------------------------------|---------------------------------|


D#|---------------------------------|---------------------------------|---------------------------------|
A#|---------------------------------|---------------------------------|---------------------------------|
F#|---------------------------------|---------------------------------|---------------------------------|
C#|-0---2---0---2---4---2---0---2---|-----2---0---2---0---2-------2---|-0---2---0---2---4---2---0---2---|
G#|---------------------------------|---------------------------------|---------------------------------|
D#|---------------------------------|---------------------------------|---------------------------------|


D#|---------------------------------|---------------------------|--------|--------|
A#|---------------------------------|---------------------------|--------|--------|
F#|---------------------------------|---------------------------|--------|--------|
C#|-----2---0---2---0---2-------2---|-0---2---0---2-------------|--------|--------|
G#|---------------------------------|---------------------------|--------|--------|
D#|---------------------------------|---------------------------|--------|--------|


D#|--------|--------|---------------------------------|---------------------------------|
A#|--------|--------|-12------12------12------12------|-12------12------12------12------|
F#|--------|--------|---------------------------------|---------------------------------|
C#|--------|--------|-9-------9-------9-------9-------|-9-------9-------9-------9-------|
G#|--------|--------|---------------------------------|---------------------------------|
D#|--------|--------|---------------------------------|---------------------------------|


D#|---------------------------------|---------------------------------|--------|--------|
A#|-12------12------12------12------|-12------12------12------12------|--------|--------|
F#|---------------------------------|---------------------------------|--------|--------|
C#|-9-------9-------9-------9-------|-9-------9-------9-------9-------|--------|--------|
G#|---------------------------------|---------------------------------|--------|--------|
D#|---------------------------------|---------------------------------|--------|--------|


D#|--------|--------|--------|--------|--------|--------|--------|--------|--------|
A#|--------|--------|--------|--------|--------|--------|--------|--------|--------|
F#|--------|--------|--------|--------|--------|--------|--------|--------|--------|
C#|--------|--------|--------|--------|--------|--------|--------|--------|--------|
G#|--------|--------|--------|--------|--------|--------|--------|--------|--------|
D#|--------|--------|--------|--------|--------|--------|--------|--------|--------|


D#|--------|---------------------------------|---------------------------------|---------------------------------|
A#|--------|---------------------------------|---------------------------------|---------------------------------|
F#|--------|---------------------------------|---------------------------------|---------------------------------|
C#|--------|-----2---0---2---0---2-------2---|-0---2---0---2---4---2---0---2---|-----2---0---2---0---2-------2---|
G#|--------|---------------------------------|---------------------------------|---------------------------------|
D#|--------|---------------------------------|---------------------------------|---------------------------------|


D#|---------------------------------|---------------------------------|---------------------------------|
A#|---------------------------------|---------------------------------|---------------------------------|
F#|---------------------------------|---------------------------------|---------------------------------|
C#|-0---2---0---2---4---2---0---2---|-----2---0---2---0---2-------2---|-0---2---0---2---4---2---0---2---|
G#|---------------------------------|---------------------------------|---------------------------------|
D#|---------------------------------|---------------------------------|---------------------------------|


D#|---------------------------------|---------------------------|--------|--------|
A#|---------------------------------|---------------------------|--------|--------|
F#|---------------------------------|---------------------------|--------|--------|
C#|-----2---0---2---0---2-------2---|-0---2---0---2-------------|--------|--------|
G#|---------------------------------|---------------------------|--------|--------|
D#|---------------------------------|---------------------------|--------|--------|


D#|--------|--------|---------------------------------|---------------------------------|
A#|--------|--------|-12------12------12------12------|-12------12------12------12------|
F#|--------|--------|---------------------------------|---------------------------------|
C#|--------|--------|-9-------9-------9-------9-------|-9-------9-------9-------9-------|
G#|--------|--------|---------------------------------|---------------------------------|
D#|--------|--------|---------------------------------|---------------------------------|


D#|---------------------------------|---------------------------------|--------|--------|
A#|-12------12------12------12------|-12------12------12------12------|--------|--------|
F#|---------------------------------|---------------------------------|--------|--------|
C#|-9-------9-------9-------9-------|-9-------9-------9-------9-------|--------|--------|
G#|---------------------------------|---------------------------------|--------|--------|
D#|---------------------------------|---------------------------------|--------|--------|


D#|--------|--------|--------|--------|--------|--------|--------|--------|--------|
A#|--------|--------|--------|--------|--------|--------|--------|--------|--------|
F#|--------|--------|--------|--------|--------|--------|--------|--------|--------|
C#|--------|--------|--------|--------|--------|--------|--------|--------|--------|
G#|--------|--------|--------|--------|--------|--------|--------|--------|--------|
D#|--------|--------|--------|--------|--------|--------|--------|--------|--------|


D#|--------|--------|--------|--------|--------|--------|--------|--------|--------|
A#|--------|--------|--------|--------|--------|--------|--------|--------|--------|
F#|--------|--------|--------|--------|--------|--------|--------|--------|--------|
C#|--------|--------|--------|--------|--------|--------|--------|--------|--------|
G#|--------|--------|--------|--------|--------|--------|--------|--------|--------|
D#|--------|--------|--------|--------|--------|--------|--------|--------|--------|


D#|--------|--------|--------|--------|--------|--------|--------|--------|--------|
A#|--------|--------|--------|--------|--------|--------|--------|--------|--------|
F#|--------|--------|--------|--------|--------|--------|--------|--------|--------|
C#|--------|--------|--------|--------|--------|--------|--------|--------|--------|
G#|--------|--------|--------|--------|--------|--------|--------|--------|--------|
D#|--------|--------|--------|--------|--------|--------|--------|--------|--------|


D#|--------|--------|--------|--------|--------|--------|--------|---------------------------------|
A#|--------|--------|--------|--------|--------|--------|--------|-12------12------12------12------|
F#|--------|--------|--------|--------|--------|--------|--------|---------------------------------|
C#|--------|--------|--------|--------|--------|--------|--------|-9-------9-------9-------9-------|
G#|--------|--------|--------|--------|--------|--------|--------|---------------------------------|
D#|--------|--------|--------|--------|--------|--------|--------|---------------------------------|


D#|---------------------------------|---------------------------------|---------------------------------|
A#|-12------12------12------12------|-12------12------12------12------|-12------12------12------12------|
F#|---------------------------------|---------------------------------|---------------------------------|
C#|-9-------9-------9-------9-------|-9-------9-------9-------9-------|-9-------9-------9-------9-------|
G#|---------------------------------|---------------------------------|---------------------------------|
D#|---------------------------------|---------------------------------|---------------------------------|


D#|--------|--------|--------|--------|---------------------------------|---------------------------------|
A#|--------|--------|--------|--------|-12------12------12------12------|-12------12------12------12------|
F#|--------|--------|--------|--------|---------------------------------|---------------------------------|
C#|--------|--------|--------|--------|-9-------9-------9-------9-------|-9-------9-------9-------9-------|
G#|--------|--------|--------|--------|---------------------------------|---------------------------------|
D#|--------|--------|--------|--------|---------------------------------|---------------------------------|


D#|---------------------------------|---------------------------------|--------|--------|
A#|-12------12------12------12------|-12------12------12------12------|--------|--------|
F#|---------------------------------|---------------------------------|--------|--------|
C#|-9-------9-------9-------9-------|-9-------9-------9-------9-------|--------|--------|
G#|---------------------------------|---------------------------------|--------|--------|
D#|---------------------------------|---------------------------------|--------|--------|


D#|--------|--------|---------------------------------|---------------------------------|
A#|--------|--------|-12------12------12------12------|-12------12------12------12------|
F#|--------|--------|---------------------------------|---------------------------------|
C#|--------|--------|-9-------9-------9-------9-------|-9-------9-------9-------9-------|
G#|--------|--------|---------------------------------|---------------------------------|
D#|--------|--------|---------------------------------|---------------------------------|


D#|---------------------------------|---------------------------------|--------|--------|
A#|-12------12------12------12------|-12------12------12------12------|--------|--------|
F#|---------------------------------|---------------------------------|--------|--------|
C#|-9-------9-------9-------9-------|-9-------9-------9-------9-------|--------|--------|
G#|---------------------------------|---------------------------------|--------|--------|
D#|---------------------------------|---------------------------------|--------|--------|


D#|--------|--------|---------------------------------|---------------------------------|
A#|--------|--------|-12------12------12------12------|-12------12------12------12------|
F#|--------|--------|---------------------------------|---------------------------------|
C#|--------|--------|-9-------9-------9-------9-------|-9-------9-------9-------9-------|
G#|--------|--------|---------------------------------|---------------------------------|
D#|--------|--------|---------------------------------|---------------------------------|


D#|---------------------------------|---------------------------------|
A#|-12------12------12------12------|-12------12------12------12------|
F#|---------------------------------|---------------------------------|
C#|-9-------9-------9-------9-------|-9-------9-------9-------9-------|
G#|---------------------------------|---------------------------------|
D#|---------------------------------|---------------------------------|





Track 4: Eddie Van Halen - Lead w/dist

D#|--------|--------|--------|--------|--------|--------|--------|--------|--------|
A#|--------|--------|--------|--------|--------|--------|--------|--------|--------|
F#|--------|--------|--------|--------|--------|--------|--------|--------|--------|
C#|--------|--------|--------|--------|--------|--------|--------|--------|--------|
G#|--------|--------|--------|--------|--------|--------|--------|--------|--------|
D#|--------|--------|--------|--------|--------|--------|--------|--------|--------|


D#|--------|--------|--------|--------|--------|--------|--------|--------|--------|
A#|--------|--------|--------|--------|--------|--------|--------|--------|--------|
F#|--------|--------|--------|--------|--------|--------|--------|--------|--------|
C#|--------|--------|--------|--------|--------|--------|--------|--------|--------|
G#|--------|--------|--------|--------|--------|--------|--------|--------|--------|
D#|--------|--------|--------|--------|--------|--------|--------|--------|--------|


D#|--------|--------|--------|--------|--------|--------|--------|--------|--------|
A#|--------|--------|--------|--------|--------|--------|--------|--------|--------|
F#|--------|--------|--------|--------|--------|--------|--------|--------|--------|
C#|--------|--------|--------|--------|--------|--------|--------|--------|--------|
G#|--------|--------|--------|--------|--------|--------|--------|--------|--------|
D#|--------|--------|--------|--------|--------|--------|--------|--------|--------|


D#|--------|--------|--------|--------|--------|--------|--------|--------|--------|
A#|--------|--------|--------|--------|--------|--------|--------|--------|--------|
F#|--------|--------|--------|--------|--------|--------|--------|--------|--------|
C#|--------|--------|--------|--------|--------|--------|--------|--------|--------|
G#|--------|--------|--------|--------|--------|--------|--------|--------|--------|
D#|--------|--------|--------|--------|--------|--------|--------|--------|--------|


D#|--------|--------|--------|--------|--------|--------|--------|--------|--------|
A#|--------|--------|--------|--------|--------|--------|--------|--------|--------|
F#|--------|--------|--------|--------|--------|--------|--------|--------|--------|
C#|--------|--------|--------|--------|--------|--------|--------|--------|--------|
G#|--------|--------|--------|--------|--------|--------|--------|--------|--------|
D#|--------|--------|--------|--------|--------|--------|--------|--------|--------|


D#|--------|--------|--------|--------|--------|--------|--------|--------|--------|
A#|--------|--------|--------|--------|--------|--------|--------|--------|--------|
F#|--------|--------|--------|--------|--------|--------|--------|--------|--------|
C#|--------|--------|--------|--------|--------|--------|--------|--------|--------|
G#|--------|--------|--------|--------|--------|--------|--------|--------|--------|
D#|--------|--------|--------|--------|--------|--------|--------|--------|--------|


D#|--------|--------|--------|--------|--------|--------|--------|--------|--------|
A#|--------|--------|--------|--------|--------|--------|--------|--------|--------|
F#|--------|--------|--------|--------|--------|--------|--------|--------|--------|
C#|--------|--------|--------|--------|--------|--------|--------|--------|--------|
G#|--------|--------|--------|--------|--------|--------|--------|--------|--------|
D#|--------|--------|--------|--------|--------|--------|--------|--------|--------|


D#|--------|--------|--------|--------|--------|--------|--------|--------|--------|
A#|--------|--------|--------|--------|--------|--------|--------|--------|--------|
F#|--------|--------|--------|--------|--------|--------|--------|--------|--------|
C#|--------|--------|--------|--------|--------|--------|--------|--------|--------|
G#|--------|--------|--------|--------|--------|--------|--------|--------|--------|
D#|--------|--------|--------|--------|--------|--------|--------|--------|--------|


D#|--------|--------|--------|--------|--------|-------------------|------------------------|
A#|--------|--------|--------|--------|--------|-------------------|------------------------|
F#|--------|--------|--------|--------|--------|-------0-----0--2--|-2---2-----2---2---7----|
C#|--------|--------|--------|--------|--------|-------------------|------------------------|
G#|--------|--------|--------|--------|--------|-------------------|------------------------|
D#|--------|--------|--------|--------|--------|-------------------|------------------------|


D#|------------------------|------------15-10-14-15-14-12-10-14-15-14-12-10-14-15-|
A#|------------------------|------------------------------------------------------|
F#|-7---7-----7---9---9----|-9----14----------------------------------------------|
C#|------------------------|------------------------------------------------------|
G#|------------------------|------------------------------------------------------|
D#|------------------------|------------------------------------------------------|


D#|-14-12-10--------------------------------------------------|------------------12-19-15-12----12-------------12----|
A#|----------14-15-14-12-10-14-15-14-12-10-10-12--13--12---12-|-19------12-15-19-------------19-12-19-15-12-15----19-|
F#|-----------------------------------------------------------|------------------------------------------------------|
C#|-----------------------------------------------------------|------------------------------------------------------|
G#|-----------------------------------------------------------|------------------------------------------------------|
D#|-----------------------------------------------------------|------------------------------------------------------|


D#|----------12----------12----------------------------|------------1922--------------------------------|
A#|-15-12-15----19-15-12----12-----------15--15--15-12-|-151922-1512----1512----------------------------|
F#|----------------------------14--14-12---------------|----------------------14--14-14-12-0--0---0--0--|
C#|----------------------------------------------------|------------------------------------------------|
G#|----------------------------------------------------|------------------------------------------------|
D#|----------------------------------------------------|------------------------------------------------|


D#|------------------------------------|------------------------------------|----------------------------------|
A#|------------------------------------|-----3---3--3--0--3--3---3--0--3----|-3--0--3---3---3--0---------------|
F#|-0---0-----9---9--7--9---9--7--7----|-7----------------------------------|---------------------2----2----2--|
C#|------------------------------------|------------------------------------|----------------------------------|
G#|------------------------------------|------------------------------------|----------------------------------|
D#|------------------------------------|------------------------------------|----------------------------------|


D#|-----------12------12--15--15---12--|------------------------------------|-15-8--12----------15-8--12----------15-8--12----------15-8--12-------13-17-|
A#|---------------15--12-------------12|---------------------------15-8--13-|----------15-8--12----------15-8--12----------15-8--12----------15-12-------|
F#|-16-----13--------------------------|-14--14-12-14---14---14-------------|----------------------------------------------------------------------------|
C#|------------------------------------|------------------------------------|----------------------------------------------------------------------------|
G#|------------------------------------|------------------------------------|----------------------------------------------------------------------------|
D#|------------------------------------|------------------------------------|----------------------------------------------------------------------------|


D#|-10--17-10--17-10---8--------0---12---|-12---14---15----17--|-17---19---19--22----|
A#|-----------------------------0---15---|---------------------|---------------------|
F#|-----------------------9--14----------|---------------------|---------------------|
C#|--------------------------------------|---------------------|---------------------|
G#|--------------------------------------|---------------------|---------------------|
D#|--------------------------------------|---------------------|---------------------|


D#|-22---22---22----|-22-----------------|--------|--------|--------|--------|--------|
A#|-----------------|--------------------|--------|--------|--------|--------|--------|
F#|-----------------|---------19---19----|--------|--------|--------|--------|--------|
C#|-----------------|-----29-------------|--------|--------|--------|--------|--------|
G#|-----------------|--------------------|--------|--------|--------|--------|--------|
D#|-----------------|--------------------|--------|--------|--------|--------|--------|


D#|--------|--------|--------|--------|--------|--------|--------|--------|--------|
A#|--------|--------|--------|--------|--------|--------|--------|--------|--------|
F#|--------|--------|--------|--------|--------|--------|--------|--------|--------|
C#|--------|--------|--------|--------|--------|--------|--------|--------|--------|
G#|--------|--------|--------|--------|--------|--------|--------|--------|--------|
D#|--------|--------|--------|--------|--------|--------|--------|--------|--------|


D#|--------|--------|--------|--------|--------|--------|--------|--------|--------|
A#|--------|--------|--------|--------|--------|--------|--------|--------|--------|
F#|--------|--------|--------|--------|--------|--------|--------|--------|--------|
C#|--------|--------|--------|--------|--------|--------|--------|--------|--------|
G#|--------|--------|--------|--------|--------|--------|--------|--------|--------|
D#|--------|--------|--------|--------|--------|--------|--------|--------|--------|


D#|--------|--------|--------|--------|--------|--------|--------|
A#|--------|--------|--------|--------|--------|--------|--------|
F#|--------|--------|--------|--------|--------|--------|--------|
C#|--------|--------|--------|--------|--------|--------|--------|
G#|--------|--------|--------|--------|--------|--------|--------|
D#|--------|--------|--------|--------|--------|--------|--------|





Track 5: Untitled

G|--------|--------|--------|--------|--------|--------|--------|--------|--------|
D|--------|--------|--------|--------|--------|--------|--------|--------|--------|
A|--------|--------|--------|--------|--------|--------|--------|--------|--------|
E|--------|--------|--------|--------|--------|--------|--------|--------|--------|


G|--------|--------|--------|--------|--------|--------|--------|--------|--------|
D|--------|--------|--------|--------|--------|--------|--------|--------|--------|
A|--------|--------|--------|--------|--------|--------|--------|--------|--------|
E|--------|--------|--------|--------|--------|--------|--------|--------|--------|


G|--------|--------|--------|--------|--------|--------|--------|--------|--------|
D|--------|--------|--------|--------|--------|--------|--------|--------|--------|
A|--------|--------|--------|--------|--------|--------|--------|--------|--------|
E|--------|--------|--------|--------|--------|--------|--------|--------|--------|


G|--------|--------|--------|--------|--------|--------|--------|--------|--------|
D|--------|--------|--------|--------|--------|--------|--------|--------|--------|
A|--------|--------|--------|--------|--------|--------|--------|--------|--------|
E|--------|--------|--------|--------|--------|--------|--------|--------|--------|


G|--------|--------|--------|--------|--------|--------|--------|--------|--------|
D|--------|--------|--------|--------|--------|--------|--------|--------|--------|
A|--------|--------|--------|--------|--------|--------|--------|--------|--------|
E|--------|--------|--------|--------|--------|--------|--------|--------|--------|


G|--------|--------|--------|--------|--------|--------|--------|--------|--------|
D|--------|--------|--------|--------|--------|--------|--------|--------|--------|
A|--------|--------|--------|--------|--------|--------|--------|--------|--------|
E|--------|--------|--------|--------|--------|--------|--------|--------|--------|


G|--------|--------|--------|--------|--------|--------|--------|--------|--------|
D|--------|--------|--------|--------|--------|--------|--------|--------|--------|
A|--------|--------|--------|--------|--------|--------|--------|--------|--------|
E|--------|--------|--------|--------|--------|--------|--------|--------|--------|


G|--------|--------|--------|--------|--------|--------|--------|--------|--------|
D|--------|--------|--------|--------|--------|--------|--------|--------|--------|
A|--------|--------|--------|--------|--------|--------|--------|--------|--------|
E|--------|--------|--------|--------|--------|--------|--------|--------|--------|


G|--------|--------|--------|--------|--------|--------|--------|--------|--------|
D|--------|--------|--------|--------|--------|--------|--------|--------|--------|
A|--------|--------|--------|--------|--------|--------|--------|--------|--------|
E|--------|--------|--------|--------|--------|--------|--------|--------|--------|


G|--------|--------|--------|--------|--------|--------|--------|--------|--------|
D|--------|--------|--------|--------|--------|--------|--------|--------|--------|
A|--------|--------|--------|--------|--------|--------|--------|--------|--------|
E|--------|--------|--------|--------|--------|--------|--------|--------|--------|


G|--------|--------|--------|--------|--------|--------|--------|--------|--------|
D|--------|--------|--------|--------|--------|--------|--------|--------|--------|
A|--------|--------|--------|--------|--------|--------|--------|--------|--------|
E|--------|--------|--------|--------|--------|--------|--------|--------|--------|


G|--------|--------|--------|--------|--------|--------|--------|--------|--------|
D|--------|--------|--------|--------|--------|--------|--------|--------|--------|
A|--------|--------|--------|--------|--------|--------|--------|--------|--------|
E|--------|--------|--------|--------|--------|--------|--------|--------|--------|


G|--------|--------|--------|--------|--------|--------|--------|--------|--------|
D|--------|--------|--------|--------|--------|--------|--------|--------|--------|
A|--------|--------|--------|--------|--------|--------|--------|--------|--------|
E|--------|--------|--------|--------|--------|--------|--------|--------|--------|


G|--------|--------|--------|--------|--------|--------|--------|--------|--------|
D|--------|--------|--------|--------|--------|--------|--------|--------|--------|
A|--------|--------|--------|--------|--------|--------|--------|--------|--------|
E|--------|--------|--------|--------|--------|--------|--------|--------|--------|