Menu:

 

Search:

 

metallica - blues jam:

 



/---------------------------------------------------------------------------
/ The following is the author's own interpretation of the song, to be used -
/ for studying or private use only, removal of any part of this ten line   -
/ header is illegal!!!  Removal of the transcribers name or anything       -
/ relevant to the transcriber is also illegal, as so is the removal of the -
/ place inwhich the tab was downloaded. Publishing as well as printing of  -
/ the tab is illegal without permission of the transcriber and copyright   -
/ owner of the song. Failure to apply to these laws result will in legal   -
/ action from the appropriate parties.                                     -
/---------------------------------------------------------------------------

downloaded from Displacer's Tablature Site at
        http://www.dsrmusic.com/metaltab
join the death/black tab emailing list by filling out the free
subscription form at http://www.dsrmusic.com/metaltab/join.htm

Blues Jam

1)--------------------------------------------------------
2)--------------------------------------------------------
3)---------------------------------7--5-------------------
4)-----------------7------5--------7--5----7p5-----5------
5)---------0--0-----00-----00-------------------7---------
6)-(17)/--------------------------------------------------
 

 
1)-------------------------------------------------
2)-------------------------------------------------
3-----------------------------7--5-----------------
4)------------7------5--------7--5----7p5-----5----
5)--------------00-----00------------------7-------
6)-------------------------------------------------
COUPLE TIMES
 
 
1)--------------------------------------------------
2)--------------------------------------------------
3)-----------------------12--10---------------------
4)--------12--12--10-10--12--10---12P10------10-----
5)-0-0-----------------------------------12---------
6)--------------------------------------------------
 
1)-----------------------------------------
2)-----------------------------------------
3)-----------------------12---10-----------
4)--12--------10---------12---10-----------
5)-------00--------00----------------------
6)-----------------------------------------
 
ONCE
 
1)---------------------------------------------------------
2)---------------------------------------------------------
3-----------------------------7--5-------------------------
4)------------7------5--------7--5----7p5-------5----------
5)--------------00-----00-------------------7--------------
6)---------------------------------------------------------
COUPLE TIMES
 
 
 
1)-----------------------------------------------
2)-----------------------------------------------
3)-----------14--12------------------------------
4)-----------14--12----14--12H14P12H14-----------
5)--0--0-----------------------------------------
6)-----------------------------------------------
 
 
1)-----------------------------------------------
2)-----------------------------------------------
3)-------------12--10----------------------------
4)-------------12--10---12--10H12P10H12----------
5)---0--0----------------------------------------
6)-----------------------------------------------
 
 
1)------------------------------------------------------
2)---------------------------------------8--8--8--8-----
3)---------------------------------------7--7--7--7----- 
4)-----------------------------5---5-----6--6--6--6-----
5)----0---0---5---5---6---6--------------7--7--7--7-----
6)------------------------------------------------------
 
 
This tab by Kutgun M. Email at kutgun@hotmail.com
 
I'll finish the solo later. Music by Kirk Hammett

________________________________________________________

 Blues Jam
 written by: Newstead and Hammett
 as performed on Live Shit: Binge and Purge (Mexico City)
 tab by Phil Boyle; phil@encycmet.com

 During the solos section after Dazed and Confused

 Bass:
 1)
 G---------------------
 D---------------------  4 times
 A--//-----------------
 E--//5-5-10-10-8-8-5-5

 2)
 G-------------------
 D-------------------
 A--5-5-10-10-8-8-5-5  2 times; then riff 1
 E-------------------

 3)
 G---------------------------------
 D--------9-7------------7-5-------
 A--7-7-7-----9-7--5-5-5-----7-5---
 E---------------------------------

 4)
 G------------------------5
 D--------------------5-7--
 A----------5-5-6-6-7------
 E--5-5-8-8----------------

 Guitar:
 1)
 e------------------------------
 B------------------------------
 G------------7-5------------7-5
 D--7p5-------7-5--7p5-------7-5
 A------7--------------7--------
 E--------5-5------------5-5----

 2)
 e------------------------------
 B------------------------------
 G--7p5-------7-5--7p5-------7-5
 D------7--------------7--------
 A--------5-5------------5-5----
 E------------------------------

 3)
 e-------------------------------------
 B------10-8-10p8h10p8------8-6-8p6h8p6
 G-------9-7----------------7-5--------
 D-------------------------------------
 A--7-7-----------------5-5------------
 E-------------------------------------

 4)
 e-------------------------
 B-------------------------
 G------------------------5
 D--------------------5-7--
 A----------5-5-6-6-7------
 E--5-5-8-8----------------

 Then Kirk goes into soloing, which follows the basic blues pattern, start in
 A, then D, A, E, D, A.