Menu:

 

Search:

 

melman - pentatonic scale shapes:

 



Title: The Pentatonic Scale
Artist: 
Album: A basic walkthrough of the different pentatonic scale shapes. For those new to the music theory behind the guitar.
Author: Melman


Track 1: Untitled

E|---------------------------------|---------2---4---2---------------|------------------------------|
B|---------------------------------|-2---5---------------5---2-------|------------------------------|
G|-------------------------1---4---|-----------------------------4---|-1----------------------------|
D|-----------------2---4-----------|---------------------------------|-----4---2--------------------|
A|---------2---4-------------------|---------------------------------|-------------4---2------------|
E|-2---4---------------------------|---------------------------------|---------------------4---2----|


E|---------------------------------|---------3---5---3---------------|------------------------------|
B|---------------------------------|-3---5---------------5---3-------|------------------------------|
G|-------------------------2---5---|-----------------------------5---|-2----------------------------|
D|-----------------2---5-----------|---------------------------------|-----5---2--------------------|
A|---------3---5-------------------|---------------------------------|-------------5---3------------|
E|-3---5---------------------------|---------------------------------|---------------------5---3----|


E|---------------------------------|---------3---5---3---------------|------------------------------|
B|---------------------------------|-3---5---------------5---3-------|------------------------------|
G|-------------------------2---4---|-----------------------------4---|-2----------------------------|
D|-----------------2---5-----------|---------------------------------|-----5---2--------------------|
A|---------2---5-------------------|---------------------------------|-------------5---2------------|
E|-3---5---------------------------|---------------------------------|---------------------5---3----|


E|---------------------------------|---------2---5---2---------------|------------------------------|
B|---------------------------------|-3---5---------------5---3-------|------------------------------|
G|-------------------------2---4---|-----------------------------4---|-2----------------------------|
D|-----------------2---4-----------|---------------------------------|-----4---2--------------------|
A|---------2---5-------------------|---------------------------------|-------------5---2------------|
E|-2---5---------------------------|---------------------------------|---------------------5---2----|


E|---------------------------------|---------2---5---2---------------|------------------------------|
B|---------------------------------|-2---5---------------5---2-------|------------------------------|
G|-------------------------2---4---|-----------------------------4---|-2----------------------------|
D|-----------------2---4-----------|---------------------------------|-----4---2--------------------|
A|---------2---4-------------------|---------------------------------|-------------4---2------------|
E|-2---5---------------------------|---------------------------------|---------------------5---2----|


E|---------------------------------|---------1---3---1---------------|------------------------------|
B|---------------------------------|-1---3---------------3---1-------|------------------------------|
G|-------------------------0---2---|-----------------------------2---|-0----------------------------|
D|-----------------0---3-----------|---------------------------------|-----3---0--------------------|
A|---------0---3-------------------|---------------------------------|-------------3---0------------|
E|-1---3---------------------------|---------------------------------|---------------------3---1----|


E|---------------------------------|---------3---5---3---------------|------------------------------|
B|---------------------------------|-3---6---------------6---3-------|------------------------------|
G|-------------------------2---5---|-----------------------------5---|-2----------------------------|
D|-----------------3---5-----------|---------------------------------|-----5---3--------------------|
A|---------3---5-------------------|---------------------------------|-------------5---3------------|
E|-3---5---------------------------|---------------------------------|---------------------5---3----|


E|---------------------------------|---------5---8---5---------------|------------------------------|
B|---------------------------------|-6---8---------------8---6-------|------------------------------|
G|-------------------------5---7---|-----------------------------7---|-5----------------------------|
D|-----------------5---7-----------|---------------------------------|-----7---5--------------------|
A|---------5---8-------------------|---------------------------------|-------------8---5------------|
E|-5---8---------------------------|---------------------------------|---------------------8---5----|


E|---------------------------------|---------8---10--8---------------|------------------------------|
B|---------------------------------|-8---10--------------10--8-------|------------------------------|
G|-------------------------7---10--|-----------------------------10--|-7----------------------------|
D|-----------------7---10----------|---------------------------------|-----10--7--------------------|
A|---------8---10------------------|---------------------------------|-------------10--8------------|
E|-8---10--------------------------|---------------------------------|---------------------10--8----|


E|---------------------------------|---------10--13--10--------------|------------------------------|
B|---------------------------------|-10--13--------------13--10------|------------------------------|
G|-------------------------10--12--|-----------------------------12--|-10---------------------------|
D|-----------------10--12----------|---------------------------------|-----12--10-------------------|
A|---------10--12------------------|---------------------------------|-------------12--10-----------|
E|-10--13--------------------------|---------------------------------|---------------------13--10---|


E|---------------------------------|---------13--15--13--------------|------------------------------|
B|---------------------------------|-13--15--------------15--13------|------------------------------|
G|-------------------------12--14--|-----------------------------14--|-12---------------------------|
D|-----------------12--15----------|---------------------------------|-----15--12-------------------|
A|---------12--15------------------|---------------------------------|-------------15--12-----------|
E|-13--15--------------------------|---------------------------------|---------------------15--13---|


E|---------------------------------|---------15--17--15--------------|------------------------------|
B|---------------------------------|-15--18--------------18--15------|------------------------------|
G|-------------------------14--17--|-----------------------------17--|-14---------------------------|
D|-----------------15--17----------|---------------------------------|-----17--15-------------------|
A|---------15--17------------------|---------------------------------|-------------17--15-----------|
E|-15--17--------------------------|---------------------------------|---------------------17--15---|


E|---------------------------------|---------17--20--17--------------|------------------------------|
B|---------------------------------|-18--20--------------20--18------|------------------------------|
G|-------------------------17--19--|-----------------------------19--|-17---------------------------|
D|-----------------17--19----------|---------------------------------|-----19--17-------------------|
A|---------17--20------------------|---------------------------------|-------------20--17-----------|
E|-17--20--------------------------|---------------------------------|---------------------20--17---|


E|---------------------------------|---------20--22--20--------------|------------------------------|
B|---------------------------------|-20--22--------------22--20------|------------------------------|
G|-------------------------19--22--|-----------------------------22--|-19---------------------------|
D|-----------------19--22----------|---------------------------------|-----22--19-------------------|
A|---------20--22------------------|---------------------------------|-------------22--20-----------|
E|-20--22--------------------------|---------------------------------|---------------------22--20---|


E|---------------------------------|---------22--25--22--------------|------------------------------|
B|---------------------------------|-22--25--------------25--22------|------------------------------|
G|-------------------------22--24--|-----------------------------24--|-22---------------------------|
D|-----------------22--24----------|---------------------------------|-----24--22-------------------|
A|---------22--24------------------|---------------------------------|-------------24--22-----------|
E|-22--25--------------------------|---------------------------------|---------------------25--22---|





Track 2: Untitled

G|--------|--------|--------|--------|--------|--------|--------|--------|--------|
D|--------|--------|--------|--------|--------|--------|--------|--------|--------|
A|--------|--------|--------|--------|--------|--------|--------|--------|--------|
E|--------|--------|--------|--------|--------|--------|--------|--------|--------|


G|--------|--------|--------|--------|--------|--------|--------|--------|--------|
D|--------|--------|--------|--------|--------|--------|--------|--------|--------|
A|--------|--------|--------|--------|--------|--------|--------|--------|--------|
E|--------|--------|--------|--------|--------|--------|--------|--------|--------|


G|--------|--------|--------|--------|--------|--------|--------|--------|--------|
D|--------|--------|--------|--------|--------|--------|--------|--------|--------|
A|--------|--------|--------|--------|--------|--------|--------|--------|--------|
E|--------|--------|--------|--------|--------|--------|--------|--------|--------|


G|--------|--------|--------|--------|--------|--------|--------|--------|--------|
D|--------|--------|--------|--------|--------|--------|--------|--------|--------|
A|--------|--------|--------|--------|--------|--------|--------|--------|--------|
E|--------|--------|--------|--------|--------|--------|--------|--------|--------|


G|--------|--------|--------|--------|--------|--------|--------|--------|--------|
D|--------|--------|--------|--------|--------|--------|--------|--------|--------|
A|--------|--------|--------|--------|--------|--------|--------|--------|--------|
E|--------|--------|--------|--------|--------|--------|--------|--------|--------|