Menu:

 

Search:

 

megadeth - wanderlust:

 



Title: Wanderlust
Artist: 
Album: Risk
Author: Dave Mustaine, Marty Friedman


Track 1: Dave Mustaine

E|-----------------------------------|-------------------------------------|-----------------|
B|-----------------------------------|-------------------------------------|-----------------|
G|-2-------2----2--2--3------3----3--|-3--5------5----5--5--4------4----0--|-2-----3---3-----|
D|-----0-----------------0-----------|-------0-----------------0-----------|-0-----0---0-----|
A|-----------------------------------|-------------------------------------|-----------------|
E|-----------------------------------|-------------------------------------|-----------------|


E|-----------------|-----------------------------------|-------------------------------------|
B|-----------------|-----------------------------------|-------------------------------------|
G|-2-----3---3-----|-2-------2----2--2--3------3----3--|-3--5------5----5--5--4------4----0--|
D|-0-----0---0-----|-----0-----------------0-----------|-------0-----------------0-----------|
A|-----------------|-----------------------------------|-------------------------------------|
E|-----------------|-----------------------------------|-------------------------------------|


E|-----------------|-----------------|-----------------------------------|-------------------------------------|
B|-----------------|-----------------|-----------------------------------|-------------------------------------|
G|-2-----3---3-----|-2-----3---3-----|-2-------2----2--2--3------3----3--|-3--5------5----5--5--4------4----0--|
D|-0-----0---0-----|-0-----0---0-----|-----0-----------------0-----------|-------0-----------------0-----------|
A|-----------------|-----------------|-----------------------------------|-------------------------------------|
E|-----------------|-----------------|-----------------------------------|-------------------------------------|


E|-----------------|-----------------|-----------------------------------|-------------------------------------|
B|-----------------|-----------------|-----------------------------------|-------------------------------------|
G|-2-----3---3-----|-2-----3---3-----|-2-------2----2--2--3------3----3--|-3--5------5----5--5--4------4----0--|
D|-0-----0---0-----|-0-----0---0-----|-----0-----------------0-----------|-------0-----------------0-----------|
A|-----------------|-----------------|-----------------------------------|-------------------------------------|
E|-----------------|-----------------|-----------------------------------|-------------------------------------|


E|-----------------|-----------------|-----------------|--------|----------------------------|
B|-----------------|-----------------|-----------------|-3------|----------------------------|
G|-2-----3---3-----|-2-----3---3-----|-2-----3---3-----|-2------|----------------------------|
D|-0-----0---0-----|-0-----0---0-----|-0-----0---0-----|-0------|-5--------------------------|
A|-----------------|-----------------|-----------------|--------|-3----0--0--5---5-----0--0--|
E|-----------------|-----------------|-----------------|--------|------0--0--3---3-----0--0--|


E|----------------------------|----------------------------|----------------------------|
B|----------------------------|----------------------------|----------------------------|
G|----------------------------|----------------------------|----------------------------|
D|------------0---0-----0-----|----------------------------|------------0---0-----------|
A|-5----0--0--0---0-----0--2--|-3----0--0--5---5-----0--0--|-3----0--0--0---0-----0--0--|
E|-3----0--0---------------0--|-1----0--0--3---3-----0--0--|-1----0--0------------0--0--|


E|----------------------------|----------------------------|----------------------------|
B|----------------------------|----------------------------|----------------------------|
G|----------------------------|----------------------------|----------------------------|
D|-5--------------------------|------------0---0-----0-----|----------------------------|
A|-3----0--0--5---5-----0--0--|-5----0--0--0---0-----0--2--|-3----0--0--5---5-----0--0--|
E|------0--0--3---3-----0--0--|-3----0--0---------------0--|-1----0--0--3---3-----0--0--|


E|----------------------|--------|-------------|--------|-----------------|-----------------|
B|----------------------|--------|-------------|--------|-----------------|-----------------|
G|----------------------|--------|-------------|--------|-------2-----3---|-3-----2-----3---|
D|------------0---0-----|-0------|-0-----------|--------|-------0-----0---|-0-----0-----0---|
A|-3----0--0--0---0-----|-0------|-0-----------|--------|-----------------|-----------------|
E|-1----0--0------------|--------|-------------|--------|-----------------|-----------------|


E|-----------------------|-------------------------------------|-----------------------------|
B|-----------------------|-------------------------------------|-----------------------------|
G|-3-----2-------2----2--|-2--3------3----3--3--5------5----5--|-5--4------4----0--2-----3---|
D|-0---------0-----------|-------0-----------------0-----------|-------0-----------0-----0---|
A|-----------------------|-------------------------------------|-----------------------------|
E|-----------------------|-------------------------------------|-----------------------------|


E|-----------------|-----------------------|-------------------------------------|
B|-----------------|-----------------------|-------------------------------------|
G|-3-----2-----3---|-3-----2-------2----2--|-2--3------3----3--3--5------5----5--|
D|-0-----0-----0---|-0---------0-----------|-------0-----------------0-----------|
A|-----------------|-----------------------|-------------------------------------|
E|-----------------|-----------------------|-------------------------------------|


E|-----------------------------|-----------------|-----------------------|-------------------------------------|
B|-----------------------------|-----------------|-----------------------|-------------------------------------|
G|-5--4------4----0--2-----3---|-3-----2-----3---|-3-----2-------2----2--|-2--3------3----3--3--5------5----5--|
D|-------0-----------0-----0---|-0-----0-----0---|-0---------0-----------|-------0-----------------0-----------|
A|-----------------------------|-----------------|-----------------------|-------------------------------------|
E|-----------------------------|-----------------|-----------------------|-------------------------------------|


E|-----------------------------|-------------|----------------------|----------------------------|
B|-----------------------------|-------3-----|----------------------|----------------------------|
G|-5--4------4----0--2-----3---|-3-----2-----|----------------------|----------------------------|
D|-------0-----------0-----0---|-0-----0-----|-------5--------------|------------------------0---|
A|-----------------------------|-------------|-------3----0--0--5---|-5-----0--0--5----0--0--0---|
E|-----------------------------|-------------|------------0--0--3---|-3-----0--0--3----0--0------|


E|----------------------------|----------------------------|----------------------------|
B|----------------------------|----------------------------|----------------------------|
G|----------------------------|----------------------------|----------------------------|
D|-0-----0--------------------|------------------------0---|-0-----------5--------------|
A|-0-----0--2--3----0--0--5---|-5-----0--0--3----0--0--0---|-0-----0--0--3----0--0--5---|
E|----------0--1----0--0--3---|-3-----0--0--1----0--0------|-------0--0-------0--0--3---|


E|----------------------------|----------------------------|----------------------------|
B|----------------------------|----------------------------|----------------------------|
G|----------------------------|----------------------------|----------------------------|
D|------------------------0---|-0-----0--------------------|------------------------0---|
A|-5-----0--0--5----0--0--0---|-0-----0--2--3----0--0--5---|-5-----0--0--3----0--0--0---|
E|-3-----0--0--3----0--0------|----------0--1----0--0--3---|-3-----0--0--1----0--0------|


E|-----------------------|-----------------------|--------|--------|--------|--------|
B|-----------------------|-----------------------|--------|--------|--------|--------|
G|-----------------------|-----------------------|--------|--------|--------|--------|
D|-0-----0---0---0---0---|-0---0---0---0---------|--------|--------|--------|--------|
A|-0-----0---0---0---0---|-0---0---0---0---------|--------|--------|--------|--------|
E|-----------------------|-----------------------|--------|--------|--------|--------|


E|--------|--------|-------------|-------------|-------------|-------------|----------0--0--0--0--0--0--0--0--0--0--|
B|--------|--------|-------------|-------------|-------------|-------------|----------0--0--0--0--0--0--0--0--0--0--|
G|--------|--------|-------------|-------------|-------------|-------------|----------------------------------------|
D|--------|--------|-------------|-------------|-------------|-------------|----------------------------------------|
A|--------|--------|-------------|-------------|-------------|-------------|----------------------------------------|
E|--------|--------|-------------|-------------|-------------|-------------|----------------------------------------|


E|-0--0--0--0--0--0--0--0--0--0--0--0--0--0--0--0--|-0--0--0--0--0--0--0--0--0--0--0--0--0--0--0--0--|
B|-0--0--0--0--0--0--0--0--0--0--0--0--0--0--0--0--|-0--0--0--0--0--0--0--0--0--0--0--0--0--0--0--0--|
G|-------------------------------------------------|-------------------------------------------------|
D|-------------------------------------------------|-------------------------------------------------|
A|-------------------------------------------------|-------------------------------------------------|
E|-------------------------------------------------|-------------------------------------------------|


E|-0--0--0--0--0--0--0--0--12-11-10-9--8--7--6--5--|-4--3--2--1--------------------------------|
B|-0--0--0--0--0--0--0--0--12-11-10-9--8--7--6--5--|-4--3--2--1--------------------------------|
G|-------------------------------------------------|-------------7--7---7--7---7--7--7--7---7--|
D|-------------------------------------------------|-------------7--7---7--7---7--7--7--7---7--|
A|-------------------------------------------------|-------------5--5---5--5---5--5--5--5---5--|
E|-------------------------------------------------|-------------------------------------------|


E|-----------------------------------------|-----------------------------------------|
B|-----------10-10--10-10--10-10-10-10--10-|-10--10-10-------------------------------|
G|-7---7--7--10-10--10-10--10-10-10-10--10-|-10--10-10-12-12--12-12--12-12-12-12--12-|
D|-7---7--7--10-10--10-10--10-10-10-10--10-|-10--10-10-12-12--12-12--12-12-12-12--12-|
A|-5---5--5--8--8---8--8---8--8--8--8---8--|-8---8--8--10-10--10-10--10-10-10-10--10-|
E|-----------------------------------------|-----------------------------------------|


E|-----------------------------------------|-----------------------------------------|
B|-----------------------------------------|-----------------------------------------|
G|-12--12-12-7--7---7--7---7--7--7--7---7--|-7---7--7--7--7---7--7---7--7--7--7---7--|
D|-12--12-12-7--7---7--7---7--7--7--7---7--|-7---7--7--7--7---7--7---7--7--7--7---7--|
A|-10--10-10-5--5---5--5---5--5--5--5---5--|-5---5--5--5--5---5--5---5--5--5--5---5--|
E|-----------------------------------------|-----------------------------------------|


E|-----------------------------------------|-----------------------------------------|
B|-----------10-10--10-10--10-10-10-10--10-|-10--10-10-------------------------------|
G|-7---7--7--10-10--10-10--10-10-10-10--10-|-10--10-10-12-12--12-12--12-12-12-12--12-|
D|-7---7--7--10-10--10-10--10-10-10-10--10-|-10--10-10-12-12--12-12--12-12-12-12--12-|
A|-5---5--5--8--8---8--8---8--8--8--8---8--|-8---8--8--10-10--10-10--10-10-10-10--10-|
E|-----------------------------------------|-----------------------------------------|


E|-----------------------------------------|-----------------------------------------|
B|-----------------------------------------|-----------------------------------------|
G|-12--12-12-7--7---7--7---7--7--7--7---7--|-7---7--7--7--7---7--7---7--7--7--7---7--|
D|-12--12-12-7--7---7--7---7--7--7--7---7--|-7---7--7--7--7---7--7---7--7--7--7---7--|
A|-10--10-10-5--5---5--5---5--5--5--5---5--|-5---5--5--5--5---5--5---5--5--5--5---5--|
E|-----------------------------------------|-----------------------------------------|


E|-----------------------------------------|-----------------------------------------|
B|-----------10-10--10-10--10-10-10-10--10-|-10--10-10-------------------------------|
G|-7---7--7--10-10--10-10--10-10-10-10--10-|-10--10-10-12-12--12-12--12-12-12-12--12-|
D|-7---7--7--10-10--10-10--10-10-10-10--10-|-10--10-10-12-12--12-12--12-12-12-12--12-|
A|-5---5--5--8--8---8--8---8--8--8--8---8--|-8---8--8--10-10--10-10--10-10-10-10--10-|
E|-----------------------------------------|-----------------------------------------|


E|-----------------------------------------|-----------------------------------------|
B|-----------------------------------------|-----------------------------------------|
G|-12--12-12-7--7---7--7---7--7--7--7---7--|-7---7--7--7--7---7--7---7--7--7--7---7--|
D|-12--12-12-7--7---7--7---7--7--7--7---7--|-7---7--7--7--7---7--7---7--7--7--7---7--|
A|-10--10-10-5--5---5--5---5--5--5--5---5--|-5---5--5--5--5---5--5---5--5--5--5---5--|
E|-----------------------------------------|-----------------------------------------|


E|-----------------------------------------|-----------------------------------------|
B|-----------10-10--10-10--10-10-10-10--10-|-10--10-10-------------------------------|
G|-7---7--7--10-10--10-10--10-10-10-10--10-|-10--10-10-12-12--12-12--12-12-12-12--12-|
D|-7---7--7--10-10--10-10--10-10-10-10--10-|-10--10-10-12-12--12-12--12-12-12-12--12-|
A|-5---5--5--8--8---8--8---8--8--8--8---8--|-8---8--8--10-10--10-10--10-10-10-10--10-|
E|-----------------------------------------|-----------------------------------------|


E|-----------------------------------------|-----------------------------------------------|
B|-----------------------------------------|-----------------------------------------------|
G|-12--12-12-7--7---7--7---7--7--7--7---7--|-7---7--7--5-----5-----5--5-----5-----5--5--5--|
D|-12--12-12-7--7---7--7---7--7--7--7---7--|-7---7--7--5-----5-----5--5-----5-----5--5--5--|
A|-10--10-10-5--5---5--5---5--5--5--5---5--|-5---5--5--3-----3-----3--3-----3-----3--3--3--|
E|-----------------------------------------|-----------------------------------------------|


E|---------------------------------------------|---------------------------------------------|
B|---------------------------------------------|---------------------------------------------|
G|-5---5---7-----7-----7--7-----7-----7--7--7--|-7---6---5-----5-----5--5-----5-----5--5--5--|
D|-5---5---7-----7-----7--7-----7-----7--7--7--|-7---6---5-----5-----5--5-----5-----5--5--5--|
A|-3---3---5-----5-----5--5-----5-----5--5--5--|-5---4---3-----3-----3--3-----3-----3--3--3--|
E|---------------------------------------------|---------------------------------------------|


E|---------------------------------------------|---------------------------------------------|
B|---------------------------------------------|---------------------------------------------|
G|-5---6---7-----7-----7--7-----7-----7--7--7--|-7---7---7--7--7--7--7--7--7--7--7--7--7--7--|
D|-5---6---7-----7-----7--7-----7-----7--7--7--|-7---7---7--7--7--7--7--7--7--7--7--7--7--7--|
A|-3---4---5-----5-----5--5-----5-----5--5--5--|-5---5---5--5--5--5--5--5--5--5--5--5--5--5--|
E|---------------------------------------------|---------------------------------------------|


E|-------------------------------------------------|---------------------------------|
B|-------------------------------------------------|---------------------------------|
G|-7--7--7--7--7--7--7--7--7--7--7--7--7--7--7--7--|-7--7--7--7----------------------|
D|-7--7--7--7--7--7--7--7--7--7--7--7--7--7--7--7--|-7--7--7--7--5-------------------|
A|-5--5--5--5--5--5--5--5--5--5--5--5--5--5--5--5--|-5--5--5--5--3----0--0--5---5----|
E|-------------------------------------------------|------------------0--0--3---3----|


E|-------------------------------|-------------------------------|-------------------------------|
B|-------------------------------|-------------------------------|-------------------------------|
G|-------------------------------|-------------------------------|-------------------------------|
D|----------------------0---0----|-----0-------------------------|----------------------0---0----|
A|-----0--0--5----0--0--0---0----|-----0--2--3----0--0--5---5----|-----0--0--3----0--0--0---0----|
E|-----0--0--3----0--0-----------|--------0--1----0--0--3---3----|-----0--0--1----0--0-----------|


E|-------------------------------|-------------------------------|-------------------------------|
B|-------------------------------|-------------------------------|-------------------------------|
G|-------------------------------|-------------------------------|-------------------------------|
D|-----------5-------------------|----------------------0---0----|-----0-------------------------|
A|-----0--0--3----0--0--5---5----|-----0--0--5----0--0--0---0----|-----0--2--3----0--0--5---5----|
E|-----0--0-------0--0--3---3----|-----0--0--3----0--0-----------|--------0--1----0--0--3---3----|


E|-------------------------------|-------------------------------|-------------------------------|
B|-------------------------------|-------------------------------|-------------------------------|
G|-------------------------------|-------------------------------|-------------------------------|
D|----------------------0---0----|-------------------------------|----------------------0---0----|
A|-----0--0--3----0--0--0---0----|-----0--0--3----0--0--5---5----|-----0--0--3----0--0--0---0----|
E|-----0--0--1----0--0-----------|-----0--0--1----0--0--3---3----|-----0--0--1----0--0-----------|


E|-------------------------------|-----------------|------------------|-------------|
B|-----------10---0--------------|------------10---|-0----------------|-------------|
G|-----------10---0-----12--12---|------12----10---|-0----------------|-------------|
D|-----------10---0-----12--12---|------12----10---|-0-----0---0------|------0------|
A|-----0--0--8----0-----10--10---|------10----8----|-0-----0---0------|------0------|
E|-----0--0----------------------|-----------------|------------------|-------------|


E|-------------|--------|
B|-------------|--------|
G|-------------|--------|
D|------0------|--------|
A|------0------|--------|
E|-------------|--------|





Track 2: Marty Friedman

E|--------|--------|--------|--------|--------|--------|--------|--------|---------------------------------------|
B|--------|--------|--------|--------|--------|--------|--------|--------|-----3-------3-----------3-------3-----|
G|--------|--------|--------|--------|--------|--------|--------|--------|-2-------2------2--2--3------3------3--|
D|--------|--------|--------|--------|--------|--------|--------|--------|---------------------------------------|
A|--------|--------|--------|--------|--------|--------|--------|--------|---------------------------------------|
E|--------|--------|--------|--------|--------|--------|--------|--------|---------------------------------------|


E|-----------------------------------------|---------------------------------------------|
B|-------3-------3-----------3-------3-----|-----------3------------5--3-----5--3--------|
G|-3--5------5------5--5--4------4------0--|-0--2---2------2--2--3--------3--------3--0--|
D|-----------------------------------------|---------------------------------------------|
A|-----------------------------------------|---------------------------------------------|
E|-----------------------------------------|---------------------------------------------|


E|-------------------------------------------|---------------------------------------|
B|---------3------------5--3-----5--3-----3--|-----3-------3-----------3-------3-----|
G|-2----2------2--2--3--------3--------3-----|-2-------2------2--2--3------3------3--|
D|-------------------------------------------|---------------------------------------|
A|-------------------------------------------|---------------------------------------|
E|-------------------------------------------|---------------------------------------|


E|-----------------------------------------|---------------------------------------------|
B|-------3-------3-----------3-------3-----|-----------3------------5--3-----5--3--------|
G|-3--5------5------5--5--4------4------0--|-0--2---2------2--2--3--------3--------3--0--|
D|-----------------------------------------|---------------------------------------------|
A|-----------------------------------------|---------------------------------------------|
E|-----------------------------------------|---------------------------------------------|


E|-------------------------------------------|-----------------------------------------|
B|---------3------------5--3-----5--3-----3--|---------3---------3--5--3-----5--3------|
G|-2----2------2--2--3--------3--------3-----|-2----2------2--3-----------3--------3---|
D|-------------------------------------------|-----------------------------------------|
A|-------------------------------------------|-----------------------------------------|
E|-------------------------------------------|-----------------------------------------|


E|--------|--------|--------|--------|--------|--------|--------|--------|--------|
B|--------|--------|--------|--------|--------|--------|--------|--------|--------|
G|--------|--------|--------|--------|--------|--------|--------|--------|--------|
D|--------|--------|--------|--------|--------|--------|--------|--------|--------|
A|--------|--------|--------|--------|--------|--------|--------|--------|--------|
E|--------|--------|--------|--------|--------|--------|--------|--------|--------|


E|--------|-----------------------|-------------------------------------|---------------------------------------|
B|--------|-----------3-----------|-------3-----------------3-----------|-------3---------------------3---------|
G|--------|-------2-------2----2--|-2--3------3----3--3--5------5----5--|-5--4------4----0--0--2---2------2--2--|
D|--------|-----------------------|-------------------------------------|---------------------------------------|
A|--------|-----------------------|-------------------------------------|---------------------------------------|
E|--------|-----------------------|-------------------------------------|---------------------------------------|


E|-------------------------------------------|-------------------------------------------|
B|----5--3-----5--3----------------3---------|----5--3-----5--3------------3-------3-----|
G|-3--------3--------3--0--2----2------2--2--|-3--------3--------3--0--2-------2------2--|
D|-------------------------------------------|-------------------------------------------|
A|-------------------------------------------|-------------------------------------------|
E|-------------------------------------------|-------------------------------------------|


E|-----------------------------------------|-----------------------------------------|
B|-------3-------3-----------3-------3-----|-------3-------3---------------3---------|
G|-2--3------3------3--3--5------5------5--|-5--4------4------0--0--2---2------2--2--|
D|-----------------------------------------|-----------------------------------------|
A|-----------------------------------------|-----------------------------------------|
E|-----------------------------------------|-----------------------------------------|


E|-------------------------------------------|-------------------------------------------|
B|----5--3-----5--3----------------3---------|----5--3-----5--3------------3-------3-----|
G|-3--------3--------3--0--2----2------2--2--|-3--------3--------3--0--2-------2------2--|
D|-------------------------------------------|-------------------------------------------|
A|-------------------------------------------|-------------------------------------------|
E|-------------------------------------------|-------------------------------------------|


E|-----------------------------------------|-----------------------------------------|
B|-------3-------3-----------3-------3-----|-------3-------3---------------3---------|
G|-2--3------3------3--3--5------5------5--|-5--4------4------0--0--2---2------2--2--|
D|-----------------------------------------|-----------------------------------------|
A|-----------------------------------------|-----------------------------------------|
E|-----------------------------------------|-----------------------------------------|


E|-------------------------------------------|-------------------------------------------|
B|----5--3-----5--3----------------3---------|----5--3-----5--3------------3-------3-----|
G|-3--------3--------3--0--2----2------2--2--|-3--------3--------3--0--2-------2------2--|
D|-------------------------------------------|-------------------------------------------|
A|-------------------------------------------|-------------------------------------------|
E|-------------------------------------------|-------------------------------------------|


E|-----------------------------------------|-----------------------------------------|
B|-------3-------3-----------3-------3-----|-------3-------3---------------3---------|
G|-2--3------3------3--3--5------5------5--|-5--4------4------0--0--2---2------2--2--|
D|-----------------------------------------|-----------------------------------------|
A|-----------------------------------------|-----------------------------------------|
E|-----------------------------------------|-----------------------------------------|


E|-------------------------------|--------|--------|--------|--------|--------|--------|
B|----5--3-----5--3--------------|--------|--------|--------|--------|--------|--------|
G|-3--------3--------3--0--------|--------|--------|--------|--------|--------|--------|
D|-------------------------------|--------|--------|--------|--------|--------|--------|
A|-------------------------------|--------|--------|--------|--------|--------|--------|
E|-------------------------------|--------|--------|--------|--------|--------|--------|


E|--------|--------|--------|--------|--------|--------|--------|--------|--------|
B|--------|--------|--------|--------|--------|--------|--------|--------|--------|
G|--------|--------|--------|--------|--------|--------|--------|--------|--------|
D|--------|--------|--------|--------|--------|--------|--------|--------|--------|
A|--------|--------|--------|--------|--------|--------|--------|--------|--------|
E|--------|--------|--------|--------|--------|--------|--------|--------|--------|


E|--------|--------|--------|--------|--------|--------|--------|--------|--------|
B|--------|--------|--------|--------|--------|--------|--------|--------|--------|
G|--------|--------|--------|--------|--------|--------|--------|--------|--------|
D|--------|--------|--------|--------|--------|--------|--------|--------|--------|
A|--------|--------|--------|--------|--------|--------|--------|--------|--------|
E|--------|--------|--------|--------|--------|--------|--------|--------|--------|


E|------------------------------------|-----------------------------------------|-----------------------------------------|
B|------------------------------------|-----------------------------------------|-----------------------------------------|
G|------------------------------------|-----------------------------------------|-----------------------------------------|
D|------5--7---5--7---5--7--5--7---5--|-7---5--7--5--7---5--7---5--7--5--7---5--|-7---5--7--5--7---5--7---5--7--5--7---5--|
A|------5------5--5---5--5--5------5--|-5---5--5--5------5--5---5--5--5------5--|-5---5--5--5------5--5---5--5--5------5--|
E|------------------------------------|-----------------------------------------|-----------------------------------------|


E|-----------------------------------------|-----------------------------------------|
B|-----------------------------------------|-----------------------------------------|
G|-----------------------------------------|-----------------------------------------|
D|-7---5--7--5--7---5--7---5--7--5--7---5--|-7---5--7--5--7---5--7---5--7--5--7---5--|
A|-5---5--5--5------5--5---5--5--5------5--|-5---5--5--5------5--5---5--5--5------5--|
E|-----------------------------------------|-----------------------------------------|


E|-----------------------------------------|-----------------------------------------|
B|-----------------------------------------|-----------------------------------------|
G|-----------------------------------------|-----------------------------------------|
D|-7---5--7--5--7---5--7---5--7--5--7---5--|-7---5--7--5--7---5--7---5--7--5--7---5--|
A|-5---5--5--5------5--5---5--5--5------5--|-5---5--5--5------5--5---5--5--5------5--|
E|-----------------------------------------|-----------------------------------------|


E|-----------------------------------------|-----------------------------------------|
B|-----------------------------------------|-----------------------------------------|
G|-----------------------------------------|-----------------------------------------|
D|-7---5--7--5--7---5--7---5--7--5--7---5--|-7---5--7--5--7---5--7---5--7--5--7---5--|
A|-5---5--5--5------5--5---5--5--5------5--|-5---5--5--5------5--5---5--5--5------5--|
E|-----------------------------------------|-----------------------------------------|


E|-----------------------------------------|-----------------------------------------|
B|-----------------------------------------|-----------------------------------------|
G|-----------------------------------------|-----------------------------------------|
D|-7---5--7--5--7---5--7---5--7--5--7---5--|-7---5--7--5--7---5--7---5--7--5--7---5--|
A|-5---5--5--5------5--5---5--5--5------5--|-5---5--5--5------5--5---5--5--5------5--|
E|-----------------------------------------|-----------------------------------------|


E|-----------------------------------------|-----------------------------------------|
B|-----------------------------------------|-----------------------------------------|
G|-----------------------------------------|-----------------------------------------|
D|-7---5--7--5--7---5--7---5--7--5--7---5--|-7---5--7--5--7---5--7---5--7--5--7---5--|
A|-5---5--5--5------5--5---5--5--5------5--|-5---5--5--5------5--5---5--5--5------5--|
E|-----------------------------------------|-----------------------------------------|


E|-----------------------------------------|-----------------------------------------|
B|-----------------------------------------|-----------------------------------------|
G|-----------------------------------------|-----------------------------------------|
D|-7---5--7--5--7---5--7---5--7--5--7---5--|-7---5--7--5--7---5--7---5--7--5--7---5--|
A|-5---5--5--5------5--5---5--5--5------5--|-5---5--5--5------5--5---5--5--5------5--|
E|-----------------------------------------|-----------------------------------------|


E|-----------------------------------------|-----------------------------------------|
B|-----------------------------------------|-----------------------------------------|
G|-----------------------------------------|-----------12--12--12-12--12-14-12----12-|
D|-7---5--7--5--7---5--7---5--7--5--7---5--|-7---5--7--10--10--10-10--10-10-10-14-10-|
A|-5---5--5--5------5--5---5--5--5------5--|-5---5--5--------------------------------|
E|-----------------------------------------|-----------------------------------------|


E|---------------------------------------|---------------------------------------|
B|---------------------------------------|---------------------------------------|
G|-12--13--14--14--14-14--14-16-14-12-14-|-14--13--12--12--12-12--12-14-12----12-|
D|-10--11--12--12--12-12--12-12-12-12-12-|-12--11--10--10--10-10--10-10-10-14-10-|
A|---------------------------------------|---------------------------------------|
E|---------------------------------------|---------------------------------------|


E|-------------------------------------|---------------------------------------------|
B|-------------------------------------|---------------------------------------------|
G|-12--12--14--14--14-14--14-16-14--14-|-14--14--14-14-14-14-14-14-14-14-14-14-14-14-|
D|-10--10--12--12--12-12--12-12-----12-|-12--12--12-12-12-12-12-12-12-12-12-12-12-12-|
A|-------------------------------------|---------------------------------------------|
E|-------------------------------------|---------------------------------------------|


E|-------------------------------------------------|--------------------|--------|
B|-------------------------------------------------|--------------------|--------|
G|-14-14-14-14-14-14-14-14-14-14-14-14-14-14-14-14-|-14-14-14-14--------|--------|
D|-12-12-12-12-12-12-12-12-12-12-12-12-12-12-12-12-|-12-12-12-12--------|--------|
A|-------------------------------------------------|--------------------|--------|
E|-------------------------------------------------|--------------------|--------|


E|--------|--------|--------|--------|--------|--------|--------|--------|--------|
B|--------|--------|--------|--------|--------|--------|--------|--------|--------|
G|--------|--------|--------|--------|--------|--------|--------|--------|--------|
D|--------|--------|--------|--------|--------|--------|--------|--------|--------|
A|--------|--------|--------|--------|--------|--------|--------|--------|--------|
E|--------|--------|--------|--------|--------|--------|--------|--------|--------|


E|--------|--------|--------|--------|--------|
B|--------|--------|--------|--------|--------|
G|--------|--------|--------|--------|--------|
D|--------|--------|--------|--------|--------|
A|--------|--------|--------|--------|--------|
E|--------|--------|--------|--------|--------|





Track 3: Marty Friedman [Leads]

E|--------|--------|--------|--------|--------|--------|--------|--------|--------|
B|--------|--------|--------|--------|--------|--------|--------|--------|--------|
G|--------|--------|--------|--------|--------|--------|--------|--------|--------|
D|--------|--------|--------|--------|--------|--------|--------|--------|--------|
A|--------|--------|--------|--------|--------|--------|--------|--------|--------|
E|--------|--------|--------|--------|--------|--------|--------|--------|--------|


E|--------|--------|-------------|--------|--------|--------|--------|--------|-------1-----|
B|--------|--------|-------------|--------|--------|--------|--------|--------|-------1-----|
G|--------|--------|-------------|--------|--------|--------|--------|--------|-------------|
D|--------|-12-----|-12---12-----|--------|--------|--------|--------|--------|-------------|
A|--------|--------|-------------|--------|--------|--------|--------|--------|-------------|
E|--------|--------|-------------|--------|--------|--------|--------|--------|-------------|


E|-8---------------|-----15--15--10--10----|--------|------------------------|-----------------|
B|-8---------------|-----------------------|--------|------------------------|-----------------|
G|-----------------|-----------------------|--------|------10--7---7-----7---|-17--------------|
D|-----------------|-----------------------|--------|------10--7---7-----7---|-17--------------|
A|-----------------|-----------------------|--------|------------------------|-----------------|
E|-----------------|-----------------------|--------|------------------------|-----------------|


E|--------|--------|--------------------|--------|-------------|-------------|-------17----17--|
B|--------|--------|--------------------|--------|-------------|-------------|-----------------|
G|--------|--------|------10--7---7-----|-7------|-7-----------|-------------|-----------------|
D|--------|--------|------10--7---7-----|-7------|-7-----------|-------------|-----------------|
A|--------|--------|--------------------|--------|-------------|-------------|-----------------|
E|--------|--------|--------------------|--------|-------------|-------------|-----------------|


E|-18----18--17---17---|------5----5-----|-------------|-------------|-------------|
B|---------------------|-----------------|-------------|-------------|-------------|
G|---------------------|-----------------|-------------|-------------|-------------|
D|---------------------|-----------------|-------------|-19----19----|-------19----|
A|---------------------|-----------------|-------------|-------------|-------------|
E|---------------------|-----------------|-------------|-------------|-------------|


E|---------------------|--------------------------------------|--------------------------------22----|
B|-20----20--20--20----|-20---20---20-20-20-20-20-20-20-20-20-|-20-20-20-20-20-20-20--20---20-----20-|
G|---------------------|--------------------------------------|--------------------------------------|
D|---------------------|--------------------------------------|--------------------------------------|
A|---------------------|--------------------------------------|--------------------------------------|
E|---------------------|--------------------------------------|--------------------------------------|


E|----20-------20-----20-20------20--20-20-----|-20----20-----20----20---------------|
B|-20----20-20----20---------20------------20--|----20----20-----20-----20---20--20--|
G|---------------------------------------------|-------------------------------------|
D|---------------------------------------------|-------------------------------------|
A|---------------------------------------------|-------------------------------------|
E|---------------------------------------------|-------------------------------------|


E|-----------------22--|-22--20---22--22----|-------------|-1-----8---------|-----------15--15--10--|
B|-20--18----18----18--|-18--18---18--------|-------------|-1-----8---------|-----------------------|
G|---------------------|--------------------|-------------|-----------------|-----------------------|
D|---------------------|--------------------|-------------|-----------------|-----------------------|
A|---------------------|--------------------|-------------|-----------------|-----------------------|
E|---------------------|--------------------|-------------|-----------------|-----------------------|


E|-10----------|--------------------|---------------------|-------------|-------------|
B|-------------|--------------------|---------------------|-------------|-------------|
G|-------------|------------10--7---|-7-----7---17--------|-------------|-------------|
D|-------------|------------10--7---|-7-----7---17--------|-------------|-------------|
A|-------------|--------------------|---------------------|-------------|-------------|
E|-------------|--------------------|---------------------|-------------|-------------|


E|--------------------|-------------|--------|--------|--------|-------------|------8----8-----|
B|--------------------|-------------|--------|--------|--------|-------------|-----------------|
G|------------10--7---|-7-----7-----|--------|--------|--------|-------------|-----------------|
D|------------10--7---|-7-----7-----|--------|--------|--------|-------------|-----------------|
A|--------------------|-------------|--------|--------|--------|-------------|-----------------|
E|--------------------|-------------|--------|--------|--------|-------------|-----------------|


E|-------8----8----|-3----5----5-----|--------|--------|--------|--------|--------|
B|-----------------|-----------------|--------|--------|--------|--------|--------|
G|-----------------|-----------------|--------|--------|--------|--------|--------|
D|-----------------|-----------------|--------|--------|--------|--------|--------|
A|-----------------|-----------------|--------|--------|--------|--------|--------|
E|-----------------|-----------------|--------|--------|--------|--------|--------|


E|--------|--------|--------|--------|--------|--------|--------|--------|--------|
B|--------|--------|--------|--------|--------|--------|--------|--------|--------|
G|--------|--------|--------|--------|--------|--------|--------|--------|--------|
D|--------|--------|--------|--------|--------|--------|--------|--------|--------|
A|--------|--------|--------|--------|--------|--------|--------|--------|--------|
E|--------|--------|--------|--------|--------|--------|--------|--------|--------|


E|--------|--------|--------|--------|--------|--------|--------|--------|--------|
B|--------|--------|--------|--------|--------|--------|--------|--------|--------|
G|--------|--------|--------|--------|--------|--------|--------|--------|--------|
D|--------|--------|--------|--------|--------|--------|--------|--------|--------|
A|--------|--------|--------|--------|--------|--------|--------|--------|--------|
E|--------|--------|--------|--------|--------|--------|--------|--------|--------|


E|--------|--------|--------|--------|--------|--------|--------|------8--------------|
B|--------|--------|--------|--------|--------|--------|--------|------8--------------|
G|--------|--------|--------|--------|--------|--------|--------|---------------------|
D|--------|--------|--------|--------|--------|--------|--------|---------------------|
A|--------|--------|--------|--------|--------|--------|--------|---------------------|
E|--------|--------|--------|--------|--------|--------|--------|---------------------|


E|----------15--15--10--10---|-------------|------------------------|------------------------|
B|---------------------------|-------------|------------------------|------------------------|
G|---------------------------|-------------|-----------10--7---7----|-----7---17-------------|
D|---------------------------|-------------|-----------10--7---7----|-----7---17-------------|
A|---------------------------|-------------|------------------------|------------------------|
E|---------------------------|-------------|------------------------|------------------------|


E|-------------|-------------|------------------------|-------------|------------------------|
B|-------------|-------------|------------------------|-------------|------------------------|
G|-------------|-------------|-----------10--7---7----|-------------|-----------10--7---7----|
D|-------------|-------------|-----------10--7---7----|-------------|-----------10--7---7----|
A|-------------|-------------|------------------------|-------------|------------------------|
E|-------------|-------------|------------------------|-------------|------------------------|


E|-------------|-----------------|-----10--10-----|------10-----|------10-----|-10----------|
B|-------------|-----------------|-----10--10-----|------10-----|------10-----|-10----------|
G|------7------|-----------------|----------------|-------------|-------------|-------------|
D|------7------|-----------------|----------------|-------------|-------------|-------------|
A|-------------|-----------------|----------------|-------------|-------------|-------------|
E|-------------|-----------------|----------------|-------------|-------------|-------------|





Track 4: Dave Mustaine

E|--------|--------|--------|--------|--------|--------|--------|--------|--------|
B|--------|--------|--------|--------|--------|--------|--------|--------|--------|
G|--------|--------|--------|--------|--------|--------|--------|--------|--------|
D|--------|--------|--------|--------|--------|--------|--------|--------|--------|
A|--------|--------|--------|--------|--------|--------|--------|--------|--------|
E|--------|--------|--------|--------|--------|--------|--------|--------|--------|


E|--------|--------|--------|--------|--------|--------|--------|--------|--------|
B|--------|--------|--------|--------|--------|--------|--------|--------|--------|
G|--------|--------|--------|--------|--------|--------|--------|--------|--------|
D|--------|--------|--------|--------|--------|--------|--------|--------|--------|
A|--------|--------|--------|--------|--------|--------|--------|--------|--------|
E|--------|--------|--------|--------|--------|--------|--------|--------|--------|


E|--------|--------|--------|--------|--------|--------|--------|--------|--------|
B|--------|--------|--------|--------|--------|--------|--------|--------|--------|
G|--------|--------|--------|--------|--------|--------|--------|--------|--------|
D|--------|--------|--------|--------|--------|--------|--------|--------|--------|
A|--------|--------|--------|--------|--------|--------|--------|--------|--------|
E|--------|--------|--------|--------|--------|--------|--------|--------|--------|


E|--------------------|--------|--------|--------|--------|--------|--------|--------|
B|----------9---------|--------|--------|--------|--------|--------|--------|--------|
G|--------------------|--------|--------|--------|--------|--------|--------|--------|
D|--------------------|--------|--------|--------|--------|--------|--------|--------|
A|--------------------|--------|--------|--------|--------|--------|--------|--------|
E|--------------------|--------|--------|--------|--------|--------|--------|--------|


E|--------|--------|--------|--------|--------|--------|--------|--------|--------|
B|--------|--------|--------|--------|--------|--------|--------|--------|--------|
G|--------|--------|--------|--------|--------|--------|--------|--------|--------|
D|--------|--------|--------|--------|--------|--------|--------|--------|--------|
A|--------|--------|--------|--------|--------|--------|--------|--------|--------|
E|--------|--------|--------|--------|--------|--------|--------|--------|--------|


E|--------|--------|--------|--------|--------|--------|--------|--------|--------|
B|--------|--------|--------|--------|--------|--------|--------|--------|--------|
G|--------|--------|--------|--------|--------|--------|--------|--------|--------|
D|--------|--------|--------|--------|--------|--------|--------|--------|--------|
A|--------|--------|--------|--------|--------|--------|--------|--------|--------|
E|--------|--------|--------|--------|--------|--------|--------|--------|--------|


E|--------|--------|--------|--------|--------|--------|--------|--------|--------|
B|--------|--------|--------|--------|--------|--------|--------|--------|--------|
G|--------|--------|--------|--------|--------|--------|--------|--------|--------|
D|--------|--------|--------|--------|--------|--------|--------|--------|--------|
A|--------|--------|--------|--------|--------|--------|--------|--------|--------|
E|--------|--------|--------|--------|--------|--------|--------|--------|--------|


E|--------|--------|--------|--------|--------|--------|--------|--------|--------|
B|--------|--------|--------|--------|--------|--------|--------|--------|--------|
G|--------|--------|--------|--------|--------|--------|--------|--------|--------|
D|--------|--------|--------|--------|--------|--------|--------|--------|--------|
A|--------|--------|--------|--------|--------|--------|--------|--------|--------|
E|--------|--------|--------|--------|--------|--------|--------|--------|--------|


E|--------|--------|--------|--------|--------|--------|--------|--------|--------|
B|--------|--------|--------|--------|--------|--------|--------|--------|--------|
G|--------|--------|--------|--------|--------|--------|--------|--------|--------|
D|--------|--------|--------|--------|--------|--------|--------|--------|--------|
A|--------|--------|--------|--------|--------|--------|--------|--------|--------|
E|--------|--------|--------|--------|--------|--------|--------|--------|--------|


E|--------|--------|--------|--------|--------|--------|--------|--------|--------|
B|--------|--------|--------|--------|--------|--------|--------|--------|--------|
G|--------|--------|--------|--------|--------|--------|--------|--------|--------|
D|--------|--------|--------|--------|--------|--------|--------|--------|--------|
A|--------|--------|--------|--------|--------|--------|--------|--------|--------|
E|--------|--------|--------|--------|--------|--------|--------|--------|--------|


E|--------|--------|--------|--------|--------|--------|--------|--------|--------|
B|--------|--------|--------|--------|--------|--------|--------|--------|--------|
G|--------|--------|--------|--------|--------|--------|--------|--------|--------|
D|--------|--------|--------|--------|--------|--------|--------|--------|--------|
A|--------|--------|--------|--------|--------|--------|--------|--------|--------|
E|--------|--------|--------|--------|--------|--------|--------|--------|--------|


E|--------|--------|--------|--------|--------|--------|--------|
B|--------|--------|--------|--------|--------|--------|--------|
G|--------|--------|--------|--------|--------|--------|--------|
D|--------|--------|--------|--------|--------|--------|--------|
A|--------|--------|--------|--------|--------|--------|--------|
E|--------|--------|--------|--------|--------|--------|--------|





Track 5: Dave Mustaine

E|--------|--------|--------|--------|--------|--------|--------|--------|--------|
B|--------|--------|--------|--------|--------|--------|--------|--------|--------|
G|--------|--------|--------|--------|--------|--------|--------|--------|--------|
D|--------|--------|--------|--------|--------|--------|--------|--------|--------|
A|--------|--------|--------|--------|--------|--------|--------|--------|--------|
E|--------|--------|--------|--------|--------|--------|--------|--------|--------|


E|--------|--------|--------|--------|--------|--------|--------|--------|--------|
B|--------|--------|--------|--------|--------|--------|--------|--------|--------|
G|--------|--------|--------|--------|--------|--------|--------|--------|--------|
D|--------|--------|--------|--------|--------|--------|--------|--------|--------|
A|--------|--------|--------|--------|--------|--------|--------|--------|--------|
E|--------|--------|--------|--------|--------|--------|--------|--------|--------|


E|--------|--------|--------|--------|--------|--------|--------|--------|--------|
B|--------|--------|--------|--------|--------|--------|--------|--------|--------|
G|--------|--------|--------|--------|--------|--------|--------|--------|--------|
D|--------|--------|--------|--------|--------|--------|--------|--------|--------|
A|--------|--------|--------|--------|--------|--------|--------|--------|--------|
E|--------|--------|--------|--------|--------|--------|--------|--------|--------|


E|-------------------------|-----------------------------------------|---------------------------|
B|-------------------------|-----------------------------------------|---------------------------|
G|-------2-------2------2--|-2--3------3------3--3--5------5------5--|-5--4------4------0--------|
D|-----------0-------0-----|-------0-------0-----------0-------0-----|-------0-------0-----------|
A|-------------------------|-----------------------------------------|---------------------------|
E|-------------------------|-----------------------------------------|---------------------------|


E|--------|--------|--------|--------|--------|--------|--------|--------|--------|
B|--------|--------|--------|--------|--------|--------|--------|--------|--------|
G|--------|--------|--------|--------|--------|--------|--------|--------|--------|
D|--------|--------|--------|--------|--------|--------|--------|--------|--------|
A|--------|--------|--------|--------|--------|--------|--------|--------|--------|
E|--------|--------|--------|--------|--------|--------|--------|--------|--------|


E|--------|--------|--------|--------|--------|--------|--------|--------|--------|
B|--------|--------|--------|--------|--------|--------|--------|--------|--------|
G|--------|--------|--------|--------|--------|--------|--------|--------|--------|
D|--------|--------|--------|--------|--------|--------|--------|--------|--------|
A|--------|--------|--------|--------|--------|--------|--------|--------|--------|
E|--------|--------|--------|--------|--------|--------|--------|--------|--------|


E|--------|--------|--------|--------|--------|--------|--------|--------|--------|
B|--------|--------|--------|--------|--------|--------|--------|--------|--------|
G|--------|--------|--------|--------|--------|--------|--------|--------|--------|
D|--------|--------|--------|--------|--------|--------|--------|--------|--------|
A|--------|--------|--------|--------|--------|--------|--------|--------|--------|
E|--------|--------|--------|--------|--------|--------|--------|--------|--------|


E|--------|--------|--------|--------|--------|--------|--------|--------|--------|
B|--------|--------|--------|--------|--------|--------|--------|--------|--------|
G|--------|--------|--------|--------|--------|--------|--------|--------|--------|
D|--------|--------|--------|--------|--------|--------|--------|--------|--------|
A|--------|--------|--------|--------|--------|--------|--------|--------|--------|
E|--------|--------|--------|--------|--------|--------|--------|--------|--------|


E|--------|--------|--------|--------|--------|--------|--------|--------|--------|
B|--------|--------|--------|--------|--------|--------|--------|--------|--------|
G|--------|--------|--------|--------|--------|--------|--------|--------|--------|
D|--------|--------|--------|--------|--------|--------|--------|--------|--------|
A|--------|--------|--------|--------|--------|--------|--------|--------|--------|
E|--------|--------|--------|--------|--------|--------|--------|--------|--------|


E|--------|--------|--------|--------|--------|--------|--------|--------|--------|
B|--------|--------|--------|--------|--------|--------|--------|--------|--------|
G|--------|--------|--------|--------|--------|--------|--------|--------|--------|
D|--------|--------|--------|--------|--------|--------|--------|--------|--------|
A|--------|--------|--------|--------|--------|--------|--------|--------|--------|
E|--------|--------|--------|--------|--------|--------|--------|--------|--------|


E|--------|--------|--------|--------|--------|--------|--------|--------|--------|
B|--------|--------|--------|--------|--------|--------|--------|--------|--------|
G|--------|--------|--------|--------|--------|--------|--------|--------|--------|
D|--------|--------|--------|--------|--------|--------|--------|--------|--------|
A|--------|--------|--------|--------|--------|--------|--------|--------|--------|
E|--------|--------|--------|--------|--------|--------|--------|--------|--------|


E|--------|--------|--------|--------|--------|--------|--------|--------|--------|
B|--------|--------|--------|--------|--------|--------|--------|--------|--------|
G|--------|--------|--------|--------|--------|--------|--------|--------|--------|
D|--------|--------|--------|--------|--------|--------|--------|--------|--------|
A|--------|--------|--------|--------|--------|--------|--------|--------|--------|
E|--------|--------|--------|--------|--------|--------|--------|--------|--------|


E|--------|--------|--------|
B|--------|--------|--------|
G|--------|--------|--------|
D|--------|--------|--------|
A|--------|--------|--------|
E|--------|--------|--------|





Track 6: Acoustic

E|--------|--------|--------|--------|--------|--------|--------|--------|--------|
B|--------|--------|--------|--------|--------|--------|--------|--------|--------|
G|--------|--------|--------|--------|--------|--------|--------|--------|--------|
D|--------|--------|--------|--------|--------|--------|--------|--------|--------|
A|--------|--------|--------|--------|--------|--------|--------|--------|--------|
E|--------|--------|--------|--------|--------|--------|--------|--------|--------|


E|--------|--------|--------|--------|--------|--------|--------|--------|--------|
B|--------|--------|--------|--------|--------|--------|--------|--------|--------|
G|--------|--------|--------|--------|--------|--------|--------|--------|--------|
D|--------|--------|--------|--------|--------|--------|--------|--------|--------|
A|--------|--------|--------|--------|--------|--------|--------|--------|--------|
E|--------|--------|--------|--------|--------|--------|--------|--------|--------|


E|--------|--------|--------|--------|--------|--------|--------|--------|--------|
B|--------|--------|--------|--------|--------|--------|--------|--------|--------|
G|--------|--------|--------|--------|--------|--------|--------|--------|--------|
D|--------|--------|--------|--------|--------|--------|--------|--------|--------|
A|--------|--------|--------|--------|--------|--------|--------|--------|--------|
E|--------|--------|--------|--------|--------|--------|--------|--------|--------|


E|--------|--------|--------|--------|--------|--------|--------|--------|--------|
B|--------|--------|--------|--------|--------|--------|--------|--------|--------|
G|--------|--------|--------|--------|--------|--------|--------|--------|--------|
D|--------|--------|--------|--------|--------|--------|--------|--------|--------|
A|--------|--------|--------|--------|--------|--------|--------|--------|--------|
E|--------|--------|--------|--------|--------|--------|--------|--------|--------|


E|--------|--------|--------|--------|--------|--------|--------|--------|--------|
B|--------|--------|--------|--------|--------|--------|--------|--------|--------|
G|--------|--------|--------|--------|--------|--------|--------|--------|--------|
D|--------|--------|--------|--------|--------|--------|--------|--------|--------|
A|--------|--------|--------|--------|--------|--------|--------|--------|--------|
E|--------|--------|--------|--------|--------|--------|--------|--------|--------|


E|--------|--------|--------|--------|--------|--------|--------|----------------0--0--------0--|
B|--------|--------|--------|--------|--------|--------|--------|-------------3--------3-----1--|
G|--------|--------|--------|--------|--------|--------|--------|----------2--------------2-----|
D|--------|--------|--------|--------|--------|--------|--------|-------0-----------------------|
A|--------|--------|--------|--------|--------|--------|--------|-------------------------------|
E|--------|--------|--------|--------|--------|--------|--------|-------------------------------|


E|-0----2--2-------------0--0--------0--|-0---3---2-------------0--0--------0--|-0----2--2-------------0--0--------0--|
B|-1----3--3----------3--------3-----1--|-1---3---3----------3--------3-----1--|-1----3--3----------3--------3-----1--|
G|-2----2--2-------2--------------2-----|-0---2---2-------2--------------2-----|-2----2--2-------2--------------2-----|
D|-0----0--0----0-----------------------|-0---0---0----0-----------------------|-0----0--0----0-----------------------|
A|--------------------------------------|--------------------------------------|--------------------------------------|
E|--------------------------------------|--------------------------------------|--------------------------------------|


E|-0---3---2----2-----|-------2-----|-------------|--------|--------|--------|--------|
B|-1---3---3----3-----|-------3-----|-------------|--------|--------|--------|--------|
G|-0---2---2----2-----|-------2-----|-------------|--------|--------|--------|--------|
D|-0---0---0----0-----|-------0-----|-------------|--------|--------|--------|--------|
A|--------------------|-------------|-------------|--------|--------|--------|--------|
E|--------------------|-------------|-------------|--------|--------|--------|--------|


E|--------|--------|--------|--------|--------|--------|--------|--------|--------|
B|--------|--------|--------|--------|--------|--------|--------|--------|--------|
G|--------|--------|--------|--------|--------|--------|--------|--------|--------|
D|--------|--------|--------|--------|--------|--------|--------|--------|--------|
A|--------|--------|--------|--------|--------|--------|--------|--------|--------|
E|--------|--------|--------|--------|--------|--------|--------|--------|--------|


E|--------|--------|--------|--------|--------|--------|--------|--------|--------|
B|--------|--------|--------|--------|--------|--------|--------|--------|--------|
G|--------|--------|--------|--------|--------|--------|--------|--------|--------|
D|--------|--------|--------|--------|--------|--------|--------|--------|--------|
A|--------|--------|--------|--------|--------|--------|--------|--------|--------|
E|--------|--------|--------|--------|--------|--------|--------|--------|--------|


E|--------|--------|--------|--------|--------|--------|--------|--------|--------|
B|--------|--------|--------|--------|--------|--------|--------|--------|--------|
G|--------|--------|--------|--------|--------|--------|--------|--------|--------|
D|--------|--------|--------|--------|--------|--------|--------|--------|--------|
A|--------|--------|--------|--------|--------|--------|--------|--------|--------|
E|--------|--------|--------|--------|--------|--------|--------|--------|--------|


E|--------|--------|--------|--------|--------|--------|--------|--------|--------|
B|--------|--------|--------|--------|--------|--------|--------|--------|--------|
G|--------|--------|--------|--------|--------|--------|--------|--------|--------|
D|--------|--------|--------|--------|--------|--------|--------|--------|--------|
A|--------|--------|--------|--------|--------|--------|--------|--------|--------|
E|--------|--------|--------|--------|--------|--------|--------|--------|--------|


E|--------|--------|--------|--------|--------|--------|
B|--------|--------|--------|--------|--------|--------|
G|--------|--------|--------|--------|--------|--------|
D|--------|--------|--------|--------|--------|--------|
A|--------|--------|--------|--------|--------|--------|
E|--------|--------|--------|--------|--------|--------|





Track 7: David Ellefson

G|--------|--------|--------|--------|--------|--------|--------|--------|--------|
D|--------|--------|--------|--------|--------|--------|--------|--------|--------|
A|--------|--------|--------|--------|--------|--------|--------|--------|--------|
E|--------|--------|--------|--------|--------|--------|--------|--------|--------|


G|--------|--------|--------|--------|--------|--------|--------|--------|--------|
D|--------|--------|--------|--------|--------|--------|--------|--------|--------|
A|--------|--------|--------|--------|--------|--------|--------|--------|--------|
E|--------|--------|--------|--------|--------|--------|--------|--------|--------|


G|--------|--------|--------|--------|--------|--------|--------|--------|--------|
D|--------|--------|--------|--------|--------|--------|--------|--------|--------|
A|--------|--------|--------|--------|--------|--------|--------|--------|--------|
E|--------|--------|--------|--------|--------|--------|--------|--------|--------|


G|--------|--------|--------|--------|--------|--------|--------|--------|--------|
D|--------|--------|--------|--------|--------|--------|--------|--------|--------|
A|--------|--------|--------|--------|--------|--------|--------|--------|--------|
E|--------|--------|--------|--------|--------|--------|--------|--------|--------|


G|--------|--------|--------|--------|--------|--------|--------|--------|--------|
D|--------|--------|--------|--------|--------|--------|--------|--------|--------|
A|--------|--------|--------|--------|--------|--------|--------|--------|--------|
E|--------|--------|--------|--------|--------|--------|--------|--------|--------|


G|--------|--------|--------|--------|--------|--------|--------|--------|--------|
D|--------|--------|--------|--------|--------|--------|--------|--------|--------|
A|--------|--------|--------|--------|--------|--------|--------|--------|--------|
E|--------|--------|--------|--------|--------|--------|--------|--------|--------|


G|--------|-------------|--------------0--1--2--------|-----------------0--1--2--------|
D|--------|-------------|------0---3------------0-----|------0--0---3------------0-----|
A|--------|-------------|-----------------------------|--------------------------------|
E|--------|-------------|-----------------------------|--------------------------------|


G|-----------------0--1--2--------|-----------------0--1--2--------|-----------------0--1--2----------0--|
D|------0--0---3------------0-----|------0--0---3------------0-----|------0--0---3------------0---3------|
A|--------------------------------|--------------------------------|-------------------------------------|
E|--------------------------------|--------------------------------|-------------------------------------|


G|----1--2-------------0--1--2----------0--|----1--2-------------0--1--2----------0--|
D|----------3--0---3------------0---3------|----------3--0---3------------0---3------|
A|-----------------------------------------|-----------------------------------------|
E|-----------------------------------------|-----------------------------------------|


G|----1--2-------------0--1--2----------0--|----1--2-------------0--1--2----------0--|
D|----------3--0---3------------0---3------|----------3--0---3------------0---3------|
A|-----------------------------------------|-----------------------------------------|
E|-----------------------------------------|-----------------------------------------|


G|----1--2-------------0--1--2----------0--|----1--2-------------0--1--2----------0--|
D|----------3--0---3------------0---3------|----------3--0---3------------0---3------|
A|-----------------------------------------|-----------------------------------------|
E|-----------------------------------------|-----------------------------------------|


G|----1--2------------|--------|--------|--------|--------|--------|--------|--------|
D|----------3---------|--------|--------|--------|--------|--------|--------|--------|
A|--------------------|--------|--------|--------|--------|--------|--------|--------|
E|--------------------|--------|--------|--------|--------|--------|--------|--------|


G|--------|--------|--------|--------|--------|--------|--------|--------|--------|
D|--------|--------|--------|--------|--------|--------|--------|--------|--------|
A|--------|--------|--------|--------|--------|--------|--------|--------|--------|
E|--------|--------|--------|--------|--------|--------|--------|--------|--------|


G|--------|--------|--------|--------|--------|--------|--------|--------|--------|
D|--------|--------|--------|--------|--------|--------|--------|--------|--------|
A|--------|--------|--------|--------|--------|--------|--------|--------|--------|
E|--------|--------|--------|--------|--------|--------|--------|--------|--------|


G|--------|--------|--------|--------|--------|--------|--------|--------|--------|
D|--------|--------|--------|--------|--------|--------|--------|--------|--------|
A|--------|--------|--------|--------|--------|--------|--------|--------|--------|
E|--------|--------|--------|--------|--------|--------|--------|--------|--------|


G|--------|--------|--------|
D|--------|--------|--------|
A|--------|--------|--------|
E|--------|--------|--------|





Track 8: Marty Friedman [Solo Guitar]

E|--------|--------|--------|--------|--------|--------|--------|--------|--------|
B|--------|--------|--------|--------|--------|--------|--------|--------|--------|
G|--------|--------|--------|--------|--------|--------|--------|--------|--------|
D|--------|--------|--------|--------|--------|--------|--------|--------|--------|
A|--------|--------|--------|--------|--------|--------|--------|--------|--------|
E|--------|--------|--------|--------|--------|--------|--------|--------|--------|


E|--------|--------|--------|--------|--------|--------|--------|--------|--------|
B|--------|--------|--------|--------|--------|--------|--------|--------|--------|
G|--------|--------|--------|--------|--------|--------|--------|--------|--------|
D|--------|--------|--------|--------|--------|--------|--------|--------|--------|
A|--------|--------|--------|--------|--------|--------|--------|--------|--------|
E|--------|--------|--------|--------|--------|--------|--------|--------|--------|


E|--------|--------|--------|--------|--------|--------|--------|--------|--------|
B|--------|--------|--------|--------|--------|--------|--------|--------|--------|
G|--------|--------|--------|--------|--------|--------|--------|--------|--------|
D|--------|--------|--------|--------|--------|--------|--------|--------|--------|
A|--------|--------|--------|--------|--------|--------|--------|--------|--------|
E|--------|--------|--------|--------|--------|--------|--------|--------|--------|


E|--------|--------|--------|--------|--------|--------|--------|--------|--------|
B|--------|--------|--------|--------|--------|--------|--------|--------|--------|
G|--------|--------|--------|--------|--------|--------|--------|--------|--------|
D|--------|--------|--------|--------|--------|--------|--------|--------|--------|
A|--------|--------|--------|--------|--------|--------|--------|--------|--------|
E|--------|--------|--------|--------|--------|--------|--------|--------|--------|


E|--------|--------|--------|--------|--------|--------|--------|--------|--------|
B|--------|--------|--------|--------|--------|--------|--------|--------|--------|
G|--------|--------|--------|--------|--------|--------|--------|--------|--------|
D|--------|--------|--------|--------|--------|--------|--------|--------|--------|
A|--------|--------|--------|--------|--------|--------|--------|--------|--------|
E|--------|--------|--------|--------|--------|--------|--------|--------|--------|


E|--------|--------|--------|--------|--------|--------|--------|--------|--------|
B|--------|--------|--------|--------|--------|--------|--------|--------|--------|
G|--------|--------|--------|--------|--------|--------|--------|--------|--------|
D|--------|--------|--------|--------|--------|--------|--------|--------|--------|
A|--------|--------|--------|--------|--------|--------|--------|--------|--------|
E|--------|--------|--------|--------|--------|--------|--------|--------|--------|


E|--------|--------|--------|--------|--------|--------|--------|--------|--------|
B|--------|--------|--------|--------|--------|--------|--------|--------|--------|
G|--------|--------|--------|--------|--------|--------|--------|--------|--------|
D|--------|--------|--------|--------|--------|--------|--------|--------|--------|
A|--------|--------|--------|--------|--------|--------|--------|--------|--------|
E|--------|--------|--------|--------|--------|--------|--------|--------|--------|


E|--------|--------|--------|--------|--------|--------|--------|--------|--------|
B|--------|--------|--------|--------|--------|--------|--------|--------|--------|
G|--------|--------|--------|--------|--------|--------|--------|--------|--------|
D|--------|--------|--------|--------|--------|--------|--------|--------|--------|
A|--------|--------|--------|--------|--------|--------|--------|--------|--------|
E|--------|--------|--------|--------|--------|--------|--------|--------|--------|


E|--------|-------------|--------------------|---------------------------------------------|
B|--------|-------------|--------------------|--------0--10-----10-10----10----10-10----10-|
G|--------|-------------|----------------21--|-10--7--0--10-----10-10----10----10-10----10-|
D|--------|-------------|--------------------|---------------12-------12----12-------12----|
A|--------|-------------|--------------------|---------------------------------------------|
E|--------|-------------|--------------------|---------------------------------------------|


E|-------------------------------------------------|-------------------10--------------10--------------10--------|
B|-10----10----10-10----10-10----10----10-10----10-|-10----10--------10--13101210----10--13101210----10--13101210|
G|-10----10----10-10----10-10----10----10-10----10-|-10----10----1212------------1212------------1212------------|
D|----12----12-------12-------12----12-------12----|----12----12-------------------------------------------------|
A|-------------------------------------------------|-------------------------------------------------------------|
E|-------------------------------------------------|-------------------------------------------------------------|


E|--------------------------13-----------------------|---------------17-17-17-17-17-17-17--17-17-|
B|---------------12------10----12-10-----------10-10-|---------20-20----20-20----------20-----20-|
G|-121210--12-10-----121210----------121210----10-10-|-------------------------------------------|
D|-------12---------------------------------12-------|-12---12-----------------------------------|
A|---------------------------------------------------|-------------------------------------------|
E|---------------------------------------------------|-------------------------------------------|


E|-17-17-17-17-----20--20--20--20------20----------|-------------------------------------------------------|
B|-20-20-20-20-20------20--20--20--18-----20-20-18-|---------18--1518-1815181818151818181518191815---------|
G|-------------------------------------------------|-19---19--------------------------------------17-14-17-|
D|-------------------------------------------------|-------------------------------------------------------|
A|-------------------------------------------------|-------------------------------------------------------|
E|-------------------------------------------------|-------------------------------------------------------|


E|----------------------------------------------------------|-------------|-------------------------------------|
B|----------------------------------------------------------|-------------|------12--12-1210---10---------------|
G|-14-17-14-------------------------------------------------|-------------|-----------------12----10--10--------|
D|----------181815--17-16---15------------------------------|-------------|-------------------------------12-10-|
A|----------------17------17--1715--15------19-19-19-1917---|-17----------|-------------------------------------|
E|--------------------------------17--17-17--------------19-|-------------|-------------------------------------|


E|-----------------|----------13-13-----------13-13-15-13--|------------14-----14-----14-------------|
B|-----------------|-------13---------15-15----------------|-15--15-------------------------13----13-|
G|-----------------|----14---------------------------------|---------14-----14-----14----------------|
D|-12---10----10---|-10------------------------------------|-----------------------------13----13----|
A|-----------------|---------------------------------------|-----------------------------------------|
E|-----------------|---------------------------------------|-----------------------------------------|


E|-------------------------------------------------|--------------------|--------|
B|-13----13-------15----15----16----16----17----18-|----19-22-22--------|--------|
G|-------------------------------------------------|-------0--0---------|--------|
D|----13----13-15----15----16----16----17----18----|-19----22-22--------|--------|
A|-------------------------------------------------|--------------------|--------|
E|-------------------------------------------------|--------------------|--------|


E|--------|--------|--------|--------|--------|--------|--------|--------|--------|
B|--------|--------|--------|--------|--------|--------|--------|--------|--------|
G|--------|--------|--------|--------|--------|--------|--------|--------|--------|
D|--------|--------|--------|--------|--------|--------|--------|--------|--------|
A|--------|--------|--------|--------|--------|--------|--------|--------|--------|
E|--------|--------|--------|--------|--------|--------|--------|--------|--------|


E|--------|--------|--------|--------|--------|
B|--------|--------|--------|--------|--------|
G|--------|--------|--------|--------|--------|
D|--------|--------|--------|--------|--------|
A|--------|--------|--------|--------|--------|
E|--------|--------|--------|--------|--------|





Track 9: Dave Mustaine

E|--------|--------|--------|--------|--------|--------|--------|--------|--------|
B|--------|--------|--------|--------|--------|--------|--------|--------|--------|
G|--------|--------|--------|--------|--------|--------|--------|--------|--------|
D|--------|--------|--------|--------|--------|--------|--------|--------|--------|
A|--------|--------|--------|--------|--------|--------|--------|--------|--------|
E|--------|--------|--------|--------|--------|--------|--------|--------|--------|


E|--------|--------|--------|--------|--------|--------|--------|--------|--------|
B|--------|--------|--------|--------|--------|--------|--------|--------|--------|
G|--------|--------|--------|--------|--------|--------|--------|--------|--------|
D|--------|--------|--------|--------|--------|--------|--------|--------|--------|
A|--------|--------|--------|--------|--------|--------|--------|--------|--------|
E|--------|--------|--------|--------|--------|--------|--------|--------|--------|


E|--------|--------|--------|--------|--------|--------|--------|--------|--------|
B|--------|--------|--------|--------|--------|--------|--------|--------|--------|
G|--------|--------|--------|--------|--------|--------|--------|--------|--------|
D|--------|--------|--------|--------|--------|--------|--------|--------|--------|
A|--------|--------|--------|--------|--------|--------|--------|--------|--------|
E|--------|--------|--------|--------|--------|--------|--------|--------|--------|


E|--------|--------|--------|--------|--------|--------|--------|--------|--------|
B|--------|--------|--------|--------|--------|--------|--------|--------|--------|
G|--------|--------|--------|--------|--------|--------|--------|--------|--------|
D|--------|--------|--------|--------|--------|--------|--------|--------|--------|
A|--------|--------|--------|--------|--------|--------|--------|--------|--------|
E|--------|--------|--------|--------|--------|--------|--------|--------|--------|


E|--------|--------|--------|--------|--------|--------|--------|--------|--------|
B|--------|--------|--------|--------|--------|--------|--------|--------|--------|
G|--------|--------|--------|--------|--------|--------|--------|--------|--------|
D|--------|--------|--------|--------|--------|--------|--------|--------|--------|
A|--------|--------|--------|--------|--------|--------|--------|--------|--------|
E|--------|--------|--------|--------|--------|--------|--------|--------|--------|


E|--------|--------|--------|--------|--------|--------|--------|--------|--------|
B|--------|--------|--------|--------|--------|--------|--------|--------|--------|
G|--------|--------|--------|--------|--------|--------|--------|--------|--------|
D|--------|--------|--------|--------|--------|--------|--------|--------|--------|
A|--------|--------|--------|--------|--------|--------|--------|--------|--------|
E|--------|--------|--------|--------|--------|--------|--------|--------|--------|


E|--------|--------|--------|--------|--------|--------|--------|--------|--------|
B|--------|--------|--------|--------|--------|--------|--------|--------|--------|
G|--------|--------|--------|--------|--------|--------|--------|--------|--------|
D|--------|--------|--------|--------|--------|--------|--------|--------|--------|
A|--------|--------|--------|--------|--------|--------|--------|--------|--------|
E|--------|--------|--------|--------|--------|--------|--------|--------|--------|


E|--------|--------|--------|--------|--------|--------|--------|--------|--------|
B|--------|--------|--------|--------|--------|--------|--------|--------|--------|
G|--------|--------|--------|--------|--------|--------|--------|--------|--------|
D|--------|--------|--------|--------|--------|--------|--------|--------|--------|
A|--------|--------|--------|--------|--------|--------|--------|--------|--------|
E|--------|--------|--------|--------|--------|--------|--------|--------|--------|


E|--------|--------|--------|--------|--------|--------|--------|--------|--------|
B|--------|--------|--------|--------|--------|--------|--------|--------|--------|
G|--------|--------|--------|--------|--------|--------|--------|--------|--------|
D|--------|--------|--------|--------|--------|--------|--------|--------|--------|
A|--------|--------|--------|--------|--------|--------|--------|--------|--------|
E|--------|--------|--------|--------|--------|--------|--------|--------|--------|


E|--------|--------|--------|--------|--------|--------|--------|--------|---------------------|
B|--------|--------|--------|--------|--------|--------|--------|--------|------22-------------|
G|--------|--------|--------|--------|--------|--------|--------|--------|---------------------|
D|--------|--------|--------|--------|--------|--------|--------|--------|------22-------------|
A|--------|--------|--------|--------|--------|--------|--------|--------|---------------------|
E|--------|--------|--------|--------|--------|--------|--------|--------|---------------------|


E|-----------------|-10---10---10---10---|-10--10--10----------------------------|
B|-----------------|-13---13---13---13---|-13--13--13---13-10-13-10--10-13-10----|
G|-----------------|---------------------|------------------------------------12-|
D|-----------------|---------------------|---------------------------------------|
A|-----------------|---------------------|---------------------------------------|
E|-----------------|---------------------|---------------------------------------|


E|----------------------------|--------10------8---10--13---|-15--17--20---------|
B|----------------------------|-----10----10---11--13--16---|-18--20--23---------|
G|-12-10-12-10----------------|-----------------------------|--------------------|
D|-------------12-------------|-----------------------------|--------------12----|
A|----------------------------|-----------------------------|--------------------|
E|----------------------------|-----------------------------|--------------------|


E|-------------|-10-------10-10-----|------10---10---13-13--10----|-10---------------13-15-15-13-15--15---|
B|-------------|----10-13-----------|--------------------------13-|----13---13-13-10----------------------|
G|-------------|--------------------|-----------------------------|---------------------------------------|
D|------12-----|--------------------|-----------------------------|---------------------------------------|
A|-------------|--------------------|-----------------------------|---------------------------------------|
E|-------------|--------------------|-----------------------------|---------------------------------------|


E|-15-13-------------------------------|-------10------------|-------------|-------------|
B|---------15-13---13-10---------------|----10----13--13-----|------13-----|------19-----|
G|-------------------------12-10-12-10-|-12------------------|-------------|-------------|
D|-------------------------------------|---------------------|-------------|-------------|
A|-------------------------------------|---------------------|-------------|-------------|
E|-------------------------------------|---------------------|-------------|-------------|


E|--------|
B|--------|
G|--------|
D|--------|
A|--------|
E|--------|





Track 10: Untitled

G|--------|--------|--------|--------|--------|--------|--------|--------|--------|
D|--------|--------|--------|--------|--------|--------|--------|--------|--------|
A|--------|--------|--------|--------|--------|--------|--------|--------|--------|
E|--------|--------|--------|--------|--------|--------|--------|--------|--------|


G|--------|--------|--------|--------|--------|--------|--------|--------|--------|
D|--------|--------|--------|--------|--------|--------|--------|--------|--------|
A|--------|--------|--------|--------|--------|--------|--------|--------|--------|
E|--------|--------|--------|--------|--------|--------|--------|--------|--------|


G|--------|--------|--------|--------|--------|--------|--------|--------|--------|
D|--------|--------|--------|--------|--------|--------|--------|--------|--------|
A|--------|--------|--------|--------|--------|--------|--------|--------|--------|
E|--------|--------|--------|--------|--------|--------|--------|--------|--------|


G|--------|--------|--------|--------|--------|--------|--------|--------|--------|
D|--------|--------|--------|--------|--------|--------|--------|--------|--------|
A|--------|--------|--------|--------|--------|--------|--------|--------|--------|
E|--------|--------|--------|--------|--------|--------|--------|--------|--------|


G|--------|--------|--------|--------|--------|--------|--------|--------|--------|
D|--------|--------|--------|--------|--------|--------|--------|--------|--------|
A|--------|--------|--------|--------|--------|--------|--------|--------|--------|
E|--------|--------|--------|--------|--------|--------|--------|--------|--------|


G|--------|--------|--------|--------|--------|--------|--------|--------|--------|
D|--------|--------|--------|--------|--------|--------|--------|--------|--------|
A|--------|--------|--------|--------|--------|--------|--------|--------|--------|
E|--------|--------|--------|--------|--------|--------|--------|--------|--------|


G|--------|--------|--------|--------|--------|--------|--------|--------|--------|
D|--------|--------|--------|--------|--------|--------|--------|--------|--------|
A|--------|--------|--------|--------|--------|--------|--------|--------|--------|
E|--------|--------|--------|--------|--------|--------|--------|--------|--------|


G|--------|--------|--------|--------|--------|--------|--------|--------|--------|
D|--------|--------|--------|--------|--------|--------|--------|--------|--------|
A|--------|--------|--------|--------|--------|--------|--------|--------|--------|
E|--------|--------|--------|--------|--------|--------|--------|--------|--------|


G|--------|--------|--------|--------|--------|--------|--------|--------|--------|
D|--------|--------|--------|--------|--------|--------|--------|--------|--------|
A|--------|--------|--------|--------|--------|--------|--------|--------|--------|
E|--------|--------|--------|--------|--------|--------|--------|--------|--------|


G|--------|--------|--------|--------|--------|--------|--------|--------|--------|
D|--------|--------|--------|--------|--------|--------|--------|--------|--------|
A|--------|--------|--------|--------|--------|--------|--------|--------|--------|
E|--------|--------|--------|--------|--------|--------|--------|--------|--------|


G|--------|--------|--------|--------|--------|--------|--------|--------|--------|
D|--------|--------|--------|--------|--------|--------|--------|--------|--------|
A|--------|--------|--------|--------|--------|--------|--------|--------|--------|
E|--------|--------|--------|--------|--------|--------|--------|--------|--------|


G|--------|--------|--------|--------|--------|--------|
D|--------|--------|--------|--------|--------|--------|
A|--------|--------|--------|--------|--------|--------|
E|--------|--------|--------|--------|--------|--------|