Menu:

 

Search:

 

megadeth - truth be told:

 



Title: Truth Be Told
Artist: 
Album: The System Has Failed
Author: Dave Mustaine


Track 1: Dave Mustaine Rhythm

E|-------------|-------------|-------------|-------------|-------------|-------------|
B|-------------|-------------|-------------|-------------|-------------|-------------|
G|-------------|-------------|-------------|-------------|-------------|-------------|
D|-2-----------|-------------|-------------|-9------7----|-------5-----|------5------|
A|-0-----------|-------------|------3------|-7------5----|-------3-----|------2------|
E|--------3----|-------2-----|------1------|-------------|-------------|-------------|


E|-------------|-------------|-----------------|-------------|-------------|-------------|
B|-------------|-------------|-----------------|-------------|-------------|-------------|
G|-------------|-------------|-----------------|-------------|-------------|-------------|
D|-2------5----|-------5-----|-----------------|-------------|-------------|-------------|
A|-0------2----|-------3-----|------5-----4----|-3------3----|-------3-----|------3------|
E|-------------|-------------|------3-----2----|-1------1----|-------1-----|------1------|


E|---------------------------------|---------------------------------|---------------------------------|
B|---------------------------------|---------------------------------|-----------------3---------------|
G|---------2-------4---5-----------|-2-------4---5-----------2-------|-4---5-------2-------2---5---2---|
D|-----2-------2---------------2---|-----2---------------2-------2---|---------0-----------------------|
A|-0-----------------------2-------|-----------------3---------------|---------------------------------|
E|---------------------------------|---------------------------------|---------------------------------|


E|-----------------------------------|---------------------------------|---------------------------------|
B|-----------------------------------|---------------------------------|---------------------------------|
G|-4-------2-------------------------|-2-------4---5-----------2-------|-4---5-----------2-------4---5---|
D|-----3-------2---3--2----------2---|-----2---------------2-------2---|-------------2-------2-----------|
A|-----------------------3---0-------|-----------------2---------------|---------3-----------------------|
E|-----------------------------------|---------------------------------|---------------------------------|


E|---------------------------------|-----------------------------------|---------------------------------|
B|---------3-----------------------|-----------------------------------|---------------------------------|
G|-----2-------2---5---2---4-------|-2-------------------------2-------|-4---5-----------2-------4---5---|
D|-0---------------------------3---|-----2---3--2----------2-------2---|-------------2-------2-----------|
A|---------------------------------|---------------3---0---------------|---------2-----------------------|
E|---------------------------------|-----------------------------------|---------------------------------|


E|---------------------------------|---------------------------------|-----------------------------------|
B|---------------------------------|-3-------------------------------|-----------------------------------|
G|---------2-------4---5-------2---|-----2---5---2---4-------2-------|-------------------2-------4---5---|
D|-----2-------2-----------0-------|---------------------3-------2---|-3--2----------2-------2-----------|
A|-3-------------------------------|---------------------------------|-------3---0-----------------------|
E|---------------------------------|---------------------------------|-----------------------------------|


E|---------------------------------|---------------------------------|-----------------------------------|
B|---------------------------------|-------------------------3-------|-----------------------------------|
G|---------2-------4---5-----------|-2-------4---5-------2-------2---|-5---2---4-------2-----------------|
D|-----2-------2---------------2---|-----2-----------0---------------|-------------3-------2---3--2------|
A|-2-----------------------3-------|---------------------------------|-------------------------------3---|
E|---------------------------------|---------------------------------|-----------------------------------|


E|---------------------------------|---------------------------------|---------------------------------|
B|---------------------------------|---------------------------------|---------------------------------|
G|---------------------------------|---------------------------------|---------------------------------|
D|-------------------------5---5---|-5---5---------------------------|---------------------------------|
A|-2---2---2---2---2---2---3---3---|-3---3---6---6---5---5---5---5---|-4---4---3---3---3---3---3---3---|
E|-0---0---0---0---0---0-----------|---------4---4---3---3---3---3---|-2---2---1---1---1---1---1---1---|


E|-----------------------------------------|---------------------------------------|
B|-----------------------------------------|---------------------------------------|
G|-----------------------------------------|---------------------------------------|
D|-----------------------------------------|---------------------------------------|
A|-3---2---2--2--------5---2---2--2--------|-7---2---2--2--------8---2------7--8---|
E|-1---0---0--0-----0--3---0---0--0-----0--|-5---0---0--0-----0--6---0---0--5--6---|


E|-----------------------------------------|---------------------------------------|
B|-----------------------------------------|---------------------------------------|
G|-----------------------------------------|---------------------------------------|
D|-----------------------------------------|---------------------------------------|
A|-3---2---2--2--------5---2---2--2--------|-7---2---2--2--------8---2------7--8---|
E|-1---0---0--0-----0--3---0---0--0-----0--|-5---0---0--0-----0--6---0---0--5--6---|


E|-----------------------------------------|---------------------------------------|
B|-----------------------------------------|---------------------------------------|
G|-----------------------------------------|---------------------------------------|
D|-----------------------------------------|---------------------------------------|
A|-3---2---2--2--------5---2---2--2--------|-7---2---2--2--------8---2------7--8---|
E|-1---0---0--0-----0--3---0---0--0-----0--|-5---0---0--0-----0--6---0---0--5--6---|


E|-----------------------------------------|---------------------------------------|
B|-----------------------------------------|---------------------------------------|
G|-----------------------------------------|---------------------------------------|
D|-----------------------------------------|---------------------------------------|
A|-3---2---2--2--------5---2---2--2--------|-7---2---2--2--------8---2------7--8---|
E|-1---0---0--0-----0--3---0---0--0-----0--|-5---0---0--0-----0--6---0---0--5--6---|


E|---------------------------------|---------------------------------|---------------------------------|
B|---------------------------------|---------------------------------|---------------------------------|
G|---------------------------------|---------------------------------|---------------------------------|
D|---------------------------------|---------------------------------|---------------------------------|
A|-3-------5-------7-------8---3---|-3-------5-------7-------8---3---|-3-------5-------7-------8-------|
E|-1---0---3---0---5---0---6---1---|-1---0---3---0---5---0---6---1---|-1---0---3---0---5---0---6---1---|


E|--------|---------------------------------|---------------------------------|---------------------------------|
B|--------|---------------------------------|---------------------------------|-----------------3---------------|
G|--------|---------2-------4---5-----------|-2-------4---5-----------2-------|-4---5-------2-------2---5---2---|
D|--------|-----2-------2---------------2---|-----2---------------2-------2---|---------0-----------------------|
A|-3------|-0-----------------------2-------|-----------------3---------------|---------------------------------|
E|-1------|---------------------------------|---------------------------------|---------------------------------|


E|-----------------------------------|---------------------------------|---------------------------------|
B|-----------------------------------|---------------------------------|---------------------------------|
G|-4-------2-------------------------|-2-------4---5-----------2-------|-4---5-----------2-------4---5---|
D|-----3-------2---3--2----------2---|-----2---------------2-------2---|-------------2-------2-----------|
A|-----------------------3---0-------|-----------------2---------------|---------3-----------------------|
E|-----------------------------------|---------------------------------|---------------------------------|


E|---------------------------------|-----------------------------------|---------------------------------|
B|---------3-----------------------|-----------------------------------|---------------------------------|
G|-----2-------2---5---2---4-------|-2-------------------------2-------|-4---5-----------2-------4---5---|
D|-0---------------------------3---|-----2---3--2----------2-------2---|-------------2-------2-----------|
A|---------------------------------|---------------3---0---------------|---------2-----------------------|
E|---------------------------------|-----------------------------------|---------------------------------|


E|---------------------------------|---------------------------------|-----------------------------------|
B|---------------------------------|-3-------------------------------|-----------------------------------|
G|---------2-------4---5-------2---|-----2---5---2---4-------2-------|-------------------2-------4---5---|
D|-----2-------2-----------0-------|---------------------3-------2---|-3--2----------2-------2-----------|
A|-3-------------------------------|---------------------------------|-------3---0-----------------------|
E|---------------------------------|---------------------------------|-----------------------------------|


E|---------------------------------|---------------------------------|-----------------------------------|
B|---------------------------------|-------------------------3-------|-----------------------------------|
G|---------2-------4---5-----------|-2-------4---5-------2-------2---|-5---2---4-------2-----------------|
D|-----2-------2---------------2---|-----2-----------0---------------|-------------3-------2---3--2------|
A|-2-----------------------3-------|---------------------------------|-------------------------------3---|
E|---------------------------------|---------------------------------|-----------------------------------|


E|---------------------------------|---------------------------------|---------------------------------|
B|---------------------------------|---------------------------------|---------------------------------|
G|---------------------------------|---------------------------------|---------------------------------|
D|-------------------------5---5---|-5---5---------------------------|---------------------------------|
A|-2---2---2---2---2---2---3---3---|-3---3---6---6---5---5---5---5---|-4---4---3---3---3---3---3---3---|
E|-0---0---0---0---0---0-----------|---------4---4---3---3---3---3---|-2---2---1---1---1---1---1---1---|


E|-----------------------------------------|---------------------------------------|
B|-----------------------------------------|---------------------------------------|
G|-----------------------------------------|---------------------------------------|
D|-----------------------------------------|---------------------------------------|
A|-3---2---2--2--------5---2---2--2--------|-7---2---2--2--------8---2------7--8---|
E|-1---0---0--0-----0--3---0---0--0-----0--|-5---0---0--0-----0--6---0---0--5--6---|


E|-----------------------------------------|---------------------------------------|
B|-----------------------------------------|---------------------------------------|
G|-----------------------------------------|---------------------------------------|
D|-----------------------------------------|---------------------------------------|
A|-3---2---2--2--------5---2---2--2--------|-7---2---2--2--------8---2------7--8---|
E|-1---0---0--0-----0--3---0---0--0-----0--|-5---0---0--0-----0--6---0---0--5--6---|


E|-----------------------------------------|---------------------------------------|
B|-----------------------------------------|---------------------------------------|
G|-----------------------------------------|---------------------------------------|
D|-----------------------------------------|---------------------------------------|
A|-3---2---2--2--------5---2---2--2--------|-7---2---2--2--------8---2------7--8---|
E|-1---0---0--0-----0--3---0---0--0-----0--|-5---0---0--0-----0--6---0---0--5--6---|


E|-----------------------------------------|---------------------------------------|
B|-----------------------------------------|---------------------------------------|
G|-----------------------------------------|---------------------------------------|
D|-----------------------------------------|---------------------------------------|
A|-3---2---2--2--------5---2---2--2--------|-7---2---2--2--------8---2------7--8---|
E|-1---0---0--0-----0--3---0---0--0-----0--|-5---0---0--0-----0--6---0---0--5--6---|


E|-----------------------------------------|---------------------------------------|
B|-----------------------------------------|---------------------------------------|
G|-----------------------------------------|---------------------------------------|
D|-----------------------------------------|---------------------------------------|
A|-3---2---2--2--------5---2---2--2--------|-7---2---2--2--------8---2------7--8---|
E|-1---0---0--0-----0--3---0---0--0-----0--|-5---0---0--0-----0--6---0---0--5--6---|


E|-----------------------------------------|---------------------------------------|
B|-----------------------------------------|---------------------------------------|
G|-----------------------------------------|---------------------------------------|
D|-----------------------------------------|---------------------------------------|
A|-3---2---2--2--------5---2---2--2--------|-7---2---2--2--------8---2------7--8---|
E|-1---0---0--0-----0--3---0---0--0-----0--|-5---0---0--0-----0--6---0---0--5--6---|


E|-----------------------------------------|---------------------------------------|
B|-----------------------------------------|---------------------------------------|
G|-----------------------------------------|---------------------------------------|
D|-----------------------------------------|---------------------------------------|
A|-3---2---2--2--------5---2---2--2--------|-7---2---2--2--------8---2------7--8---|
E|-1---0---0--0-----0--3---0---0--0-----0--|-5---0---0--0-----0--6---0---0--5--6---|


E|-----------------------------------------|---------------------------------------|
B|-----------------------------------------|---------------------------------------|
G|-----------------------------------------|---------------------------------------|
D|-----------------------------------------|---------------------------------------|
A|-3---2---2--2--------5---2---2--2--------|-7---2---2--2--------8---2------7--8---|
E|-1---0---0--0-----0--3---0---0--0-----0--|-5---0---0--0-----0--6---0---0--5--6---|


E|---------------------------------|---------------------------------|------------------------------|
B|---------------------------------|---------------------------------|------------------------------|
G|---------------------------------|---------------------------------|------------------------------|
D|---------------------------------|---------------------------------|------------------------------|
A|-3-------5-------7-------8---3---|-3-------5-------7-------8---3---|-3-------5-------7-------8----|
E|-1---0---3---0---5---0---6---1---|-1---0---3---0---5---0---6---1---|-1---0---3---0---5---0---6----|


E|------------------------------|------------------------------|------------------------------|
B|------------------------------|------------------------------|------------------------------|
G|------------------------------|------------------------------|------------------------------|
D|------------------------------|------------------------------|------------------------------|
A|-2--------2---2-------2-------|-2--------2---2-------2-------|-2--------2---2-------2-------|
E|-0----3---0---0---5---0---3---|-0----3---0---0---5---0---6---|-0----3---0---0---5---0---3---|


E|------------------------------|------------------------------|------------------------------|
B|------------------------------|------------------------------|------------------------------|
G|------------------------------|------------------------------|------------------------------|
D|------------------------------|------------------------------|------------------------------|
A|-2--------2---2-------2-------|-2--------2---2-------2-------|-2--------2---2-------2-------|
E|-0----3---0---0---5---0---6---|-0----3---0---0---5---0---3---|-0----3---0---0---5---0---6---|


E|------------------------------|------------------------------|------------------------------------------------------|
B|------------------------------|------------------------------|------------------------------------------------------|
G|------------------------------|------------------------------|------------------------------------------------------|
D|------------------------------|------------------------------|------------------------------------------------------|
A|-2--------2---2-------2-------|-2--------2---2-------2-------|-7--8-------------------------------------------------|
E|-0----3---0---0---5---0---3---|-0----3---0---0---5---0---6---|-------0--8--7--0--6---6---0--0--0--0--0--0--0--0--0--|


E|------------------------------------------------------|------------------------------------------------------|
B|------------------------------------------------------|------------------------------------------------------|
G|------------------------------------------------------|------------------------------------------------------|
D|------------------------------------------------------|------------------------------------------------------|
A|-7--8-------------------------------------------------|-7--8-------------------------------------------------|
E|-------0--8--7--0--6---6---0--0--0--0--0--0--0--0--0--|-------0--8--7--0--6---6---0--0--0--0--0--0--0--0--0--|


E|------------------------------------------------------|------------------------------------------------------|
B|------------------------------------------------------|------------------------------------------------------|
G|------------------------------------------------------|------------------------------------------------------|
D|------------------------------------------------------|------------------------------------------------------|
A|-7--8-------------------------------------------------|-7--8-------------------------------------------------|
E|-------0--8--7--0--6---6---0--0--0--0--0--0--0--0--0--|-------0--8--7--0--6---6---0--0--0--0--0--0--0--0--0--|


E|------------------------------------------------------|------------------------------------------------------|
B|------------------------------------------------------|------------------------------------------------------|
G|------------------------------------------------------|------------------------------------------------------|
D|------------------------------------------------------|------------------------------------------------------|
A|-7--8-------------------------------------------------|-7--8-------------------------------------------------|
E|-------0--8--7--0--6---6---0--0--0--0--0--0--0--0--0--|-------0--8--7--0--6---6---0--0--0--0--0--0--0--0--0--|


E|-------------------------------------|-----------------|---------------------------|
B|-------------------------------------|-----------------|---------------------------|
G|-------------------------------------|-----------------|---------------------------|
D|-------------------------------------|-----------------|---------------------------|
A|-7---8---------------------------8---|-------8-----8---|---------------------------|
E|---------0---8---7---6---0---8---6---|-------6-----6---|-------3---0---0---5-------|


E|---------------------------------|---------------------------------|---------------------------------|
B|---------------------------------|---------------------------------|---------------------------------|
G|---------------------------------|---------------------------------|---------------------------------|
D|---------------------------------|---------------------------------|---------------------------------|
A|---------------------------------|---------------------------------|---------------------------------|
E|-0---0---6-------0---0---0---0---|-0---0---0---3---0---0---5-------|-0---0---6-------0---0---0---0---|


E|---------------------------------|---------------------------------|---------------------------------|
B|---------------------------------|---------------------------------|---------------------------------|
G|---------------------------------|---------------------------------|---------------------------------|
D|---------------------------------|---------------------------------|---------------------------------|
A|---------------------------------|---------------------------------|---------------------------------|
E|-0---0---0---3---0---0---5-------|-0---0---6-------0---0---0---0---|-0---0---0---3---0---0---5-------|


E|---------------------------------|---------------------------------|---------------------------------|
B|---------------------------------|---------------------------------|---------------------------------|
G|---------------------------------|---------------------------------|---------------------------------|
D|---------------------------------|---------------------------------|---------------------------------|
A|---------------------------------|-------------------------2-------|---------3-----------------------|
E|-0---0---6-------0---0---0---0---|-0---0---0---5---2---2-----------|-2---2-----------2---2---2---2---|


E|---------------------------------|---------------------------------|---------------------------------|
B|---------------------------------|---------------------------------|---------------------------------|
G|---------------------------------|---------------------------------|---------------------------------|
D|---------------------------------|---------------------------------|---------------------------------|
A|-------------------------2-------|---------3-----------------------|---------------------------------|
E|-2---2---2---5---2---2-----------|-2---2-----------2---2---2---2---|-2---2---2---3---0---0---5-------|


E|---------------------------------|---------------------------------|---------------------------------|
B|---------------------------------|---------------------------------|---------------------------------|
G|---------------------------------|---------------------------------|---------------------------------|
D|---------------------------------|---------------------------------|---------------------------------|
A|---------------------------------|---------------------------------|---------------------------------|
E|-0---0---6-------0---0---0---0---|-0---0---0---3---0---0---5-------|-0---0---6-------0---0---0---0---|


E|---------------------------------|---------------------------------|---------------------------------|
B|---------------------------------|---------------------------------|---------------------------------|
G|---------------------------------|---------------------------------|---------------------------------|
D|---------------------------------|---------------------------------|---------------------------------|
A|-------------------------2-------|---------3-----------------------|-------------------------2-------|
E|-0---0---0---5---2---2-----------|-2---2-----------2---2---2---2---|-2---2---2---5---2---2-----------|


E|---------------------------------|---------------------------------|---------------------------------|
B|---------------------------------|---------------------------------|---------------------------------|
G|---------------------------------|---------------------------------|---------------------------------|
D|---------------------------------|---------------------------------|---------------------------------|
A|---------3-----------------------|---------------------------------|---------------------------------|
E|-2---2-----------2---2---2---2---|-2---2---2---3---0---0---5-------|-0---0---6-------0---0---0---0---|


E|---------------------------------|---------------------------------|--------------------|
B|---------------------------------|---------------------------------|--------------------|
G|---------------------------------|---------------------------------|--------------------|
D|---------------------------------|---------------------------------|-------------9------|
A|---------------------------------|---------------------------------|-------------7------|
E|-0---0---0---3---0---0---5-------|-0---0---6-------0---0---0---0---|-0---0---0----------|


E|----------------|-----------------|--------------|----------------|-----------------|
B|----------------|-----------------|--------------|----------------|-----------------|
G|----------------|-----------------|--------------|----------------|-----------------|
D|-----7------5---|-----------5-----|-------2------|----------------|-----------------|
A|-----5------3---|-----------2-----|-------0------|----------------|-----------3-----|
E|----------------|-----------------|--------------|-----3------2---|-----------1-----|


E|--------------|----------------|-----------------|-------------------------------------|
B|--------------|----------------|-----------------|-------------------------------------|
G|--------------|----------------|-----------------|-------------------------------------|
D|--------------|----------------|-----------------|-------------------------------------|
A|-------2------|-----2------2---|-----------2-----|-------------------------------------|
E|-------0------|-----0------0---|-----------0-----|-------0--0--0--0--2--3--0--0--0--0--|


E|-------------------------------------------------|-------------------------------------------------|
B|-------------------------------------------------|-------------------------------------------------|
G|-------------------------------------------------|-------------------------------------------------|
D|-------------------------------------------------|-------------------------------------------------|
A|-------------------------------------------------|-------------------------------------------------|
E|-3--5--0--0--2--3--0--0--0--0--2--3--0--0--0--0--|-3--5--0--0--5--6--0--0--0--0--2--3--0--0--0--0--|


E|-------------------------------------------------|-------------------------------------------------|
B|-------------------------------------------------|-------------------------------------------------|
G|-------------------------------------------------|-------------------------------------------------|
D|-------------------------------------------------|-------------------------------------------------|
A|-------------------------------------------------|-------------------------------------------------|
E|-3--5--0--0--2--3--0--0--0--0--2--3--0--0--0--0--|-3--5--0--0--5--6--0--0--0--0--2--3--0--0--0--0--|


E|-------------------------------------------------|-------------------------------------------------|
B|-------------------------------------------------|-------------------------------------------------|
G|-------------------------------------------------|-------------------------------------------------|
D|-------------------------------------------------|-------------------------------------------------|
A|-------------------------------------------------|-------------------------------------------------|
E|-3--5--0--0--2--3--0--0--0--0--2--3--0--0--0--0--|-3--5--0--0--5--6--0--0--0--0--2--3--0--0--0--0--|


E|-------------------------------------------------|------------------------------------------|
B|-------------------------------------------------|------------------------------------------|
G|-------------------------------------------------|------------------------------------------|
D|-------------------------------------------------|------------------------------------------|
A|-------------------------------------------------|-------------------7--8-------------------|
E|-3--5--0--0--2--3--0--0--0--0--2--3--0--0--0--0--|-3--5--0--0--5--6--------0--8--7--0--6----|


E|------------------------------------------|------------------------------------------|
B|------------------------------------------|------------------------------------------|
G|------------------------------------------|------------------------------------------|
D|------------------------------------------|------------------------------------------|
A|-------------------7--8-------------------|-------------------7--8-------------------|
E|-0--0--0--0--0--0--------0--8--7--0--6----|-0--0--0--0--0--0--------0--8--7--0--6----|


E|------------------------------------------|-------------------------------------------------|
B|------------------------------------------|-------------------------------------------------|
G|------------------------------------------|-------------------------------------------------|
D|------------------------------------------|-------------------------------------------------|
A|-------------------7--8-------------------|-------------------------------------------------|
E|-0--0--0--0--0--0--------0--8--7--0--6----|-0--0--0--0--0--0--0--0--0--0--2--3--0--0--0--0--|


E|-------------------------------------------------|-------------------------------------------------|
B|-------------------------------------------------|-------------------------------------------------|
G|-------------------------------------------------|-------------------------------------------------|
D|-------------------------------------------------|-------------------------------------------------|
A|-------------------------------------------------|-------------------------------------------------|
E|-3--5--0--0--2--3--0--0--0--0--2--3--0--0--0--0--|-3--5--0--0--5--6--0--0--0--0--2--3--0--0--0--0--|


E|-------------------------------------------------|-------------------------------------------------|
B|-------------------------------------------------|-------------------------------------------------|
G|-------------------------------------------------|-------------------------------------------------|
D|-------------------------------------------------|-------------------------------------------------|
A|-------------------------------------------------|-------------------------------------------------|
E|-3--5--0--0--2--3--0--0--0--0--2--3--0--0--0--0--|-3--5--0--0--5--6--0--0--0--0--2--3--0--0--0--0--|


E|-------------------------------------------------|-------------------------------------------------|
B|-------------------------------------------------|-------------------------------------------------|
G|-------------------------------------------------|-------------------------------------------------|
D|-------------------------------------------------|-------------------------------------------------|
A|-------------------------------------------------|-------------------------------------------------|
E|-3--5--0--0--2--3--0--0--0--0--2--3--0--0--0--0--|-3--5--0--0--5--6--0--0--0--0--2--3--0--0--0--0--|


E|-------------------------------------------------|------------------------------------------|
B|-------------------------------------------------|------------------------------------------|
G|-------------------------------------------------|------------------------------------------|
D|-------------------------------------------------|------------------------------------------|
A|-------------------------------------------------|-------------------7--8-------------------|
E|-3--5--0--0--2--3--0--0--0--0--2--3--0--0--0--0--|-3--5--0--0--5--6--------0--8--7--0--6----|


E|------------------------------------------|------------------------------------------|
B|------------------------------------------|------------------------------------------|
G|------------------------------------------|------------------------------------------|
D|------------------------------------------|------------------------------------------|
A|-------------------7--8-------------------|-------------------7--8-------------------|
E|-0--0--0--0--0--0--------0--8--7--0--6----|-0--0--0--0--0--0--------0--8--7--0--6----|


E|------------------------------------------|-------------------------------------------------|
B|------------------------------------------|-------------------------------------------------|
G|------------------------------------------|-------------------------------------------------|
D|------------------------------------------|-------------------------------------------------|
A|-------------------7--8-------------------|-------------------------------------------------|
E|-0--0--0--0--0--0--------0--8--7--0--6----|-0--0--0--0--0--0--0--0--0--0--2--3--0--0--0--0--|


E|-------------------------------------------------|-------------------------------------------------|
B|-------------------------------------------------|-------------------------------------------------|
G|-------------------------------------------------|-------------------------------------------------|
D|-------------------------------------------------|-------------------------------------------------|
A|-------------------------------------------------|-------------------------------------------------|
E|-3--5--0--0--2--3--0--0--0--0--2--3--0--0--0--0--|-3--5--0--0--5--6--0--0--0--0--2--3--0--0--0--0--|


E|-------------------------------------------------|-------------------------------------------------|
B|-------------------------------------------------|-------------------------------------------------|
G|-------------------------------------------------|-------------------------------------------------|
D|-------------------------------------------------|-------------------------------------------------|
A|-------------------------------------------------|-------------------------------------------------|
E|-3--5--0--0--2--3--0--0--0--0--2--3--0--0--0--0--|-3--5--0--0--5--6--0--0--0--0--2--3--0--0--0--0--|


E|-------------------------------------------------|-------------------------------------------------|
B|-------------------------------------------------|-------------------------------------------------|
G|-------------------------------------------------|-------------------------------------------------|
D|-------------------------------------------------|-------------------------------------------------|
A|-------------------------------------------------|-------------------------------------------------|
E|-3--5--0--0--2--3--0--0--0--0--2--3--0--0--0--0--|-3--5--0--0--5--6--0--0--0--0--2--3--0--0--0--0--|


E|-------------------------------------------------|------------------------------------------|
B|-------------------------------------------------|------------------------------------------|
G|-------------------------------------------------|------------------------------------------|
D|-------------------------------------------------|------------------------------------------|
A|-------------------------------------------------|-------------------7--8-------------------|
E|-3--5--0--0--2--3--0--0--0--0--2--3--0--0--0--0--|-3--5--0--0--5--6--------0--8--7--0--6----|


E|------------------------------------------|------------------------------------------|
B|------------------------------------------|------------------------------------------|
G|------------------------------------------|------------------------------------------|
D|------------------------------------------|------------------------------------------|
A|-------------------7--8-------------------|-------------------7--8-------------------|
E|-0--0--0--0--0--0--------0--8--7--0--6----|-0--0--0--0--0--0--------0--8--7--0--6----|


E|------------------------------------------|-------------------------------------------------|
B|------------------------------------------|-------------------------------------------------|
G|------------------------------------------|-------------------------------------------------|
D|------------------------------------------|-------------------------------------------------|
A|-------------------7--8-------------------|-------------------------------------------------|
E|-0--0--0--0--0--0--------0--8--7--0--6----|-0--0--0--0--0--0--0--0--0--0--2--3--0--0--0--0--|


E|-------------------------------------------------|-------------------------------------------------|
B|-------------------------------------------------|-------------------------------------------------|
G|-------------------------------------------------|-------------------------------------------------|
D|-------------------------------------------------|-------------------------------------------------|
A|-------------------------------------------------|-------------------------------------------------|
E|-3--5--0--0--2--3--0--0--0--0--2--3--0--0--0--0--|-3--5--0--0--5--6--0--0--0--0--2--3--0--0--0--0--|


E|-------------------------------------------------|-------------------------------------------------|
B|-------------------------------------------------|-------------------------------------------------|
G|-------------------------------------------------|-------------------------------------------------|
D|-------------------------------------------------|-------------------------------------------------|
A|-------------------------------------------------|-------------------------------------------------|
E|-3--5--0--0--2--3--0--0--0--0--2--3--0--0--0--0--|-3--5--0--0--5--6--0--0--0--0--2--3--0--0--0--0--|


E|-------------------------------------------------|-------------------------------------------------|
B|-------------------------------------------------|-------------------------------------------------|
G|-------------------------------------------------|-------------------------------------------------|
D|-------------------------------------------------|-------------------------------------------------|
A|-------------------------------------------------|-------------------------------------------------|
E|-3--5--0--0--2--3--0--0--0--0--2--3--0--0--0--0--|-3--5--0--0--5--6--0--0--0--0--2--3--0--0--0--0--|


E|-------------------------------------------------|------------------------------------------|
B|-------------------------------------------------|------------------------------------------|
G|-------------------------------------------------|------------------------------------------|
D|-------------------------------------------------|------------------------------------------|
A|-------------------------------------------------|-------------------7--8-------------------|
E|-3--5--0--0--2--3--0--0--0--0--2--3--0--0--0--0--|-3--5--0--0--5--6--------0--8--7--0--6----|


E|------------------------------------------|------------------------------------------|
B|------------------------------------------|------------------------------------------|
G|------------------------------------------|------------------------------------------|
D|------------------------------------------|------------------------------------------|
A|-------------------7--8-------------------|-------------------7--8-------------------|
E|-0--0--0--0--0--0--------0--8--7--0--6----|-0--0--0--0--0--0--------0--8--7--0--6----|


E|------------------------------------------|------------------------------------------|
B|------------------------------------------|------------------------------------------|
G|------------------------------------------|------------------------------------------|
D|------------------------------------------|------------------------------------------|
A|-------------------7--8-------------------|-------------------7--8-------------------|
E|-0--0--0--0--0--0--------0--8--7--0--6----|-0--0--0--0--0--0--------0--8--7--0--6----|


E|------------------------------------------|------------------------------|
B|------------------------------------------|------------------------------|
G|------------------------------------------|------------------------------|
D|------------------------------------------|------------------------------|
A|-------------------7--8-------------------|-------------------2----------|
E|-0--0--0--0--0--0--------0--8--7--0--6----|-0--0--0--0--0--0--0----------|





Track 2: Acoustic 2

E|--------|--------|--------|--------|--------|--------|--------|--------|--------|
B|--------|--------|--------|--------|--------|--------|--------|--------|--------|
G|--------|--------|--------|--------|--------|--------|--------|--------|--------|
D|--------|--------|--------|--------|--------|--------|--------|--------|--------|
A|--------|--------|--------|--------|--------|--------|--------|--------|--------|
E|--------|--------|--------|--------|--------|--------|--------|--------|--------|


E|--------|--------|--------|-------------|-------------|-------------|-1---3---1---0----------------|
B|--------|--------|--------|-------------|-------------|-------------|-----------------3---1--------|
G|--------|--------|--------|-------------|-------------|-------------|-------------------------2----|
D|--------|--------|--------|-------------|-------------|-------------|------------------------------|
A|--------|--------|--------|-------------|-------------|-------------|------------------------------|
E|--------|--------|--------|-------------|-------------|-------------|------------------------------|


E|-------------|-------------|-------------|-------------|-------------|-------------|
B|-------------|-------------|-------------|-------------|-------------|-------------|
G|-------------|-------------|-------------|-------------|-------------|-------------|
D|-------------|-------------|-------------|-------------|-------------|-------------|
A|-------------|-------------|-------------|-------------|-------------|-------------|
E|-------------|-------------|-------------|-------------|-------------|-------------|


E|-----------------|------------------|-------------|-------------|-------------|--------|
B|-----------------|------------------|-------------|-------------|-------------|--------|
G|-----------------|-----------2------|-------------|-------------|-------------|--------|
D|-------------2---|-3--2-------------|-------------|-------------|-------------|--------|
A|-----------------|-------3----------|-------------|-------------|-------------|--------|
E|-----------------|------------------|-------------|-------------|-------------|--------|


E|--------|--------|--------|--------|--------|--------|--------|--------|--------|
B|--------|--------|--------|--------|--------|--------|--------|--------|--------|
G|--------|--------|--------|--------|--------|--------|--------|--------|--------|
D|--------|--------|--------|--------|--------|--------|--------|--------|--------|
A|--------|--------|--------|--------|--------|--------|--------|--------|--------|
E|--------|--------|--------|--------|--------|--------|--------|--------|--------|


E|--------|--------|--------|--------|--------|--------|--------|--------|----------------|
B|--------|--------|--------|--------|--------|--------|--------|--------|----------------|
G|--------|--------|--------|--------|--------|--------|--------|--------|----------------|
D|--------|--------|--------|--------|--------|--------|--------|--------|------------14--|
A|--------|--------|--------|--------|--------|--------|--------|--------|----------------|
E|--------|--------|--------|--------|--------|--------|--------|--------|----------------|


E|-----------------------|---------15-----|-------------|-----------------------|-------------|
B|---------12--13--12----|-12--13---------|-------------|-----------------------|-------------|
G|-12--14----------------|----------------|-------------|-------------12--------|-------------|
D|-----------------------|----------------|-------------|-12--14--15------14----|-------------|
A|-----------------------|----------------|-------------|-----------------------|-------------|
E|-----------------------|----------------|-------------|-----------------------|-------------|


E|-------------|-------------|------10---10---8---7---8---|-7------------------|-------------|
B|-------------|-------------|------10---10---10--10--10--|-10-----------------|-------------|
G|-------------|-------------|----------------------------|--------------------|-------------|
D|-------------|-------------|----------------------------|--------------------|-------------|
A|-------------|-------------|----------------------------|--------------------|-------------|
E|-------------|-------------|----------------------------|--------------------|-------------|


E|-------------|--------|--------|--------|--------|--------|--------|--------|--------|
B|-------------|--------|--------|--------|--------|--------|--------|--------|--------|
G|-------------|--------|--------|--------|--------|--------|--------|--------|--------|
D|-------------|--------|--------|--------|--------|--------|--------|--------|--------|
A|-------------|--------|--------|--------|--------|--------|--------|--------|--------|
E|-------------|--------|--------|--------|--------|--------|--------|--------|--------|


E|--------|--------|--------|--------|--------|--------|--------|--------|--------|
B|--------|--------|--------|--------|--------|--------|--------|--------|--------|
G|--------|--------|--------|--------|--------|--------|--------|--------|--------|
D|--------|--------|--------|--------|--------|--------|--------|--------|--------|
A|--------|--------|--------|--------|--------|--------|--------|--------|--------|
E|--------|--------|--------|--------|--------|--------|--------|--------|--------|


E|--------|--------|--------|--------|--------|--------|--------|--------|--------|
B|--------|--------|--------|--------|--------|--------|--------|--------|--------|
G|--------|--------|--------|--------|--------|--------|--------|--------|--------|
D|--------|--------|--------|--------|--------|--------|--------|--------|--------|
A|--------|--------|--------|--------|--------|--------|--------|--------|--------|
E|--------|--------|--------|--------|--------|--------|--------|--------|--------|


E|--------|--------|--------|--------|--------|--------|--------|--------|--------|
B|--------|--------|--------|--------|--------|--------|--------|--------|--------|
G|--------|--------|--------|--------|--------|--------|--------|--------|--------|
D|--------|--------|--------|--------|--------|--------|--------|--------|--------|
A|--------|--------|--------|--------|--------|--------|--------|--------|--------|
E|--------|--------|--------|--------|--------|--------|--------|--------|--------|


E|--------|--------|--------|--------|--------|--------|--------|--------|--------|
B|--------|--------|--------|--------|--------|--------|--------|--------|--------|
G|--------|--------|--------|--------|--------|--------|--------|--------|--------|
D|--------|--------|--------|--------|--------|--------|--------|--------|--------|
A|--------|--------|--------|--------|--------|--------|--------|--------|--------|
E|--------|--------|--------|--------|--------|--------|--------|--------|--------|


E|--------|--------|--------|--------|--------|--------|--------|--------|--------|
B|--------|--------|--------|--------|--------|--------|--------|--------|--------|
G|--------|--------|--------|--------|--------|--------|--------|--------|--------|
D|--------|--------|--------|--------|--------|--------|--------|--------|--------|
A|--------|--------|--------|--------|--------|--------|--------|--------|--------|
E|--------|--------|--------|--------|--------|--------|--------|--------|--------|


E|--------|--------|--------|--------|--------|--------|--------|--------|--------|
B|--------|--------|--------|--------|--------|--------|--------|--------|--------|
G|--------|--------|--------|--------|--------|--------|--------|--------|--------|
D|--------|--------|--------|--------|--------|--------|--------|--------|--------|
A|--------|--------|--------|--------|--------|--------|--------|--------|--------|
E|--------|--------|--------|--------|--------|--------|--------|--------|--------|


E|--------|--------|--------|--------|--------|--------|--------|--------|--------|
B|--------|--------|--------|--------|--------|--------|--------|--------|--------|
G|--------|--------|--------|--------|--------|--------|--------|--------|--------|
D|--------|--------|--------|--------|--------|--------|--------|--------|--------|
A|--------|--------|--------|--------|--------|--------|--------|--------|--------|
E|--------|--------|--------|--------|--------|--------|--------|--------|--------|


E|--------|--------|--------|--------|--------|--------|--------|--------|--------|
B|--------|--------|--------|--------|--------|--------|--------|--------|--------|
G|--------|--------|--------|--------|--------|--------|--------|--------|--------|
D|--------|--------|--------|--------|--------|--------|--------|--------|--------|
A|--------|--------|--------|--------|--------|--------|--------|--------|--------|
E|--------|--------|--------|--------|--------|--------|--------|--------|--------|


E|--------|--------|--------|--------|--------|--------|--------|--------|--------|
B|--------|--------|--------|--------|--------|--------|--------|--------|--------|
G|--------|--------|--------|--------|--------|--------|--------|--------|--------|
D|--------|--------|--------|--------|--------|--------|--------|--------|--------|
A|--------|--------|--------|--------|--------|--------|--------|--------|--------|
E|--------|--------|--------|--------|--------|--------|--------|--------|--------|


E|--------|--------|--------|--------|--------|--------|--------|--------|--------|
B|--------|--------|--------|--------|--------|--------|--------|--------|--------|
G|--------|--------|--------|--------|--------|--------|--------|--------|--------|
D|--------|--------|--------|--------|--------|--------|--------|--------|--------|
A|--------|--------|--------|--------|--------|--------|--------|--------|--------|
E|--------|--------|--------|--------|--------|--------|--------|--------|--------|


E|--------|--------|--------|--------|--------|--------|--------|--------|--------|
B|--------|--------|--------|--------|--------|--------|--------|--------|--------|
G|--------|--------|--------|--------|--------|--------|--------|--------|--------|
D|--------|--------|--------|--------|--------|--------|--------|--------|--------|
A|--------|--------|--------|--------|--------|--------|--------|--------|--------|
E|--------|--------|--------|--------|--------|--------|--------|--------|--------|


E|--------|--------|--------|--------|--------|--------|--------|--------|--------|
B|--------|--------|--------|--------|--------|--------|--------|--------|--------|
G|--------|--------|--------|--------|--------|--------|--------|--------|--------|
D|--------|--------|--------|--------|--------|--------|--------|--------|--------|
A|--------|--------|--------|--------|--------|--------|--------|--------|--------|
E|--------|--------|--------|--------|--------|--------|--------|--------|--------|


E|--------|--------|--------|--------|--------|--------|--------|
B|--------|--------|--------|--------|--------|--------|--------|
G|--------|--------|--------|--------|--------|--------|--------|
D|--------|--------|--------|--------|--------|--------|--------|
A|--------|--------|--------|--------|--------|--------|--------|
E|--------|--------|--------|--------|--------|--------|--------|





Track 3: Dave Mustaine Solo 1

E|--------|--------|--------|--------|--------|--------|--------|--------|--------|
B|--------|--------|--------|--------|--------|--------|--------|--------|--------|
G|--------|--------|--------|--------|--------|--------|--------|--------|--------|
D|--------|--------|--------|--------|--------|--------|--------|--------|--------|
A|--------|--------|--------|--------|--------|--------|--------|--------|--------|
E|--------|--------|--------|--------|--------|--------|--------|--------|--------|


E|--------|--------|--------|--------|--------|--------|--------|--------|--------|
B|--------|--------|--------|--------|--------|--------|--------|--------|--------|
G|--------|--------|--------|--------|--------|--------|--------|--------|--------|
D|--------|--------|--------|--------|--------|--------|--------|--------|--------|
A|--------|--------|--------|--------|--------|--------|--------|--------|--------|
E|--------|--------|--------|--------|--------|--------|--------|--------|--------|


E|--------|--------|--------|--------|--------|--------|--------|--------|--------|
B|--------|--------|--------|--------|--------|--------|--------|--------|--------|
G|--------|--------|--------|--------|--------|--------|--------|--------|--------|
D|--------|--------|--------|--------|--------|--------|--------|--------|--------|
A|--------|--------|--------|--------|--------|--------|--------|--------|--------|
E|--------|--------|--------|--------|--------|--------|--------|--------|--------|


E|-------------|-------------|-------------|--------|--------|--------|--------|--------|
B|--------6----|-------2-----|------8------|--------|--------|--------|--------|--------|
G|-------------|-------------|-------------|--------|--------|--------|--------|--------|
D|-------------|-------------|-------------|--------|--------|--------|--------|--------|
A|-------------|-------------|-------------|--------|--------|--------|--------|--------|
E|-------------|-------------|-------------|--------|--------|--------|--------|--------|


E|--------|--------|--------|--------|--------|--------|--------|--------|--------|
B|--------|--------|--------|--------|--------|--------|--------|--------|--------|
G|--------|--------|--------|--------|--------|--------|--------|--------|--------|
D|--------|--------|--------|--------|--------|--------|--------|--------|--------|
A|--------|--------|--------|--------|--------|--------|--------|--------|--------|
E|--------|--------|--------|--------|--------|--------|--------|--------|--------|


E|--------|--------|--------|--------|--------|--------|--------|--------|--------|
B|--------|--------|--------|--------|--------|--------|--------|--------|--------|
G|--------|--------|--------|--------|--------|--------|--------|--------|--------|
D|--------|--------|--------|--------|--------|--------|--------|--------|--------|
A|--------|--------|--------|--------|--------|--------|--------|--------|--------|
E|--------|--------|--------|--------|--------|--------|--------|--------|--------|


E|--------|--------|--------|--------|-------------|-------------|-------------|--------|
B|--------|--------|--------|--------|--------6----|-------2-----|------8------|--------|
G|--------|--------|--------|--------|-------------|-------------|-------------|--------|
D|--------|--------|--------|--------|-------------|-------------|-------------|--------|
A|--------|--------|--------|--------|-------------|-------------|-------------|--------|
E|--------|--------|--------|--------|-------------|-------------|-------------|--------|


E|--------|--------|--------|--------|--------|--------|--------|--------|--------|
B|--------|--------|--------|--------|--------|--------|--------|--------|--------|
G|--------|--------|--------|--------|--------|--------|--------|--------|--------|
D|--------|--------|--------|--------|--------|--------|--------|--------|--------|
A|--------|--------|--------|--------|--------|--------|--------|--------|--------|
E|--------|--------|--------|--------|--------|--------|--------|--------|--------|


E|--------|--------|--------|--------|--------|--------|--------|--------|--------|
B|--------|--------|--------|--------|--------|--------|--------|--------|--------|
G|--------|--------|--------|--------|--------|--------|--------|--------|--------|
D|--------|--------|--------|--------|--------|--------|--------|--------|--------|
A|--------|--------|--------|--------|--------|--------|--------|--------|--------|
E|--------|--------|--------|--------|--------|--------|--------|--------|--------|


E|-12-----|-12-----|-----12-----12-----12-----12---------|-12-15-12----12-15-12----12-17-12----12-15-12----12-17-12---|
B|--------|--------|-15-----15-----15-----15-----15--15--|----------15----------15----------15----------15------------|
G|--------|--------|-------------------------------------|------------------------------------------------------------|
D|--------|--------|-------------------------------------|------------------------------------------------------------|
A|--------|--------|-------------------------------------|------------------------------------------------------------|
E|--------|--------|-------------------------------------|------------------------------------------------------------|


E|-------------------------------------------------|-------------------------------------------------|
B|-------------------------------------------------|-------------------------------------------------|
G|-9--9--9--9--9--9--9--9--9--10-10-10-10-10-10-10-|-10-11-11-11-11-11-11-11-11-12-12-12-12-12-12-12-|
D|-------------------------------------------------|-------------------------------------------------|
A|-7--7--7--7--7--7--7--7--7--8--8--8--8--8--8--8--|-8--9--9--9--9--9--9--9--9--10-10-10-10-10-10-10-|
E|-------------------------------------------------|-------------------------------------------------|


E|--------|--------|--------|--------|--------|--------|--------|--------|--------|
B|--------|--------|--------|--------|--------|--------|--------|--------|--------|
G|-9------|-9------|--------|--------|--------|--------|--------|--------|--------|
D|--------|--------|--------|--------|--------|--------|--------|--------|--------|
A|-7------|-7------|--------|--------|--------|--------|--------|--------|--------|
E|--------|--------|--------|--------|--------|--------|--------|--------|--------|


E|--------|--------|-------19--19--19--17--17--17--20--20-|----20--19--19--19--20--19--17--19--17--15--17--15-|
B|--------|--------|--------------------------------------|---------------------------------------------------|
G|--------|--------|--------------------------------------|---------------------------------------------------|
D|--------|--------|--------------------------------------|---------------------------------------------------|
A|--------|--------|--------------------------------------|---------------------------------------------------|
E|--------|--------|--------------------------------------|---------------------------------------------------|


E|--------15-----------------------------------------|---------------------------------------------------|
B|----18------18--17--17--17--17--15--15--15--18--18-|----18--17--17--17--18--17--15--17--15--13--15--13-|
G|---------------------------------------------------|---------------------------------------------------|
D|---------------------------------------------------|---------------------------------------------------|
A|---------------------------------------------------|---------------------------------------------------|
E|---------------------------------------------------|---------------------------------------------------|


E|---------------------------------------------------|---------------------------------------------------|
B|--------13-----------------------------------------|---------------------------------------------------|
G|----16------16--14--16--16--16--14--14--14--17--17-|----17--16--16--16--17--16--14--16--14--12--14--12-|
D|---------------------------------------------------|---------------------------------------------------|
A|---------------------------------------------------|---------------------------------------------------|
E|---------------------------------------------------|---------------------------------------------------|


E|-----------------------------------------------|-----------------------------------------------|
B|-----------------------------------------------|-----------------------------------------------|
G|-----------------------------------------------|-----------------------------------------------|
D|----15--15--14--15--14--12--14--12------12-----|-----------------------------------------------|
A|------------------------------------15------15-|----14--15--14--15--14--12--14--12------12-----|
E|-----------------------------------------------|------------------------------------16------16-|


E|--------------------------|--------|--------|--------|--------------------------------------|
B|--------------------------|--------|--------|--------|-------15--12------16--12------17--12-|
G|--------------------------|--------|--------|--------|---------------14----------14---------|
D|--------------------------|--------|--------|--------|--------------------------------------|
A|--------------------------|--------|--------|--------|--------------------------------------|
E|----13--16--12------------|--------|--------|--------|--------------------------------------|


E|---------------------------------------------------|---------------------------------------------------|
B|--------16--12------15--12------16--12------17--12-|--------16--12------15--12------16--12------17--14-|
G|----14----------14----------14----------14---------|----14----------14----------14----------16---------|
D|---------------------------------------------------|---------------------------------------------------|
A|---------------------------------------------------|---------------------------------------------------|
E|---------------------------------------------------|---------------------------------------------------|


E|---------------------------------------------------|------------------------------|
B|--------18--14------19--15------20--16------21--16-|--------21--16----------------|
G|----17----------18----------18----------19---------|----19----------19------------|
D|---------------------------------------------------|------------------------------|
A|---------------------------------------------------|------------------------------|
E|---------------------------------------------------|------------------------------|


E|--------|--------------|--------------|--------------------------------------|--------15--12------17--12------15--12-------------|
B|--------|--------------|--------------|-------------12--17--15-12-----17--12-|--------------------------------------------17--15-|
G|--------|--------------|--------------|---------12----------------12---------|----12----------12----------12----------12---------|
D|--------|--------------|--------------|--------------------------------------|---------------------------------------------------|
A|--------|--------------|--------------|--------------------------------------|---------------------------------------------------|
E|--------|--------------|--------------|--------------------------------------|---------------------------------------------------|


E|-------------------------------|--------------|-----------------|---------------------------------|
B|----12--15--12--15--15---15----|-------15-----|-----------------|---------------------------------|
G|-------------------------------|--------------|-------12----12--|----12-14-14--14-------12-14-14--|
D|-------------------------------|--------------|-----------------|-14-----------------14-----------|
A|-------------------------------|--------------|-----------------|---------------------------------|
E|-------------------------------|--------------|-----------------|---------------------------------|


E|------------------------------------|-----------12-------------------------17--|
B|------------------------------------|-------12----15--15---15-1512---12-15-----|
G|-14--14--14-14-14--14-12-14-14-14---|-12--14----------------------14-----------|
D|------------------------------------|------------------------------------------|
A|------------------------------------|------------------------------------------|
E|------------------------------------|------------------------------------------|


E|-----17----17--17-12-17--15-|----12------12----------------------------------------------------|
B|----------------------------|--------15-----17-17-15-12-15-15-12-------12----------------------|
G|----------------------------|------------------------------------15-12----15-14-12-14-12-10-12-|
D|----------------------------|------------------------------------------------------------------|
A|----------------------------|------------------------------------------------------------------|
E|----------------------------|------------------------------------------------------------------|


E|------------------------------|---------------------|-----------------|--------|
B|------------------------------|---------------------|-----------------|--------|
G|----12----12-10---------------|---------------------|-----------------|--------|
D|-14----14-------14------------|---------------------|-----------------|--------|
A|-----------------------11-----|-----11----11----11--|-----------11----|--------|
E|-------------------12---------|---------------------|-----------------|--------|


E|--------|--------|--------|--------|--------|--------------|-----------------|----------------------------------------|
B|--------|--------|--------|--------|--------|--------------|-----------------|-11-10-8--------------------------------|
G|--------|--------|--------|--------|--------|--------------|-----------------|----------10-9--7--9--10-9--------------|
D|--------|--------|--------|--------|--------|--------------|-----------------|----------------------------10--10-8----|
A|--------|--------|--------|--------|--------|--------------|-----------------|----------------------------------------|
E|--------|--------|--------|--------|--------|--------------|-----------------|----------------------------------------|


E|----------------------------------------|----------------------------------------|
B|-11-10-8--------------------------------|-11-10-8--------------------------------|
G|----------10-9--7--9--10-9--------------|----------10-9--7--9--10-9--------------|
D|----------------------------10--10-8----|----------------------------10--10-8----|
A|----------------------------------------|----------------------------------------|
E|----------------------------------------|----------------------------------------|


E|----------------------------------------|------------------------------|--------------|
B|-11-10-8--------------------------------|-11-10-8-----------8----------|--------------|
G|----------10-9--7--9--10-9--------------|----------10-9--7-------------|--------------|
D|----------------------------10--10-8----|------------------------------|--------------|
A|----------------------------------------|------------------------------|--------------|
E|----------------------------------------|------------------------------|--------------|


E|--------|--------|--------|--------|--------------|-----------------|----------------------------------------|
B|--------|--------|--------|--------|--------------|-----------------|-11-10-8--------------------------------|
G|--------|--------|--------|--------|--------------|-----------------|----------10-9--7--9--10-9--------------|
D|--------|--------|--------|--------|--------------|-----------------|----------------------------10--10-8----|
A|--------|--------|--------|--------|--------------|-----------------|----------------------------------------|
E|--------|--------|--------|--------|--------------|-----------------|----------------------------------------|


E|----------------------------------------|----------------------------------------|
B|-11-10-8--------------------------------|-11-10-8--------------------------------|
G|----------10-9--7--9--10-9--------------|----------10-9--7--9--10-9--------------|
D|----------------------------10--10-8----|----------------------------10--10-8----|
A|----------------------------------------|----------------------------------------|
E|----------------------------------------|----------------------------------------|


E|----------------------------------------|--------------------------|-----------------|
B|-11-10-8--------------------------------|-11-10-8------------------|-----------------|
G|----------10-9--7--9--10-9--------------|----------10-9--7---------|-----------------|
D|----------------------------10--10-8----|-------------------9------|-----9-----------|
A|----------------------------------------|--------------------------|-----------------|
E|----------------------------------------|--------------------------|-----------------|


E|--------|--------|--------|--------|--------------|-----------------|----------------------------------------|
B|--------|--------|--------|--------|--------------|-----------------|-11-10-8--------------------------------|
G|--------|--------|--------|--------|--------------|-----------------|----------10-9--7--9--10-9--------------|
D|--------|--------|--------|--------|--------------|-----------------|----------------------------10--10-8----|
A|--------|--------|--------|--------|--------------|-----------------|----------------------------------------|
E|--------|--------|--------|--------|--------------|-----------------|----------------------------------------|


E|----------------------------------------|----------------------------------------|
B|-11-10-8--------------------------------|-11-10-8--------------------------------|
G|----------10-9--7--9--10-9--------------|----------10-9--7--9--10-9--------------|
D|----------------------------10--10-8----|----------------------------10--10-8----|
A|----------------------------------------|----------------------------------------|
E|----------------------------------------|----------------------------------------|


E|----------------------------------------|--------------------------|-----------------|
B|-11-10-8--------------------------------|-11-10-8------------------|-----------------|
G|----------10-9--7--9--10-9--------------|----------10-9--7---------|-----------------|
D|----------------------------10--10-8----|-------------------9------|-----9-----------|
A|----------------------------------------|--------------------------|-----------------|
E|----------------------------------------|--------------------------|-----------------|


E|--------|--------|--------|--------|--------------|-----------------|----------------------------------------|
B|--------|--------|--------|--------|--------------|-----------------|-11-10-8--------------------------------|
G|--------|--------|--------|--------|--------------|-----------------|----------10-9--7--9--10-9--------------|
D|--------|--------|--------|--------|--------------|-----------------|----------------------------10--10-8----|
A|--------|--------|--------|--------|--------------|-----------------|----------------------------------------|
E|--------|--------|--------|--------|--------------|-----------------|----------------------------------------|


E|----------------------------------------|----------------------------------------|
B|-11-10-8--------------------------------|-11-10-8--------------------------------|
G|----------10-9--7--9--10-9--------------|----------10-9--7--9--10-9--------------|
D|----------------------------10--10-8----|----------------------------10--10-8----|
A|----------------------------------------|----------------------------------------|
E|----------------------------------------|----------------------------------------|


E|----------------------------------------|----------------------------------------|
B|-11-10-8--------------------------------|-11-10-8--------------------------------|
G|----------10-9--7--9--10-9--------------|----------10-9--7--9--10-9--------------|
D|----------------------------10--10-8----|----------------------------10--10-8----|
A|----------------------------------------|----------------------------------------|
E|----------------------------------------|----------------------------------------|


E|----------------------------------------|------------------------------|
B|-11-10-8--------------------------------|-11-10-8----------------------|
G|----------10-9--7--9--10-9--------------|----------10-9--7--9----------|
D|----------------------------10--10-8----|------------------------------|
A|----------------------------------------|------------------------------|
E|----------------------------------------|------------------------------|





Track 4: Dave Mustaine Solo 2

E|--------|--------|--------|--------|--------|--------|--------|--------|--------|
B|--------|--------|--------|--------|--------|--------|--------|--------|--------|
G|--------|--------|--------|--------|--------|--------|--------|--------|--------|
D|--------|--------|--------|--------|--------|--------|--------|--------|--------|
A|--------|--------|--------|--------|--------|--------|--------|--------|--------|
E|--------|--------|--------|--------|--------|--------|--------|--------|--------|


E|--------|--------|--------|--------|--------|--------|--------|--------|--------|
B|--------|--------|--------|--------|--------|--------|--------|--------|--------|
G|--------|--------|--------|--------|--------|--------|--------|--------|--------|
D|--------|--------|--------|--------|--------|--------|--------|--------|--------|
A|--------|--------|--------|--------|--------|--------|--------|--------|--------|
E|--------|--------|--------|--------|--------|--------|--------|--------|--------|


E|--------|--------|--------|--------|--------|--------|--------|--------|--------|
B|--------|--------|--------|--------|--------|--------|--------|--------|--------|
G|--------|--------|--------|--------|--------|--------|--------|--------|--------|
D|--------|--------|--------|--------|--------|--------|--------|--------|--------|
A|--------|--------|--------|--------|--------|--------|--------|--------|--------|
E|--------|--------|--------|--------|--------|--------|--------|--------|--------|


E|--------|--------|--------|--------|--------|--------|--------|--------|--------|
B|--------|--------|--------|--------|--------|--------|--------|--------|--------|
G|--------|--------|--------|--------|--------|--------|--------|--------|--------|
D|--------|--------|--------|--------|--------|--------|--------|--------|--------|
A|--------|--------|--------|--------|--------|--------|--------|--------|--------|
E|--------|--------|--------|--------|--------|--------|--------|--------|--------|


E|--------|--------|--------|--------|--------|--------|--------|--------|--------|
B|--------|--------|--------|--------|--------|--------|--------|--------|--------|
G|--------|--------|--------|--------|--------|--------|--------|--------|--------|
D|--------|--------|--------|--------|--------|--------|--------|--------|--------|
A|--------|--------|--------|--------|--------|--------|--------|--------|--------|
E|--------|--------|--------|--------|--------|--------|--------|--------|--------|


E|--------|--------|--------|--------|--------|--------|--------|--------|--------|
B|--------|--------|--------|--------|--------|--------|--------|--------|--------|
G|--------|--------|--------|--------|--------|--------|--------|--------|--------|
D|--------|--------|--------|--------|--------|--------|--------|--------|--------|
A|--------|--------|--------|--------|--------|--------|--------|--------|--------|
E|--------|--------|--------|--------|--------|--------|--------|--------|--------|


E|--------|--------|--------|--------|--------|--------|--------|--------|--------|
B|--------|--------|--------|--------|--------|--------|--------|--------|--------|
G|--------|--------|--------|--------|--------|--------|--------|--------|--------|
D|--------|--------|--------|--------|--------|--------|--------|--------|--------|
A|--------|--------|--------|--------|--------|--------|--------|--------|--------|
E|--------|--------|--------|--------|--------|--------|--------|--------|--------|


E|--------|--------|--------|--------|--------|--------|--------|--------|--------|
B|--------|--------|--------|--------|--------|--------|--------|--------|--------|
G|--------|--------|--------|--------|--------|--------|--------|--------|--------|
D|--------|--------|--------|--------|--------|--------|--------|--------|--------|
A|--------|--------|--------|--------|--------|--------|--------|--------|--------|
E|--------|--------|--------|--------|--------|--------|--------|--------|--------|


E|--------|--------|--------|--------|--------|--------|--------|--------|--------|
B|--------|--------|--------|--------|--------|--------|--------|--------|--------|
G|--------|--------|--------|--------|--------|--------|--------|--------|--------|
D|--------|--------|--------|--------|--------|--------|--------|--------|--------|
A|--------|--------|--------|--------|--------|--------|--------|--------|--------|
E|--------|--------|--------|--------|--------|--------|--------|--------|--------|


E|--------|--------|--------|--------|--------|--------|--------|--------|--------|
B|--------|--------|--------|--------|--------|--------|--------|--------|--------|
G|--------|--------|--------|--------|--------|--------|--------|--------|--------|
D|--------|--------|--------|--------|--------|--------|--------|--------|--------|
A|--------|--------|--------|--------|--------|--------|--------|--------|--------|
E|--------|--------|--------|--------|--------|--------|--------|--------|--------|


E|--------|--------|--------|--------|--------|--------|--------|--------|--------|
B|--------|--------|--------|--------|--------|--------|--------|--------|--------|
G|--------|--------|--------|--------|--------|--------|--------|--------|--------|
D|--------|--------|--------|--------|--------|--------|--------|--------|--------|
A|--------|--------|--------|--------|--------|--------|--------|--------|--------|
E|--------|--------|--------|--------|--------|--------|--------|--------|--------|


E|--------|--------|--------|--------------|--------------|-----------------14-------------------|
B|--------|--------|--------|--------------|--------------|---------------------17---------------|
G|--------|--------|--------|--------------|--------------|---------14--16---------17-16--17--16-|
D|--------|--------|--------|--------------|--------------|--------------------------------------|
A|--------|--------|--------|--------------|--------------|--------------------------------------|
E|--------|--------|--------|--------------|--------------|--------------------------------------|


E|---------------------------------------14-----|---------14--18--18--18---18---18--|
B|------------------------------------------17--|-----------------------------------|
G|----14--17--16--14--17--16--14--16--17--------|-14-16-----------------------------|
D|----------------------------------------------|-----------------------------------|
A|----------------------------------------------|-----------------------------------|
E|----------------------------------------------|-----------------------------------|


E|----18---18---18---18---18---18--|-----18-------------|--------|--------|--------|
B|---------------------------------|--------------------|--------|--------|--------|
G|---------------------------------|--------------------|--------|--------|--------|
D|---------------------------------|--------------------|--------|--------|--------|
A|---------------------------------|--------------------|--------|--------|--------|
E|---------------------------------|--------------------|--------|--------|--------|


E|-------17--19--14---------------------|--------------------17--19--14---------------------|
B|-------------------17--19--14------14-|----17--14--19--14--------------17--19--14------14-|
G|-------------------------------17-----|--------------------------------------------17-----|
D|--------------------------------------|---------------------------------------------------|
A|--------------------------------------|---------------------------------------------------|
E|--------------------------------------|---------------------------------------------------|


E|--------------------17--19--14---------------------|--------------------17--19--14---------------------|
B|----17--14--19--14--------------17--19--14------14-|----17--14--19--14--------------17--19--14------14-|
G|--------------------------------------------17-----|--------------------------------------------17-----|
D|---------------------------------------------------|---------------------------------------------------|
A|---------------------------------------------------|---------------------------------------------------|
E|---------------------------------------------------|---------------------------------------------------|


E|------------------------------|--------|--------|--------|--------|--------|--------|
B|----17--14--19--14------------|--------|--------|--------|--------|--------|--------|
G|------------------------------|--------|--------|--------|--------|--------|--------|
D|------------------------------|--------|--------|--------|--------|--------|--------|
A|------------------------------|--------|--------|--------|--------|--------|--------|
E|------------------------------|--------|--------|--------|--------|--------|--------|


E|--------|--------|--------|--------|--------|--------|--------|--------|--------|
B|--------|--------|--------|--------|--------|--------|--------|--------|--------|
G|--------|--------|--------|--------|--------|--------|--------|--------|--------|
D|--------|--------|--------|--------|--------|--------|--------|--------|--------|
A|--------|--------|--------|--------|--------|--------|--------|--------|--------|
E|--------|--------|--------|--------|--------|--------|--------|--------|--------|


E|--------|--------|--------|--------|--------|--------|--------|--------|--------|
B|--------|--------|--------|--------|--------|--------|--------|--------|--------|
G|--------|--------|--------|--------|--------|--------|--------|--------|--------|
D|--------|--------|--------|--------|--------|--------|--------|--------|--------|
A|--------|--------|--------|--------|--------|--------|--------|--------|--------|
E|--------|--------|--------|--------|--------|--------|--------|--------|--------|


E|--------|--------|--------|--------|--------|--------|--------|--------|--------|
B|--------|--------|--------|--------|--------|--------|--------|--------|--------|
G|--------|--------|--------|--------|--------|--------|--------|--------|--------|
D|--------|--------|--------|--------|--------|--------|--------|--------|--------|
A|--------|--------|--------|--------|--------|--------|--------|--------|--------|
E|--------|--------|--------|--------|--------|--------|--------|--------|--------|


E|--------|--------|--------|--------|--------|--------|--------|--------|--------|
B|--------|--------|--------|--------|--------|--------|--------|--------|--------|
G|--------|--------|--------|--------|--------|--------|--------|--------|--------|
D|--------|--------|--------|--------|--------|--------|--------|--------|--------|
A|--------|--------|--------|--------|--------|--------|--------|--------|--------|
E|--------|--------|--------|--------|--------|--------|--------|--------|--------|


E|--------|--------|--------|--------|--------|--------|--------|--------|--------|
B|--------|--------|--------|--------|--------|--------|--------|--------|--------|
G|--------|--------|--------|--------|--------|--------|--------|--------|--------|
D|--------|--------|--------|--------|--------|--------|--------|--------|--------|
A|--------|--------|--------|--------|--------|--------|--------|--------|--------|
E|--------|--------|--------|--------|--------|--------|--------|--------|--------|


E|--------|--------|--------|--------|--------|--------|--------|--------|--------|
B|--------|--------|--------|--------|--------|--------|--------|--------|--------|
G|--------|--------|--------|--------|--------|--------|--------|--------|--------|
D|--------|--------|--------|--------|--------|--------|--------|--------|--------|
A|--------|--------|--------|--------|--------|--------|--------|--------|--------|
E|--------|--------|--------|--------|--------|--------|--------|--------|--------|


E|--------|--------|--------|
B|--------|--------|--------|
G|--------|--------|--------|
D|--------|--------|--------|
A|--------|--------|--------|
E|--------|--------|--------|





Track 5: Untitled

G|-------------|-------------|-------------|-------------|-------------|-------------|
D|-------------|-------------|-------------|-------------|-------------|-------------|
A|-0-----------|-------------|-------------|-7------5----|-------3-----|------2------|
E|--------3----|-------2-----|------1------|-------------|-------------|-------------|


G|-------------|-------------|-----------------|-------------|-------------|-------------|
D|-------------|-------------|-----------------|-------------|-------------|-------------|
A|-0------2----|-------3-----|-----------------|-------------|-------------|-------------|
E|-------------|-------------|------3-----2----|-1------1----|-------1-----|------1------|


G|-------------|-------------|-------------|-------------|-------------|-------------|
D|-------------|-------------|-------------|-------------|-------------|-------------|
A|-0------2----|-------3-----|------5------|-5------0----|-------2-----|------3------|
E|-------------|-------------|-------------|-------------|-------------|-------------|


G|-------------|-------------|-------------|-------------|-------------|-------------|
D|-------------|-------------|-------------|-------------|-------------|-------------|
A|-5------5----|-------0-----|------2------|-3------5----|-------5-----|------0------|
E|-------------|-------------|-------------|-------------|-------------|-------------|


G|-------------|-------------|-------------|---------------------------------|---------------------------------|
D|-------------|-------------|-------------|---------------------------------|---------------------------------|
A|-2------3----|-------5-----|------5------|-------------------------3---3---|-3---3---------------------------|
E|-------------|-------------|-------------|-0---0---0---0---0---0-----------|---------4---4---3---3---3---3---|


G|---------------------------------|---------------------------------|-----------------------------------|
D|---------------------------------|---------------------------------|-----------------------------------|
A|---------------------------------|---------------------------------|-----------------------------------|
E|-2---2---1---1---1---1---1---1---|-1---0--------0--3---0--------0--|-5---0--------0--6---0--0---5--6---|


G|---------------------------------|-----------------------------------|---------------------------------|
D|---------------------------------|-----------------------------------|---------------------------------|
A|---------------------------------|-----------------------------------|---------------------------------|
E|-1---0--------0--3---0--------0--|-5---0--------0--6---0--0---5--6---|-1---0--------0--3---0--------0--|


G|-----------------------------------|---------------------------------|-----------------------------------|
D|-----------------------------------|---------------------------------|-----------------------------------|
A|-----------------------------------|---------------------------------|-----------------------------------|
E|-5---0--------0--6---0--0---5--6---|-1---0--------0--3---0--------0--|-5---0--------0--6---0--0---5--6---|


G|---------------------------------|---------------------------------|---------------------------------|
D|---------------------------------|---------------------------------|---------------------------------|
A|---------------------------------|---------------------------------|---------------------------------|
E|-1---0---3---0---5---0---6---1---|-1---0---3---0---5---0---6---1---|-1---0---3---0---5---0---6---1---|


G|--------|-------------|-------------|-------------|-------------|-------------|-------------|
D|--------|-------------|-------------|-------------|-------------|-------------|-------------|
A|--------|-0------2----|-------3-----|------5------|-5------0----|-------2-----|------3------|
E|-1------|-------------|-------------|-------------|-------------|-------------|-------------|


G|-------------|-------------|-------------|-------------|-------------|-------------|
D|-------------|-------------|-------------|-------------|-------------|-------------|
A|-5------5----|-------0-----|------2------|-3------5----|-------5-----|------0------|
E|-------------|-------------|-------------|-------------|-------------|-------------|


G|-------------|-------------|-------------|---------------------------------|---------------------------------|
D|-------------|-------------|-------------|---------------------------------|---------------------------------|
A|-2------3----|-------5-----|------5------|-------------------------3---3---|-3---3---------------------------|
E|-------------|-------------|-------------|-0---0---0---0---0---0-----------|---------4---4---3---3---3---3---|


G|---------------------------------|---------------------------------|-----------------------------------|
D|---------------------------------|---------------------------------|-----------------------------------|
A|---------------------------------|---------------------------------|-----------------------------------|
E|-2---2---1---1---1---1---1---1---|-1---0--------0--3---0--------0--|-5---0--------0--6---0--0---5--6---|


G|---------------------------------|-----------------------------------|---------------------------------|
D|---------------------------------|-----------------------------------|---------------------------------|
A|---------------------------------|-----------------------------------|---------------------------------|
E|-1---0--------0--3---0--------0--|-5---0--------0--6---0--0---5--6---|-1---0--------0--3---0--------0--|


G|-----------------------------------|---------------------------------|-----------------------------------|
D|-----------------------------------|---------------------------------|-----------------------------------|
A|-----------------------------------|---------------------------------|-----------------------------------|
E|-5---0--------0--6---0--0---5--6---|-1---0--------0--3---0--------0--|-5---0--------0--6---0--0---5--6---|


G|---------------------------------|-----------------------------------|---------------------------------|
D|---------------------------------|-----------------------------------|---------------------------------|
A|---------------------------------|-----------------------------------|---------------------------------|
E|-1---0--------0--3---0--------0--|-5---0--------0--6---0--0---5--6---|-1---0--------0--3---0--------0--|


G|-----------------------------------|---------------------------------|-----------------------------------|
D|-----------------------------------|---------------------------------|-----------------------------------|
A|-----------------------------------|---------------------------------|-----------------------------------|
E|-5---0--------0--6---0--0---5--6---|-1---0--------0--3---0--------0--|-5---0--------0--6---0--0---5--6---|


G|---------------------------------|-----------------------------------|---------------------------------|
D|---------------------------------|-----------------------------------|---------------------------------|
A|---------------------------------|-----------------------------------|---------------------------------|
E|-1---0--------0--3---0--------0--|-5---0--------0--6---0--0---5--6---|-1---0---3---0---5---0---6---1---|


G|---------------------------------|------------------------------|------------------------------|
D|---------------------------------|------------------------------|------------------------------|
A|---------------------------------|------------------------------|------------------------------|
E|-1---0---3---0---5---0---6---1---|-1---0---3---0---5---0---6----|-0----3---0---0---5---0---3---|


G|------------------------------|------------------------------|------------------------------|
D|------------------------------|------------------------------|------------------------------|
A|------------------------------|------------------------------|------------------------------|
E|-0----3---0---0---5---0---6---|-0----3---0---0---5---0---3---|-0----3---0---0---5---0---6---|


G|------------------------------|------------------------------|------------------------------|
D|------------------------------|------------------------------|------------------------------|
A|------------------------------|------------------------------|------------------------------|
E|-0----3---0---0---5---0---3---|-0----3---0---0---5---0---6---|-0----3---0---0---5---0---3---|


G|------------------------------|------------------------------------------------------|
D|------------------------------|------------------------------------------------------|
A|------------------------------|-7--8-------------------------------------------------|
E|-0----3---0---0---5---0---6---|-------0--8--7--0--6---6---0--0--0--0--0--0--0--0--0--|


G|------------------------------------------------------|------------------------------------------------------|
D|------------------------------------------------------|------------------------------------------------------|
A|-7--8-------------------------------------------------|-7--8-------------------------------------------------|
E|-------0--8--7--0--6---6---0--0--0--0--0--0--0--0--0--|-------0--8--7--0--6---6---0--0--0--0--0--0--0--0--0--|


G|------------------------------------------------------|------------------------------------------------------|
D|------------------------------------------------------|------------------------------------------------------|
A|-7--8-------------------------------------------------|-7--8-------------------------------------------------|
E|-------0--8--7--0--6---6---0--0--0--0--0--0--0--0--0--|-------0--8--7--0--6---6---0--0--0--0--0--0--0--0--0--|


G|------------------------------------------------------|------------------------------------------------------|
D|------------------------------------------------------|------------------------------------------------------|
A|-7--8-------------------------------------------------|-7--8-------------------------------------------------|
E|-------0--8--7--0--6---6---0--0--0--0--0--0--0--0--0--|-------0--8--7--0--6---6---0--0--0--0--0--0--0--0--0--|


G|-------------------------------------|-----------------|---------------------------|
D|-------------------------------------|-----------------|---------------------------|
A|-7---8-------------------------------|-----------------|---------------------------|
E|---------0---8---7---6---0---8---6---|-------6-----6---|-------3---0---0---5-------|


G|---------------------------------|---------------------------------|---------------------------------|
D|---------------------------------|---------------------------------|---------------------------------|
A|---------------------------------|---------------------------------|---------------------------------|
E|-0---0---6-------0---0---0---0---|-0---0---0---3---0---0---5-------|-0---0---6-------0---0---0---0---|


G|---------------------------------|---------------------------------|---------------------------------|
D|---------------------------------|---------------------------------|---------------------------------|
A|---------------------------------|---------------------------------|---------------------------------|
E|-0---0---0---3---0---0---5-------|-0---0---6-------0---0---0---0---|-0---0---0---3---0---0---5-------|


G|---------------------------------|---------------------------------|---------------------------------|
D|---------------------------------|---------------------------------|---------------------------------|
A|---------------------------------|-------------------------2-------|---------3-----------------------|
E|-0---0---6-------0---0---0---0---|-0---0---0---5---2---2-----------|-2---2-----------2---2---2---2---|


G|---------------------------------|---------------------------------|---------------------------------|
D|---------------------------------|---------------------------------|---------------------------------|
A|-------------------------2-------|---------3-----------------------|---------------------------------|
E|-2---2---2---5---2---2-----------|-2---2-----------2---2---2---2---|-2---2---2---3---0---0---5-------|


G|---------------------------------|---------------------------------|---------------------------------|
D|---------------------------------|---------------------------------|---------------------------------|
A|---------------------------------|---------------------------------|---------------------------------|
E|-0---0---6-------0---0---0---0---|-0---0---0---3---0---0---5-------|-0---0---6-------0---0---0---0---|


G|---------------------------------|---------------------------------|---------------------------------|
D|---------------------------------|---------------------------------|---------------------------------|
A|-------------------------2-------|---------3-----------------------|-------------------------2-------|
E|-0---0---0---5---2---2-----------|-2---2-----------2---2---2---2---|-2---2---2---5---2---2-----------|


G|---------------------------------|---------------------------------|---------------------------------|
D|---------------------------------|---------------------------------|---------------------------------|
A|---------3-----------------------|---------------------------------|---------------------------------|
E|-2---2-----------2---2---2---2---|-2---2---2---3---0---0---5-------|-0---0---6-------0---0---0---0---|


G|---------------------------------|---------------------------------|--------------------|
D|---------------------------------|---------------------------------|--------------------|
A|---------------------------------|---------------------------------|-------------7------|
E|-0---0---0---3---0---0---5-------|-0---0---6-------0---0---0---0---|-0---0---0----------|


G|----------------|-----------------|--------------|----------------|-----------------|
D|----------------|-----------------|--------------|----------------|-----------------|
A|-----5------3---|-----------2-----|-------0------|----------------|-----------------|
E|----------------|-----------------|--------------|-----3------2---|-----------1-----|


G|--------------|----------------|-----------------|-------------------------------------|
D|--------------|----------------|-----------------|-------------------------------------|
A|--------------|----------------|-----------------|-------------------------------------|
E|-------0------|-----0------0---|-----------0-----|-------0--0--0--0--2--3--0--0--0--0--|


G|-------------------------------------------------|-------------------------------------------------|
D|-------------------------------------------------|-------------------------------------------------|
A|-------------------------------------------------|-------------------------------------------------|
E|-3--5--0--0--2--3--0--0--0--0--2--3--0--0--0--0--|-3--5--0--0--5--6--0--0--0--0--2--3--0--0--0--0--|


G|-------------------------------------------------|-------------------------------------------------|
D|-------------------------------------------------|-------------------------------------------------|
A|-------------------------------------------------|-------------------------------------------------|
E|-3--5--0--0--2--3--0--0--0--0--2--3--0--0--0--0--|-3--5--0--0--5--6--0--0--0--0--2--3--0--0--0--0--|


G|-------------------------------------------------|-------------------------------------------------|
D|-------------------------------------------------|-------------------------------------------------|
A|-------------------------------------------------|-------------------------------------------------|
E|-3--5--0--0--2--3--0--0--0--0--2--3--0--0--0--0--|-3--5--0--0--5--6--0--0--0--0--2--3--0--0--0--0--|


G|-------------------------------------------------|------------------------------------------|
D|-------------------------------------------------|------------------------------------------|
A|-------------------------------------------------|-------------------7--8-------------------|
E|-3--5--0--0--2--3--0--0--0--0--2--3--0--0--0--0--|-3--5--0--0--5--6--------0--8--7--0--6----|


G|------------------------------------------|------------------------------------------|
D|------------------------------------------|------------------------------------------|
A|-------------------7--8-------------------|-------------------7--8-------------------|
E|-0--0--0--0--0--0--------0--8--7--0--6----|-0--0--0--0--0--0--------0--8--7--0--6----|


G|------------------------------------------|-------------------------------------------------|
D|------------------------------------------|-------------------------------------------------|
A|-------------------7--8-------------------|-------------------------------------------------|
E|-0--0--0--0--0--0--------0--8--7--0--6----|-0--0--0--0--0--0--0--0--0--0--2--3--0--0--0--0--|


G|-------------------------------------------------|-------------------------------------------------|
D|-------------------------------------------------|-------------------------------------------------|
A|-------------------------------------------------|-------------------------------------------------|
E|-3--5--0--0--2--3--0--0--0--0--2--3--0--0--0--0--|-3--5--0--0--5--6--0--0--0--0--2--3--0--0--0--0--|


G|-------------------------------------------------|-------------------------------------------------|
D|-------------------------------------------------|-------------------------------------------------|
A|-------------------------------------------------|-------------------------------------------------|
E|-3--5--0--0--2--3--0--0--0--0--2--3--0--0--0--0--|-3--5--0--0--5--6--0--0--0--0--2--3--0--0--0--0--|


G|-------------------------------------------------|-------------------------------------------------|
D|-------------------------------------------------|-------------------------------------------------|
A|-------------------------------------------------|-------------------------------------------------|
E|-3--5--0--0--2--3--0--0--0--0--2--3--0--0--0--0--|-3--5--0--0--5--6--0--0--0--0--2--3--0--0--0--0--|


G|-------------------------------------------------|------------------------------------------|
D|-------------------------------------------------|------------------------------------------|
A|-------------------------------------------------|-------------------7--8-------------------|
E|-3--5--0--0--2--3--0--0--0--0--2--3--0--0--0--0--|-3--5--0--0--5--6--------0--8--7--0--6----|


G|------------------------------------------|------------------------------------------|
D|------------------------------------------|------------------------------------------|
A|-------------------7--8-------------------|-------------------7--8-------------------|
E|-0--0--0--0--0--0--------0--8--7--0--6----|-0--0--0--0--0--0--------0--8--7--0--6----|


G|------------------------------------------|-------------------------------------------------|
D|------------------------------------------|-------------------------------------------------|
A|-------------------7--8-------------------|-------------------------------------------------|
E|-0--0--0--0--0--0--------0--8--7--0--6----|-0--0--0--0--0--0--0--0--0--0--2--3--0--0--0--0--|


G|-------------------------------------------------|-------------------------------------------------|
D|-------------------------------------------------|-------------------------------------------------|
A|-------------------------------------------------|-------------------------------------------------|
E|-3--5--0--0--2--3--0--0--0--0--2--3--0--0--0--0--|-3--5--0--0--5--6--0--0--0--0--2--3--0--0--0--0--|


G|-------------------------------------------------|-------------------------------------------------|
D|-------------------------------------------------|-------------------------------------------------|
A|-------------------------------------------------|-------------------------------------------------|
E|-3--5--0--0--2--3--0--0--0--0--2--3--0--0--0--0--|-3--5--0--0--5--6--0--0--0--0--2--3--0--0--0--0--|


G|-------------------------------------------------|-------------------------------------------------|
D|-------------------------------------------------|-------------------------------------------------|
A|-------------------------------------------------|-------------------------------------------------|
E|-3--5--0--0--2--3--0--0--0--0--2--3--0--0--0--0--|-3--5--0--0--5--6--0--0--0--0--2--3--0--0--0--0--|


G|-------------------------------------------------|------------------------------------------|
D|-------------------------------------------------|------------------------------------------|
A|-------------------------------------------------|-------------------7--8-------------------|
E|-3--5--0--0--2--3--0--0--0--0--2--3--0--0--0--0--|-3--5--0--0--5--6--------0--8--7--0--6----|


G|------------------------------------------|------------------------------------------|
D|------------------------------------------|------------------------------------------|
A|-------------------7--8-------------------|-------------------7--8-------------------|
E|-0--0--0--0--0--0--------0--8--7--0--6----|-0--0--0--0--0--0--------0--8--7--0--6----|


G|------------------------------------------|-------------------------------------------------|
D|------------------------------------------|-------------------------------------------------|
A|-------------------7--8-------------------|-------------------------------------------------|
E|-0--0--0--0--0--0--------0--8--7--0--6----|-0--0--0--0--0--0--0--0--0--0--2--3--0--0--0--0--|


G|-------------------------------------------------|-------------------------------------------------|
D|-------------------------------------------------|-------------------------------------------------|
A|-------------------------------------------------|-------------------------------------------------|
E|-3--5--0--0--2--3--0--0--0--0--2--3--0--0--0--0--|-3--5--0--0--5--6--0--0--0--0--2--3--0--0--0--0--|


G|-------------------------------------------------|-------------------------------------------------|
D|-------------------------------------------------|-------------------------------------------------|
A|-------------------------------------------------|-------------------------------------------------|
E|-3--5--0--0--2--3--0--0--0--0--2--3--0--0--0--0--|-3--5--0--0--5--6--0--0--0--0--2--3--0--0--0--0--|


G|-------------------------------------------------|-------------------------------------------------|
D|-------------------------------------------------|-------------------------------------------------|
A|-------------------------------------------------|-------------------------------------------------|
E|-3--5--0--0--2--3--0--0--0--0--2--3--0--0--0--0--|-3--5--0--0--5--6--0--0--0--0--2--3--0--0--0--0--|


G|-------------------------------------------------|------------------------------------------|
D|-------------------------------------------------|------------------------------------------|
A|-------------------------------------------------|-------------------7--8-------------------|
E|-3--5--0--0--2--3--0--0--0--0--2--3--0--0--0--0--|-3--5--0--0--5--6--------0--8--7--0--6----|


G|------------------------------------------|------------------------------------------|
D|------------------------------------------|------------------------------------------|
A|-------------------7--8-------------------|-------------------7--8-------------------|
E|-0--0--0--0--0--0--------0--8--7--0--6----|-0--0--0--0--0--0--------0--8--7--0--6----|


G|------------------------------------------|------------------------------------------|
D|------------------------------------------|------------------------------------------|
A|-------------------7--8-------------------|-------------------7--8-------------------|
E|-0--0--0--0--0--0--------0--8--7--0--6----|-0--0--0--0--0--0--------0--8--7--0--6----|


G|------------------------------------------|------------------------------|
D|------------------------------------------|------------------------------|
A|-------------------7--8-------------------|------------------------------|
E|-0--0--0--0--0--0--------0--8--7--0--6----|-0--0--0--0--0--0--0----------|