Menu:

 

Search:

 

megadeth - trust:

 



Title: Trust
Artist: 
Album: Cryptic Writings
Author: Dave Mustaine, Marty Friedman


Track 1: Strings

E|--------|--------|--------|--------|--------|--------|--------|--------|--------|
B|--------|--------|--------|--------|--------|--------|--------|--------|--------|
G|--------|--------|--------|--------|--------|--------|--------|--------|-9------|
D|--------|--------|--------|--------|--------|--------|--------|--------|--------|
A|--------|--------|--------|--------|--------|--------|--------|--------|-7------|
E|--------|--------|--------|--------|--------|--------|--------|--------|--------|


E|--------|------------|--------------------|--------|--------|------------|--------------------|
B|--------|------------|--------------------|--------|--------|------------|--------------------|
G|-9------|-9------7---|-7----7---7---12----|-9------|-9------|-9------7---|-7----7---7---12----|
D|--------|------------|--------------------|--------|--------|------------|--------------------|
A|-7------|-7------5---|-5----5---5---10----|-7------|-7------|-7------5---|-5----5---5---10----|
E|--------|------------|--------------------|--------|--------|------------|--------------------|


E|--------|--------|------------|--------------------|--------|--------|------------|
B|--------|--------|------------|--------------------|--------|--------|------------|
G|-9------|-9------|-9------10--|-10---10--10--12----|-9------|-9------|-9------7---|
D|--------|--------|------------|--------------------|--------|--------|------------|
A|-7------|-7------|-7------8---|-8----8---8---10----|-7------|-7------|-7------5---|
E|--------|--------|------------|--------------------|--------|--------|------------|


E|--------------------|--------|--------|------------|--------------------|--------|
B|--------------------|--------|--------|------------|--------------------|--------|
G|-7----7---7---12----|-9------|-9------|-9------10--|-10---10--10--12----|-9------|
D|--------------------|--------|--------|------------|--------------------|--------|
A|-5----5---5---10----|-7------|-7------|-7------8---|-8----8---8---10----|-7------|
E|--------------------|--------|--------|------------|--------------------|--------|


E|--------|------------|----------------|--------|--------|--------|--------|--------|
B|--------|------------|----------------|--------|--------|--------|--------|--------|
G|-9------|-9------10--|-10-----10--14--|-14-----|--------|--------|--------|--------|
D|--------|------------|----------------|--------|--------|--------|--------|--------|
A|-7------|-7------8---|-8------8---12--|-12-----|--------|--------|--------|--------|
E|--------|------------|----------------|--------|--------|--------|--------|--------|


E|--------|--------|--------|--------|--------|--------|--------|--------|--------|
B|--------|--------|--------|--------|--------|--------|--------|--------|--------|
G|--------|--------|--------|--------|--------|--------|--------|--------|--------|
D|--------|--------|--------|--------|--------|--------|--------|--------|--------|
A|--------|--------|--------|--------|--------|--------|--------|--------|--------|
E|--------|--------|--------|--------|--------|--------|--------|--------|--------|


E|--------|--------|--------19--|-19-----15--|-15-----17--|-17---------|-------20---20--19--|
B|--------|--------|------------|------------|------------|--------18--|-18-----------------|
G|--------|--------|------------|------------|------------|------------|--------------------|
D|--------|--------|------------|------------|------------|------------|--------------------|
A|--------|--------|------------|------------|------------|------------|--------------------|
E|--------|--------|------------|------------|------------|------------|--------------------|


E|-19---------|----------17------17------17--|-17----------17--|-17-------------|--------|
B|--------17--|-17---17----------------------|-------17--------|-----18--18-----|--------|
G|------------|------------------------------|-----------------|----------------|-9------|
D|------------|------------------------------|-----------------|----------------|--------|
A|------------|------------------------------|-----------------|----------------|-7------|
E|------------|------------------------------|-----------------|----------------|--------|


E|--------|------------|--------------------|--------|--------|------------|--------------------|
B|--------|------------|--------------------|--------|--------|------------|--------------------|
G|-9------|-9------7---|-7----7---7---12----|-9------|-9------|-9------7---|-7----7---7---15----|
D|--------|------------|--------------------|--------|--------|------------|--------------------|
A|-7------|-7------5---|-5----5---5---10----|-7------|-7------|-7------5---|-5----5---5---13----|
E|--------|------------|--------------------|--------|--------|------------|--------------------|


E|--------|--------|--------|--------|--------|--------|--------|--------19--|-19-----15--|
B|--------|--------|--------|--------|--------|--------|--------|------------|------------|
G|--------|--------|--------|--------|--------|--------|--------|------------|------------|
D|--------|--------|--------|--------|--------|--------|--------|------------|------------|
A|--------|--------|--------|--------|--------|--------|--------|------------|------------|
E|--------|--------|--------|--------|--------|--------|--------|------------|------------|


E|-15-----17--|-17---------|-------20---20--19--|-19---------|----------17------17------17--|
B|------------|--------18--|-18-----------------|--------17--|-17---17----------------------|
G|------------|------------|--------------------|------------|------------------------------|
D|------------|------------|--------------------|------------|------------------------------|
A|------------|------------|--------------------|------------|------------------------------|
E|------------|------------|--------------------|------------|------------------------------|


E|-17----------17--|-17-------------|--------|--------|------------|--------------------|
B|-------17--------|-----18--18-----|--------|--------|------------|--------------------|
G|-----------------|----------------|-9------|-9------|-9------7---|-7----7---7---12----|
D|-----------------|----------------|--------|--------|------------|--------------------|
A|-----------------|----------------|-7------|-7------|-7------5---|-5----5---5---10----|
E|-----------------|----------------|--------|--------|------------|--------------------|


E|--------|--------|------------|--------------------|--------|--------|------------|
B|--------|--------|------------|--------------------|--------|--------|------------|
G|-16-----|-16-----|-16-----7---|-7----7---7---12----|-9------|-9------|-9------7---|
D|--------|--------|------------|--------------------|--------|--------|------------|
A|-14-----|-14-----|-14-----5---|-5----5---5---10----|-7------|-7------|-7------5---|
E|--------|--------|------------|--------------------|--------|--------|------------|


E|--------------------|--------|--------|------------|--------|--------|--------|--------|
B|--------------------|--------|--------|------------|--------|--------|--------|--------|
G|-7----7---7---12----|-9------|-9------|-9----------|--------|--------|--------|--------|
D|--------------------|--------|--------|------------|--------|--------|--------|--------|
A|-5----5---5---10----|-7------|-7------|-7----------|--------|--------|--------|--------|
E|--------------------|--------|--------|------------|--------|--------|--------|--------|


E|--------|-------------|-------------|-------------|-------------|--------|--------------------|
B|--------|-------------|-------------|-------------|-------------|--------|--------------------|
G|--------|-12----9-----|-16----9-----|-12----9-----|-7-----2-----|-9------|-8-----8---17--17---|
D|--------|-------------|-------------|-------------|-------------|--------|--------------------|
A|--------|-10----7-----|-14----7-----|-10----7-----|-5-----0-----|-7------|-6-----6---15--15---|
E|--------|-------------|-------------|-------------|-------------|--------|--------------------|


E|------------|--------|-------------|--------|-------------|--------|--------|--------|
B|------------|--------|-------------|--------|-------------|--------|--------|--------|
G|-15-----15--|-18-----|-14----17----|-22-----|-21----------|--------|--------|--------|
D|------------|--------|-------------|--------|-------------|--------|--------|--------|
A|-13-----13--|-16-----|-12----15----|-20-----|-19----------|--------|--------|--------|
E|------------|--------|-------------|--------|-------------|--------|--------|--------|


E|--------|--------|--------|--------|--------|--------|--------|--------|--------|
B|--------|--------|--------|--------|--------|--------|--------|--------|--------|
G|--------|--------|--------|--------|--------|--------|--------|--------|--------|
D|--------|--------|--------|--------|--------|--------|--------|--------|--------|
A|--------|--------|--------|--------|--------|--------|--------|--------|--------|
E|--------|--------|--------|--------|--------|--------|--------|--------|--------|


E|--------|--------|--------|--------|--------|--------|--------|--------|--------|
B|--------|--------|--------|--------|--------|--------|--------|--------|--------|
G|--------|--------|--------|--------|--------|--------|--------|--------|--------|
D|--------|--------|--------|--------|--------|--------|--------|--------|--------|
A|--------|--------|--------|--------|--------|--------|--------|--------|--------|
E|--------|--------|--------|--------|--------|--------|--------|--------|--------|


E|--------|-------------|-------------|-------------|------------------------|-------------|
B|--------|-------------|-------------|-------------|------------------------|-------------|
G|--------|-------9-----|-------9-----|-------9-----|-------7---7----7---7---|-12----9-----|
D|--------|-------------|-------------|-------------|------------------------|-------------|
A|--------|-------7-----|-------7-----|-------7-----|-------5---5----5---5---|-10----7-----|
E|--------|-------------|-------------|-------------|------------------------|-------------|


E|-------------|-------------|------------------------|-------------|-------------|
B|-------------|-------------|------------------------|-------------|-------------|
G|-------9-----|-------9-----|-------7---7----7---7---|-12----9-----|-------9-----|
D|-------------|-------------|------------------------|-------------|-------------|
A|-------7-----|-------7-----|-------5---5----5---5---|-10----7-----|-------7-----|
E|-------------|-------------|------------------------|-------------|-------------|


E|-------------|------------------------|-------------|-------------|-------------|
B|-------------|------------------------|-------------|-------------|-------------|
G|-------9-----|-------7---7----7---7---|-12----9-----|-------9-----|-------9-----|
D|-------------|------------------------|-------------|-------------|-------------|
A|-------7-----|-------5---5----5---5---|-10----7-----|-------7-----|-------7-----|
E|-------------|------------------------|-------------|-------------|-------------|


E|------------------------|-------------|-------------|-------------|------------------------|
B|------------------------|-------------|-------------|-------------|------------------------|
G|-------7---7----7---7---|-12----9-----|-------9-----|-------9-----|-------7---7----7---7---|
D|------------------------|-------------|-------------|-------------|------------------------|
A|-------5---5----5---5---|-10----7-----|-------7-----|-------7-----|-------5---5----5---5---|
E|------------------------|-------------|-------------|-------------|------------------------|


E|-------------|-------------|-------------|------------------------|-------------|
B|-------------|-------------|-------------|------------------------|-------------|
G|-12----9-----|-------9-----|-------9-----|-------7---7----7---7---|-12----9-----|
D|-------------|-------------|-------------|------------------------|-------------|
A|-10----7-----|-------7-----|-------7-----|-------5---5----5---5---|-10----7-----|
E|-------------|-------------|-------------|------------------------|-------------|


E|-------------|-------------|---------------------------|-------------|-------------|
B|-------------|-------------|---------------------------|-------------|-------------|
G|-------9-----|-------9-----|------9---15--15---15--15--|-14----9-----|-------9-----|
D|-------------|-------------|---------------------------|-------------|-------------|
A|-------7-----|-------7-----|------7---13--13---13--13--|-12----7-----|-------7-----|
E|-------------|-------------|---------------------------|-------------|-------------|


E|-------------|---------------------------|-----------------|
B|-------------|---------------------------|-----------------|
G|-------9-----|------9---15--15---15--15--|-19----9---------|
D|-------------|---------------------------|-----------------|
A|-------7-----|------7---13--13---13--13--|-17----7---------|
E|-------------|---------------------------|-----------------|





Track 2: Distortion Guitar 1

E|--------|--------|--------|--------|--------|--------|--------|--------|--------|
B|--------|--------|--------|--------|--------|--------|--------|--------|--------|
G|--------|--------|--------|--------|--------|--------|--------|--------|--------|
D|--------|--------|--------|--------|--------|--------|--------|--------|--------|
A|--------|--------|--------|--------|--------|--------|--------|--------|--------|
E|--------|--------|--------|--------|--------|--------|--------|--------|--------|


E|--------|--------|--------|--------|--------|--------|--------|--------12--|-12----12----------12--|
B|--------|--------|--------|--------|--------|--------|--------|------------|-----------12--12------|
G|--------|--------|--------|--------|--------|--------|--------|------------|-----------------------|
D|--------|--------|--------|--------|--------|--------|--------|------------|-----------------------|
A|--------|--------|--------|--------|--------|--------|--------|------------|-----------------------|
E|--------|--------|--------|--------|--------|--------|--------|------------|-----------------------|


E|-12----------12--12----------12--|--------|------------|-----12--12-------12--12------|
B|-----12--12----------12--12------|--------|--------12--|-12-----------------------12--|
G|---------------------------------|--------|------------|------------------------------|
D|---------------------------------|--------|------------|------------------------------|
A|---------------------------------|--------|------------|------------------------------|
E|---------------------------------|--------|------------|------------------------------|


E|-----12------------12---|--------|------------|-----12--12-------12--12------|-----12------------12---|
B|-12-----------12--------|--------|--------12--|-12-----------------------12--|-12-----------12--------|
G|------------------------|--------|------------|------------------------------|------------------------|
D|------------------------|--------|------------|------------------------------|------------------------|
A|------------------------|--------|------------|------------------------------|------------------------|
E|------------------------|--------|------------|------------------------------|------------------------|


E|--------|------------|-----12--12-------12--12------|-----12------------12--12--|
B|--------|--------12--|-12-----------------------12--|-12-----------12-----------|
G|--------|------------|------------------------------|---------------------------|
D|--------|------------|------------------------------|---------------------------|
A|--------|------------|------------------------------|---------------------------|
E|--------|------------|------------------------------|---------------------------|


E|-12-----|-12-----|---------------------------------|---------------------------------|
B|--------|--------|---------------------------------|---------------------------------|
G|--------|--------|---------------------------------|---------------------------------|
D|--------|--------|---------------------------------|---------------------------------|
A|--------|--------|-----7-------------------7-------|-------------7---7---------------|
E|--------|--------|-0-------8---7---7---0-------8---|-8---7---0-----------8---7---7---|


E|---------------------------------|---------------------------------|---------------------------------|
B|---------------------------------|---------------------------------|---------------------------------|
G|---------------------------------|---------------------------------|---------------------------------|
D|---------------------------------|---------------------------------|---------------------------------|
A|-----7-------------------7-------|-------------5-------------------|-----7-------------------7-------|
E|-0-------8---7---7---0-------6---|-6---5---0-------0---6---8---8---|-0-------8---7---7---0-------8---|


E|---------------------------------|---------------------------------|---------------------------------|
B|---------------------------------|---------------------------------|---------------------------------|
G|---------------------------------|---------------------------------|---------------------------------|
D|---------------------------------|---------------------------------|---------------------------------|
A|-------------7---7---------------|-----7-------------------7-------|-------------5-------------------|
E|-8---7---0-----------8---7---7---|-0-------8---7---7---0-------6---|-6---5---0-------0---6---8---8---|


E|---------------------------------|---------------------------------|---------------------------------|
B|-5---5---------------------------|---------------------------------|---------------------------------|
G|-4---4---------------------------|---------------------------------|---------------------------------|
D|-2---2-----------------------5---|-5---------------------------2---|-2-------------------------------|
A|-2---2---2---2---2---2---2---3---|-3---2---2---2---2---2---2---0---|-0---2---2---2---2---2---2---3---|
E|-0---0---0---0---0---0---0-------|-----0---0---0---0---0---0-------|-----0---0---0---0---0---0---1---|


E|---------------------------------|---------------------------------|---------------------------------|
B|-----------------------------5---|-5-------------------------------|---------------------------------|
G|-----------------------------4---|-4-------------------------------|---------------------------------|
D|-----------------------------2---|-2---------------------------5---|-5-----------4---4-----------2---|
A|-3---2---2---2---2---2---2---2---|-2---2---2---2---2---2---2---3---|-3---2---2---2---2---2---2---0---|
E|-1---0---0---0---0---0---0---0---|-0---0---0---0---0---0---0-------|-----0---0-----------0---0-------|


E|---------------------------------|---------------------------------|---------------------------------|
B|---------------------------------|-----------------------------5---|-5-------------------------------|
G|---------------------------------|-----------------------------4---|-4-------------------------------|
D|-2-------------------------------|-----------------------------2---|-2---------------------------5---|
A|-0---2---2---2---2---2---2---3---|-3---2---2---2---2---2---2---2---|-2---2---2---2---2---2---2---3---|
E|-----0---0---0---0---0---0---1---|-1---0---0---0---0---0---0---0---|-0---0---0---0---0---0---0-------|


E|---------------------------------|---------------------------------|---------------------------------|
B|---------------------------------|---------------------------------|-----------------------------5---|
G|---------------------------------|---------------------------------|-----------------------------4---|
D|-5---------------------------2---|-2-------------------------------|-----------------------------2---|
A|-3---2---2---2---2---2---2---0---|-0---2---2---2---2---2---2---3---|-3---2---2---2---2---2---2---2---|
E|-----0---0---0---0---0---0-------|-----0---0---0---0---0---0---1---|-1---0---0---0---0---0---0---0---|


E|---------------------------------|---------------------------------|---------------------------------|
B|-5-------------------------------|---------------------------------|---------------------------------|
G|-4-------------------------------|---------------------2-----------|---------------------------------|
D|-2---------------------------5---|-5-----------4-------0-------2---|-2-------------------------------|
A|-2---2---2---2---2---2---2---3---|-3---2---2---2---------------0---|-0---2---2---2---2---2---2---3---|
E|-0---0---0---0---0---0---0-------|-----0---0-----------------------|-----0---0---0---0---0---0---1---|


E|---------------------------------|---------------------------------|---------------------------------|
B|---------------------------------|---------------------------------|---------------------------------|
G|---------------------------------|---------------------------------|---------------------------------|
D|---------------------------------|---------------------------------|---------------------------------|
A|-3---3---3---3---3---3---3---3---|-----7-------------------7-------|-------------7---7---------------|
E|-1---1---1---1---1---1---1---1---|-0-------8---7---7---0-------8---|-8---7---0-----------8---7---7---|


E|---------------------------------|---------------------------------|---------------------------------|
B|---------------------------------|---------------------------------|---------------------------------|
G|---------------------------------|---------------------------------|---------------------------------|
D|---------------------------------|---------------------------------|---------------------------------|
A|-----7-------------------7-------|-------------5-------------------|-----7-------------------7-------|
E|-0-------8---7---7---0-------6---|-6---5---0-------0---6---8---8---|-0-------8---7---7---0-------8---|


E|---------------------------------|---------------------------------|---------------------------------|
B|---------------------------------|---------------------------------|---------------------------------|
G|---------------------------------|---------------------------------|---------------------------------|
D|---------------------------------|---------------------------------|---------------------------------|
A|-------------7---7---------------|-----7-------------------7-------|-------------5-------------------|
E|-8---7---0-----------8---7---7---|-0-------8---7---7---0-------6---|-6---5---0-----------6---8---8---|


E|---------------------------------|---------------------------------|---------------------------------|
B|-5---5---------------------------|---------------------------------|---------------------------------|
G|-4---4---------------------------|---------------------------------|---------------------------------|
D|-2---2-----------------------5---|-5---------------------------2---|-2-------------------------------|
A|-2---2---2---2---2---2---2---3---|-3---2---2---2---2---2---2---0---|-0---2---2---2---2---2---2---3---|
E|-0---0---0---0---0---0---0-------|-----0---0---0---0---0---0-------|-----0---0---0---0---0---0---1---|


E|---------------------------------|---------------------------------|---------------------------------|
B|-----------------------------5---|-5-------------------------------|---------------------------------|
G|-----------------------------4---|-4-------------------------------|---------------------------------|
D|-----------------------------2---|-2---------------------------5---|-5-----------4---4-----------2---|
A|-3---2---2---2---2---2---2---2---|-2---2---2---2---2---2---2---3---|-3---2---2---2---2---2---2---0---|
E|-1---0---0---0---0---0---0---0---|-0---0---0---0---0---0---0-------|-----0---0-----------0---0-------|


E|---------------------------------|---------------------------------|---------------------------------|
B|---------------------------------|-----------------------------5---|-5-------------------------------|
G|---------------------------------|-----------------------------4---|-4-------------------------------|
D|-2-------------------------------|-----------------------------2---|-2---------------------------5---|
A|-0---2---2---2---2---2---2---3---|-3---2---2---2---2---2---2---2---|-2---2---2---2---2---2---2---3---|
E|-----0---0---0---0---0---0---1---|-1---0---0---0---0---0---0---0---|-0---0---0---0---0---0---0-------|


E|---------------------------------|---------------------------------|---------------------------------|
B|---------------------------------|---------------------------------|-----------------------------5---|
G|---------------------------------|---------------------------------|-----------------------------4---|
D|-5---------------------------2---|-2-------------------------------|-----------------------------2---|
A|-3---2---2---2---2---2---2---0---|-0---2---2---2---2---2---2---3---|-3---2---2---2---2---2---2---2---|
E|-----0---0---0---0---0---0-------|-----0---0---0---0---0---0---1---|-1---0---0---0---0---0---0---0---|


E|---------------------------------|---------------------------------|---------------------------------|
B|-5-------------------------------|---------------------------------|---------------------------------|
G|-4-------------------------------|---------------------2-----------|---------------------------------|
D|-2---------------------------5---|-5-----------4-------0-------2---|-2-------------------------------|
A|-2---2---2---2---2---2---2---3---|-3---2---2---2---------------0---|-0---2---2---2---2---2---2---3---|
E|-0---0---0---0---0---0---0-------|-----0---0-----------------------|-----0---0---0---0---0---0---1---|


E|---------------------------------|---------------------------------|---------------------------------|
B|---------------------------------|---------------------------------|---------------------------------|
G|---------------------------------|---------------------------------|---------------------------------|
D|---------------------------------|---------------------------------|---------------------------------|
A|-3---3---3---3---3---3---3---3---|-----7-------------------7-------|-------------7---7---------------|
E|-1---1---1---1---1---1---1---1---|-0-------8---7---7---0-------8---|-8---7---0-----------8---7---7---|


E|---------------------------------|---------------------------------|---------------------------------|
B|---------------------------------|---------------------------------|---------------------------------|
G|---------------------------------|---------------------------------|---------------------------------|
D|---------------------------------|---------------------------------|---------------------------------|
A|-----7-------------------7-------|-------------5-------------------|-----7-------------------7-------|
E|-0-------8---7---7---0-------6---|-6---5---0-------0---6---8---8---|-0-------8---7---7---0-------8---|


E|---------------------------------|---------------------------------|---------------------------------|
B|---------------------------------|---------------------------------|---------------------------------|
G|---------------------------------|---------------------------------|---------------------------------|
D|---------------------------------|---------------------------------|---------------------------------|
A|-------------7---7---------------|-----7-------------------7-------|-------------5-------------------|
E|-8---7---0-----------8---7---7---|-0-------8---7---7---0-------6---|-6---5---0-------0---6---8---8---|


E|---------------------------------|---------------------------------|---------------------------------|
B|---------------------------------|---------------------------------|---------------------------------|
G|---------------------------------|---------------------------------|---------------------------------|
D|---------------------------------|---------------------------------|---------------------------------|
A|-----7-------------------7-------|-------------7---7---------------|-----7-------------------7-------|
E|-0-------8---7---7---0-------8---|-8---7---0-----------8---7---7---|-0-------8---7---7---0-------6---|


E|---------------------------------|---------------------------------|---------------------------------|
B|---------------------------------|---------------------------------|---------------------------------|
G|---------------------------------|---------------------------------|---------------------------------|
D|---------------------------------|---------------------------------|---------------------------------|
A|-------------5-------------------|-----7-------------------7-------|-------------7---7---------------|
E|-6---5---0-------0---6---8---8---|-0-------8---7---7---0-------8---|-8---7---0-----------8---7---7---|


E|---------------------------------|---------------------------------|--------|--------|
B|---------------------------------|---------------------------------|--------|--------|
G|---------------------------------|---------------------------------|--------|--------|
D|---------------------------------|---------------------------------|--------|--------|
A|-----7-------------------7-------|-------------5-------------------|--------|--------|
E|-0-------8---7---7---0-------6---|-6---5---0-----------6---8-------|--------|--------|


E|--------|--------|--------|--------|--------|--------|--------|--------|--------|
B|--------|--------|--------|--------|--------|--------|--------|--------|--------|
G|--------|--------|--------|--------|--------|--------|--------|--------|--------|
D|--------|--------|--------|--------|--------|--------|--------|--------|--------|
A|--------|--------|--------|--------|--------|--------|--------|--------|--------|
E|--------|--------|--------|--------|--------|--------|--------|--------|--------|


E|--------|--------|--------|--------|-----------------------|---------------------------------|
B|--------|--------|--------|--------|-----------------------|---------------------------------|
G|--------|--------|--------|--------|-----------------------|-------------------------0-------|
D|--------|--------|--------|--------|---------------0-------|---------0-----------0-------0---|
A|--------|--------|--------|--------|-----------0-------0---|-----0-------0---1---------------|
E|--------|--------|--------|--------|-------1---------------|-0-------------------------------|


E|------------------------------|---------------------------------|---------------------------------|
B|------------------------------|---------------------------------|---------------------------------|
G|---------0--------------------|---------------------------------|---------------------------------|
D|-----0------------------------|---------------------------------|---------------------------------|
A|-0-----------5---7----7---7---|-7---7---7---7---7---7---7---7---|-7---7---7---7---7---7---7---7---|
E|-------------3---5----5---5---|-5---5---5---5---5---5---5---5---|-5---5---5---5---5---5---5---5---|


E|---------------------------|-----------------------|---------------------------------|
B|---------------------------|-----------------------|---------------------------------|
G|---------------------------|-----------------------|---------------------------------|
D|---------------------------|-----------------------|---------------------------------|
A|-7---7---7---7---7---------|-----------7-----------|---------7-------------------7---|
E|-5---5---5---5---5---------|-------0-------8---7---|-7---0-------8---8---7---0-------|


E|---------------------------------|---------------------------------|---------------------------------|
B|---------------------------------|---------------------------------|---------------------------------|
G|---------------------------------|---------------------------------|---------------------------------|
D|---------------------------------|---------------------------------|---------------------------------|
A|-7-------------------7-----------|---------7-------------------5---|---------------------7-----------|
E|-----8---7---7---0-------8---7---|-7---0-------6---6---5---0-------|-0---6---8---8---0-------8---7---|


E|---------------------------------|---------------------------------|---------------------------------|
B|---------------------------------|---------------------------------|---------------------------------|
G|---------------------------------|---------------------------------|---------------------------------|
D|---------------------------------|---------------------------------|---------------------------------|
A|---------7-------------------7---|-7-------------------7-----------|---------7-------------------5---|
E|-7---0-------8---8---7---0-------|-----8---7---7---0-------8---7---|-7---0-------6---6---5---0-------|


E|---------------------------------|---------------------------------|---------------------------------|
B|---------------------------------|---------------------------------|---------------------------------|
G|---------------------------------|---------------------------------|---------------------------------|
D|---------------------------------|---------------------------------|---------------------------------|
A|---------------------7-----------|---------7-------------------7---|-7-------------------7-----------|
E|-0---6---8---8---0-------8---7---|-7---0-------8---8---7---0-------|-----8---7---7---0-------8---7---|


E|---------------------------------|---------------------------------|---------------------------------|
B|---------------------------------|---------------------------------|---------------------------------|
G|---------------------------------|---------------------------------|---------------------------------|
D|---------------------------------|---------------------------------|---------------------------------|
A|---------7-------------------5---|---------------------7-----------|---------7-------------------7---|
E|-7---0-------6---6---5---0-------|-0---6---8---8---0-------8---7---|-7---0-------8---8---7---0-------|


E|---------------------------------|---------------------------------|---------------------------------|
B|---------------------------------|---------------------------------|---------------------------------|
G|---------------------------------|---------------------------------|---------------------------------|
D|---------------------------------|---------------------------------|---------------------------------|
A|-7-------------------7-----------|---------7-------------------5---|---------------------7-----------|
E|-----8---7---7---0-------8---7---|-7---0-------6---6---5---0-------|-0---6---8---8---0-------8---7---|


E|---------------------------------|---------------------------------|---------------------------------|
B|---------------------------------|---------------------------------|---------------------------------|
G|---------------------------------|---------------------------------|---------------------------------|
D|---------------------------------|---------------------------------|---------------------------------|
A|---------7-------------------7---|-7-------------------7-----------|---------7-------------------5---|
E|-7---0-------8---8---7---0-------|-----8---7---7---0-------8---7---|-7---0-------6---6---5---0-------|


E|---------------------------------|---------------------------------|---------------------------------|
B|---------------------------------|---------------------------------|---------------------------------|
G|---------------------------------|---------------------------------|---------------------------------|
D|---------------------------------|---------------------------------|---------------------------------|
A|---------------------7-----------|---------7-------------------7---|-7-------------------7-----------|
E|-0---6---8---8---0-------8---7---|-7---0-------8---8---7---0-------|-----8---7---7---0-------8---7---|


E|---------------------------------|---------------------------------|---------------------------------|
B|---------------------------------|---------------------------------|---------------------------------|
G|---------------------------------|---------------------------------|---------------------------------|
D|---------------------------------|---------------------------------|---------------------------------|
A|---------7-------------------5---|---------------------7-----------|---------7-------------------7---|
E|-7---0-------6---6---5---0-------|-0---6---8---8---0-------8---7---|-7---0-------8---8---7---0-------|


E|---------------------------------|---------------------------------|---------------------------------|
B|---------------------------------|---------------------------------|---------------------------------|
G|---------------------------------|---------------------------------|---------------------------------|
D|---------------------------------|---------------------------------|---------------------------------|
A|-7-------------------7-----------|---------7-------------------5---|---------------------7-----------|
E|-----8---7---7---0-------8---7---|-7---0-------6---6---5---0-------|-0---6---8---8---0-------8---7---|


E|---------------------------------|---------------------------------|---------------------------------|
B|---------------------------------|---------------------------------|---------------------------------|
G|---------------------------------|---------------------------------|---------------------------------|
D|---------------------------------|---------------------------------|---------------------------------|
A|---------7-------------------7---|-7-------------------7-----------|---------7-------------------5---|
E|-7---0-------8---8---7---0-------|-----8---7---7---0-------8---7---|-7---0-------6---6---5---0-------|


E|---------------------------------|---------------------------------|---------------------------------|
B|---------------------------------|---------------------------------|---------------------------------|
G|---------------------------------|---------------------------------|---------------------------------|
D|---------------------------------|---------------------------------|---------------------------------|
A|---------------------7-----------|---------7-------------------7---|-7-------------------7-----------|
E|-0---6---8---8---0-------8---7---|-7---0-------8---8---7---0-------|-----8---7---7---0-------8---7---|


E|---------------------------------|---------------------------------|---------------------------------|
B|---------------------------------|---------------------------------|---------------------------------|
G|---------------------------------|---------------------------------|---------------------------------|
D|---------------------------------|---------------------------------|---------------------------------|
A|---------7-------------------5---|---------------------7-----------|---------7-------------------7---|
E|-7---0-------6---6---5---0-------|-0---6---8---8---0-------8---7---|-7---0-------8---8---7---0-------|


E|---------------------------------|---------------------------------|---------------------------------|
B|---------------------------------|---------------------------------|---------------------------------|
G|---------------------------------|---------------------------------|---------------------------------|
D|---------------------------------|---------------------------------|---------------------------------|
A|-7-------------------7-----------|---------7-------------------5---|---------------------7-----------|
E|-----8---7---7---0-------8---7---|-7---0-------6---6---5---0-------|-0---6---8---8---0-------8---7---|


E|---------------------------------|---------------------------------|---------------------------------|
B|---------------------------------|---------------------------------|---------------------------------|
G|---------------------------------|---------------------------------|---------------------------------|
D|---------------------------------|---------------------------------|---------------------------------|
A|---------7-------------------7---|-7-------------------7-----------|---------7-------------------5---|
E|-7---0-------8---8---7---0-------|-----8---7---7---0-------8---7---|-7---0-------6---6---5---0-------|


E|---------------------------------|---------------------------------|---------------------------------|
B|---------------------------------|---------------------------------|---------------------------------|
G|---------------------------------|---------------------------------|---------------------------------|
D|---------------------------------|---------------------------------|---------------------------------|
A|---------------------7-----------|---------7-------------------7---|-7-------------------7-----------|
E|-0---6---8---8---0-------8---7---|-7---0-------8---8---7---0-------|-----8---7---7---0-------8---7---|


E|---------------------------------|---------------------------|
B|---------------------------------|---------------------------|
G|---------------------------------|---------------------------|
D|---------------------------------|-----------------2---------|
A|---------7-------------------5---|-----------------2---------|
E|-7---0-------6---6---5---0-------|-0---6---8---8---0---------|





Track 3: Distortion Guitar 2

E|--------|--------|--------|--------|--------|--------|--------|--------|--------|
B|--------|--------|--------|--------|--------|--------|--------|--------|--------|
G|--------|--------|--------|--------|--------|--------|--------|--------|--------|
D|--------|--------|--------|--------|--------|--------|--------|--------|--------|
A|--------|--------|--------|--------|--------|--------|--------|--------|--------|
E|--------|--------|--------|--------|--------|--------|--------|--------|--------|


E|--------|--------|--------|--------|--------|--------|--------|--------|--------|
B|--------|--------|--------|--------|--------|--------|--------|--------|--------|
G|--------|--------|--------|--------|--------|--------|--------|--------|--------|
D|--------|--------|--------|--------|--------|--------|--------|--------|--------|
A|--------|--------|--------|--------|--------|--------|--------|--------|--------|
E|--------|--------|--------|--------|--------|--------|--------|--------|--------|


E|--------|--------|--------|--------|--------|------------|------------|------------|
B|--------|--------|--------|--------|--------|--------5---|-5----------|------------|
G|--------|--------|--------|--------|--------|--------4---|-4------5---|-5------2---|
D|--------|--------|--------|--------|--------|--------2---|-2------5---|-5------2---|
A|--------|--------|--------|--------|--------|--------2---|-2------3---|-3------0---|
E|--------|--------|--------|--------|--------|--------0---|-0----------|------------|


E|------------|------------|------------|------------|------------|---------------------------------|
B|------------|--------5---|-5----------|------------|------------|---------------------------------|
G|-2----------|--------4---|-4------5---|-5------2---|-2----------|---------------------------------|
D|-2------3---|-3------2---|-2------5---|-5------2---|-2------3---|-3-------------------------------|
A|-0------3---|-3------2---|-2------3---|-3------0---|-0------3---|-3---3---3---3---3---3---3---3---|
E|--------1---|-1------0---|-0----------|------------|--------1---|-1---1---1---1---1---1---1---1---|


E|---------------------------------|------------|--------|------------|--------|--------|
B|---------------------------------|------------|--------|------------|--------|--------|
G|---------------------------------|--------5---|-5------|-2----------|--------|--------|
D|---------------------------------|-2------5---|-5------|-2----------|--------|--------|
A|-3---3---3---3---3---3---3---3---|-2------3---|-3------|-0----------|--------|--------|
E|-1---1---1---1---1---1---1---1---|-0----------|--------|--------6---|--------|--------|


E|--------|--------|--------|--------|--------|--------|--------|--------|--------|
B|--------|--------|--------|--------|--------|--------|--------|--------|--------|
G|--------|--------|--------|--------|--------|--------|--------|--------|--------|
D|--------|--------|--------|--------|--------|--------|--------|--------|--------|
A|--------|--------|--------|--------|--------|--------|--------|--------|--------|
E|--------|--------|--------|--------|--------|--------|--------|--------|--------|


E|--------|--------|--------|--------|--------|--------|--------|--------|--------|
B|--------|--------|--------|--------|--------|--------|--------|--------|--------|
G|--------|--------|--------|--------|--------|--------|--------|--------|--------|
D|--------|--------|--------|--------|--------|--------|--------|--------|--------|
A|--------|--------|--------|--------|--------|--------|--------|--------|--------|
E|--------|--------|--------|--------|--------|--------|--------|--------|--------|


E|---------------------------------|------------|--------|------------|---------------------------------|
B|---------------------------------|------------|--------|------------|---------------------------------|
G|---------------------------------|--------5---|-5------|-2----------|---------------------------------|
D|---------------------------------|-2------5---|-5------|-2----------|---------------------------------|
A|-3---3---3---3---3---3---3---3---|-2------3---|-3------|-0----------|-------------5-------------------|
E|-1---1---1---1---1---1---1---1---|-0----------|--------|--------6---|-6---5---0-------0---6---8---8---|


E|------------|--------|------------|---------------------------------|--------|--------|
B|------------|--------|------------|---------------------------------|--------|--------|
G|--------5---|-5------|-2----------|---------------------------------|--------|--------|
D|-2------5---|-5------|-2----------|---------------------------------|--------|--------|
A|-2------3---|-3------|-0----------|-------------5-------------------|--------|--------|
E|-0----------|--------|--------6---|-6---5---0-----------6---8---8---|--------|--------|


E|--------|--------|--------|--------|--------|--------|--------|--------|--------|
B|--------|--------|--------|--------|--------|--------|--------|--------|--------|
G|--------|--------|--------|--------|--------|--------|--------|--------|--------|
D|--------|--------|--------|--------|--------|--------|--------|--------|--------|
A|--------|--------|--------|--------|--------|--------|--------|--------|--------|
E|--------|--------|--------|--------|--------|--------|--------|--------|--------|


E|--------|--------|--------|--------|---------------------------------|------------|
B|--------|--------|--------|--------|---------------------------------|------------|
G|--------|--------|--------|--------|---------------------------------|--------5---|
D|--------|--------|--------|--------|---------------------------------|-2------5---|
A|--------|--------|--------|--------|-3---3---3---3---3---3---3---3---|-2------3---|
E|--------|--------|--------|--------|-1---1---1---1---1---1---1---1---|-0----------|


E|--------|------------|---------------------------------|------------|--------|------------|
B|--------|------------|---------------------------------|------------|--------|------------|
G|-5------|-2----------|---------------------------------|--------5---|-5------|-2----------|
D|-5------|-2----------|---------------------------------|-2------5---|-5------|-2----------|
A|-3------|-0----------|-------------5-------------------|-2------3---|-3------|-0----------|
E|--------|--------6---|-6---5---0-------0---6---8---8---|-0----------|--------|--------6---|


E|---------------------------------|------------|--------|------------|---------------------------------|
B|---------------------------------|------------|--------|------------|---------------------------------|
G|---------------------------------|--------5---|-5------|-2----------|---------------------------------|
D|---------------------------------|-2------5---|-5------|-2----------|---------------------------------|
A|-------------5-------------------|-2------3---|-3------|-0----------|-------------5-------------------|
E|-6---5---0-------0---6---8---8---|-0----------|--------|--------6---|-6---5---0-------0---6---8---8---|


E|------------|--------|------------|---------------------------------|--------|--------|
B|------------|--------|------------|---------------------------------|--------|--------|
G|--------5---|-5------|-2----------|---------------------------------|--------|--------|
D|-2------5---|-5------|-2----------|---------------------------------|--------|--------|
A|-2------3---|-3------|-0----------|-------------5-------------------|--------|--------|
E|-0----------|--------|--------6---|-6---5---0-----------6---8-------|--------|--------|


E|--------|--------|--------|--------|--------|--------|--------|--------|--------|
B|--------|--------|--------|--------|--------|--------|--------|--------|--------|
G|--------|--------|--------|--------|--------|--------|--------|--------|--------|
D|--------|--------|--------|--------|--------|--------|--------|--------|--------|
A|--------|--------|--------|--------|--------|--------|--------|--------|--------|
E|--------|--------|--------|--------|--------|--------|--------|--------|--------|


E|--------|--------|--------|--------|--------|--------|--------|--------|--------|
B|--------|--------|--------|--------|--------|--------|--------|--------|--------|
G|--------|--------|--------|--------|--------|--------|--------|--------|--------|
D|--------|--------|--------|--------|--------|--------|--------|--------|--------|
A|--------|--------|--------|--------|--------|--------|--------|--------|--------|
E|--------|--------|--------|--------|--------|--------|--------|--------|--------|


E|--------|-----------------|---------------------------|------------------------|
B|--------|-----------------|--------------11---11--11--|-11---11----------------|
G|--------|-------9----9----|------9--------------------|--------------9----9----|
D|--------|-----------------|----------9----------------|----------9-------------|
A|--------|-----------------|---------------------------|------------------------|
E|--------|-----------------|---------------------------|------------------------|


E|---------------------------|------------------------|-----------------12--12--12---|
B|--------------12---12--12--|-12---12----------------|-------------12---------------|
G|-9----9--------------------|--------------9----9----|-9----------------------------|
D|----------9----------------|----------9-------------|---------14-------------------|
A|---------------------------|------------------------|-----14-----------------------|
E|---------------------------|------------------------|------------------------------|


E|-12--12--12---12--14---14---14-|-----15----------------------|--------------------------------|
B|-------------------------------|-----------------------------|----------------5---17--17--17--|
G|-------------------------------|-----------2---2---2--2---2--|----2---2--2--------------------|
D|-------------------------------|-----------------------------|--------------------------------|
A|-------------------------------|-----------------------------|--------------------------------|
E|-------------------------------|-----------------------------|--------------------------------|


E|-----15----------18--18--18---|------18--19-15--------------|-------15-19-15-14-15-19-19---19---|
B|-17------17-------------------|----------------17---17------|-17-19-----------------------------|
G|-------------16---------------|-------------------------16--|-----------------------------------|
D|------------------------------|-----------------------------|-----------------------------------|
A|------------------------------|-----------------------------|-----------------------------------|
E|------------------------------|-----------------------------|-----------------------------------|


E|------19--19-22-22---22--22--|-22--22--22--22-22-22----------22--22--22--|---22--22----------------------------------|
B|-----------------------------|----------------------22-22-22-------------|-------------------------------------------|
G|-----------------------------|-------------------------------------------|--------------4----21-20-------20-21-20----|
D|-----------------------------|-------------------------------------------|-------------------------21-19----------21-|
A|-----------------------------|-------------------------------------------|-------------------------------------------|
E|-----------------------------|-------------------------------------------|-------------------------------------------|


E|-------------------------------------------------------------------------|----------------------------------------|
B|-------------19-------------------19----------------20-------------------|----------------------------------------|
G|-------19-21----21-19-------19-21----21-19-------21----21-19-------19-16-|-18-16-15-14-15-14-12-14-12-------------|
D|-19-21----------------21-19----------------21-19-------------21-19-------|----------------------------14-12-14----|
A|-------------------------------------------------------------------------|----------------------------------------|
E|-------------------------------------------------------------------------|----------------------------------------|


E|-----------------|-------------|---------------------------|-----------------------|
B|-----------------|-------------|---------------------------|-----------------------|
G|-------5---5-----|-------2-----|---------------------------|-----------------------|
D|-------5---5-----|-------2-----|---------------------------|-----------------2-----|
A|-------3---3-----|-------0-----|-----------------------5---|-----------------2-----|
E|-----------------|-------------|-------6---6---5---0-------|-0---6---8---8---0-----|


E|-----------------|-------------|---------------------------|-----------------12----|
B|-----------------|-------------|---------------------------|-----------------------|
G|-------5---5-----|-------2-----|---------------------------|-----------------------|
D|-------5---5-----|-------2-----|---------------------------|-----------------------|
A|-------3---3-----|-------0-----|-----------------------5---|-----------------------|
E|-----------------|-------------|-------6---6---5---0-------|-0---6---8---8---------|


E|-------12----|-------------|-----------------|------------------------|-------------|
B|-------------|-------------|-----------------|------------------------|-------------|
G|-------------|-------2-----|-----------------|-11---11---11---11--9---|-9-----9-----|
D|-------------|-------2-----|-----------------|------------------------|-------------|
A|-------------|-------0-----|-----------------|------------------------|-------------|
E|-------------|-------------|-----------------|------------------------|-------------|


E|---------------------------|--------------------------------------------------|------------------------------------|
B|---------------------------|-----------------------------------15-------15----|-------------------17--15--15--15---|
G|---------------------------|-----------------12-14----12-14-16----12-14----14-|-16-14-12----12-14------------------|
D|-----------------9--12-10--|-9------------14-------14-------------------------|----------14------------------------|
A|-----------10-12-----------|----12-10-----------------------------------------|------------------------------------|
E|---------------------------|----------12--------------------------------------|------------------------------------|


E|------------------------------------|------------------------------------|-------------|
B|-15-15-15-12-15--15-12-15--15--15---|-15-15-15-12-15--15-12-15--15--15---|-------------|
G|------------------------------------|------------------------------------|-------------|
D|------------------------------------|------------------------------------|-------------|
A|------------------------------------|------------------------------------|-------------|
E|------------------------------------|------------------------------------|-------------|


E|-18-18-18---18----19----|------19--19-19-------|-------19--19---19--|------17---18---17-18-17-18-17-15-17-18-17-17--|
B|------------------------|----------------------|--------------------|-20--------------------------------------------|
G|------------------------|----------------------|--------------------|-----------------------------------------------|
D|------------------------|----------------------|--------------------|-----------------------------------------------|
A|------------------------|----------------------|--------------------|-----------------------------------------------|
E|------------------------|----------------------|--------------------|-----------------------------------------------|


E|-------15-17-15-------|--------------15-------------|--------------17--------------------|
B|----------------17----|-17--17-15-17----17-15-17----|-17--17-15-17----17-15-17---17--17--|
G|----------------------|-----------------------------|------------------------------------|
D|----------------------|-----------------------------|------------------------------------|
A|----------------------|-----------------------------|------------------------------------|
E|----------------------|-----------------------------|------------------------------------|


E|--------------------|------------------------|-----------------------------------------|
B|----------11--11----|-10--10--10-------------|-----------------------------------------|
G|-----9----13--13----|-12--12--12-------------|-----------------------------------------|
D|--------------------|--------------14---14---|-14--------14--------14--------14--------|
A|--------------------|------------------------|-----17-14-----17-14-----17-14-----17-14-|
E|--------------------|------------------------|-----------------------------------------|


E|-------------------------------------------------------------|-------------------------------------------------------------------------|
B|-------------------------------------------------------------|-------------------------------------------------------------------------|
G|-------------------------------------------------------------|-------------------------------------------------------------------------|
D|-------------------------------------------------------------|-------------------------------------------------------------------------|
A|----------14-17-14-------------------------------------------|-------------------------------------------------------------------------|
E|-17-15-17----------17-12-3--5--3--5--3--5--3--5--3--6--7--6--|-7--6--7--6--7--6--7--6--7--6--7--6--6--8--6--8--6--8--6--8--6--8--6--8--|


E|-------------------------------|
B|-------------------------------|
G|-------------------------------|
D|---------------------2---------|
A|---------------------2---------|
E|-6--8--6--8--6--8----0---------|





Track 4: Distortion Guitar 1

E|--------|--------|--------|--------|--------|--------|--------|--------|--------|
B|--------|--------|--------|--------|--------|--------|--------|--------|--------|
G|--------|--------|--------|--------|--------|--------|--------|--------|--------|
D|--------|--------|--------|--------|--------|--------|--------|--------|--------|
A|--------|--------|--------|--------|--------|--------|--------|--------|--------|
E|--------|--------|--------|--------|--------|--------|--------|--------|--------|


E|--------|--------|--------|--------|--------|--------|--------|--------|--------|
B|--------|--------|--------|--------|--------|--------|--------|--------|--------|
G|--------|--------|--------|--------|--------|--------|--------|--------|--------|
D|--------|--------|--------|--------|--------|--------|--------|--------|--------|
A|--------|--------|--------|--------|--------|--------|--------|--------|--------|
E|--------|--------|--------|--------|--------|--------|--------|--------|--------|


E|--------|--------|--------|--------|--------|--------|--------|--------|--------|
B|--------|--------|--------|--------|--------|--------|--------|--------|--------|
G|--------|--------|--------|--------|--------|--------|--------|--------|--------|
D|--------|--------|--------|--------|--------|--------|--------|--------|--------|
A|--------|--------|--------|--------|--------|--------|--------|--------|--------|
E|--------|--------|--------|--------|--------|--------|--------|--------|--------|


E|--------|--------|--------|--------|--------|--------|--------|--------|--------|
B|--------|--------|--------|--------|--------|--------|--------|--------|--------|
G|--------|--------|--------|--------|--------|--------|--------|--------|--------|
D|--------|--------|--------|--------|--------|--------|--------|--------|--------|
A|--------|--------|--------|--------|--------|--------|--------|--------|--------|
E|--------|--------|--------|--------|--------|--------|--------|--------|--------|


E|--------|------------|--------|------------|--------|--------|--------|--------|
B|--------|------------|--------|------------|--------|--------|--------|--------|
G|--------|--------5---|-5------|-2----------|--------|--------|--------|--------|
D|--------|-2------5---|-5------|-2----------|--------|--------|--------|--------|
A|--------|-2------3---|-3------|-0----------|--------|--------|--------|--------|
E|--------|-0----------|--------|--------6---|--------|--------|--------|--------|


E|--------|--------|--------|--------|--------|--------|--------|--------|--------|
B|--------|--------|--------|--------|--------|--------|--------|--------|--------|
G|--------|--------|--------|--------|--------|--------|--------|--------|--------|
D|--------|--------|--------|--------|--------|--------|--------|--------|--------|
A|--------|--------|--------|--------|--------|--------|--------|--------|--------|
E|--------|--------|--------|--------|--------|--------|--------|--------|--------|


E|--------|--------|--------|--------|--------|--------|--------|--------|--------|
B|--------|--------|--------|--------|--------|--------|--------|--------|--------|
G|--------|--------|--------|--------|--------|--------|--------|--------|--------|
D|--------|--------|--------|--------|--------|--------|--------|--------|--------|
A|--------|--------|--------|--------|--------|--------|--------|--------|--------|
E|--------|--------|--------|--------|--------|--------|--------|--------|--------|


E|--------|--------|--------|--------|--------|--------|--------|--------|--------|
B|--------|--------|--------|--------|--------|--------|--------|--------|--------|
G|--------|--------|--------|--------|--------|--------|--------|--------|--------|
D|--------|--------|--------|--------|--------|--------|--------|--------|--------|
A|--------|--------|--------|--------|--------|--------|--------|--------|--------|
E|--------|--------|--------|--------|--------|--------|--------|--------|--------|


E|--------|--------|--------|--------|--------|--------|--------|--------|--------|
B|--------|--------|--------|--------|--------|--------|--------|--------|--------|
G|--------|--------|--------|--------|--------|--------|--------|--------|--------|
D|--------|--------|--------|--------|--------|--------|--------|--------|--------|
A|--------|--------|--------|--------|--------|--------|--------|--------|--------|
E|--------|--------|--------|--------|--------|--------|--------|--------|--------|


E|--------|--------|--------|--------|--------|--------|--------|--------|--------|
B|--------|--------|--------|--------|--------|--------|--------|--------|--------|
G|--------|--------|--------|--------|--------|--------|--------|--------|--------|
D|--------|--------|--------|--------|--------|--------|--------|--------|--------|
A|--------|--------|--------|--------|--------|--------|--------|--------|--------|
E|--------|--------|--------|--------|--------|--------|--------|--------|--------|


E|--------|--------|--------|--------|--------|--------|--------|--------|--------|
B|--------|--------|--------|--------|--------|--------|--------|--------|--------|
G|--------|--------|--------|--------|--------|--------|--------|--------|--------|
D|--------|--------|--------|--------|--------|--------|--------|--------|--------|
A|--------|--------|--------|--------|--------|--------|--------|--------|--------|
E|--------|--------|--------|--------|--------|--------|--------|--------|--------|


E|--------|--------|--------|--------|--------|--------|--------|--------|--------|
B|--------|--------|--------|--------|--------|--------|--------|--------|--------|
G|--------|--------|--------|--------|--------|--------|--------|--------|--------|
D|--------|--------|--------|--------|--------|--------|--------|--------|--------|
A|--------|--------|--------|--------|--------|--------|--------|--------|--------|
E|--------|--------|--------|--------|--------|--------|--------|--------|--------|


E|--------|--------|--------|--------|--------|--------|--------|--------|--------|
B|--------|--------|--------|--------|--------|--------|--------|--------|--------|
G|--------|--------|--------|--------|--------|--------|--------|--------|--------|
D|--------|--------|--------|--------|--------|--------|--------|--------|--------|
A|--------|--------|--------|--------|--------|--------|--------|--------|--------|
E|--------|--------|--------|--------|--------|--------|--------|--------|--------|


E|--------|--------|--------|--------|--------|--------|--------|--------|--------|
B|--------|--------|--------|--------|--------|--------|--------|--------|--------|
G|--------|--------|--------|--------|--------|--------|--------|--------|--------|
D|--------|--------|--------|--------|--------|--------|--------|--------|--------|
A|--------|--------|--------|--------|--------|--------|--------|--------|--------|
E|--------|--------|--------|--------|--------|--------|--------|--------|--------|


E|--------|--------|--------|--------|--------|--------|--------|--------|--------|
B|--------|--------|--------|--------|--------|--------|--------|--------|--------|
G|--------|--------|--------|--------|--------|--------|--------|--------|--------|
D|--------|--------|--------|--------|--------|--------|--------|--------|--------|
A|--------|--------|--------|--------|--------|--------|--------|--------|--------|
E|--------|--------|--------|--------|--------|--------|--------|--------|--------|


E|--------|--------|--------|--------|--------|--------|--------|--------|--------|
B|--------|--------|--------|--------|--------|--------|--------|--------|--------|
G|--------|--------|--------|--------|--------|--------|--------|--------|--------|
D|--------|--------|--------|--------|--------|--------|--------|--------|--------|
A|--------|--------|--------|--------|--------|--------|--------|--------|--------|
E|--------|--------|--------|--------|--------|--------|--------|--------|--------|


E|--------|--------|--------|--------|--------|--------|--------|--------|--------|
B|--------|--------|--------|--------|--------|--------|--------|--------|--------|
G|--------|--------|--------|--------|--------|--------|--------|--------|--------|
D|--------|--------|--------|--------|--------|--------|--------|--------|--------|
A|--------|--------|--------|--------|--------|--------|--------|--------|--------|
E|--------|--------|--------|--------|--------|--------|--------|--------|--------|


E|--------|--------|--------|--------|--------|--------|--------|--------|--------|
B|--------|--------|--------|--------|--------|--------|--------|--------|--------|
G|--------|--------|--------|--------|--------|--------|--------|--------|--------|
D|--------|--------|--------|--------|--------|--------|--------|--------|--------|
A|--------|--------|--------|--------|--------|--------|--------|--------|--------|
E|--------|--------|--------|--------|--------|--------|--------|--------|--------|


E|--------|--------|--------|--------|--------|--------|
B|--------|--------|--------|--------|--------|--------|
G|--------|--------|--------|--------|--------|--------|
D|--------|--------|--------|--------|--------|--------|
A|--------|--------|--------|--------|--------|--------|
E|--------|--------|--------|--------|--------|--------|





Track 5: Distortion Guitar 1

E|--------|--------|--------|--------|--------|--------|--------|--------|--------|
B|--------|--------|--------|--------|--------|--------|--------|--------|--------|
G|--------|--------|--------|--------|--------|--------|--------|--------|--------|
D|--------|--------|--------|--------|--------|--------|--------|--------|--------|
A|--------|--------|--------|--------|--------|--------|--------|--------|--------|
E|--------|--------|--------|--------|--------|--------|--------|--------|--------|


E|--------|--------|--------|--------|--------|--------|--------|--------|--------|
B|--------|--------|--------|--------|--------|--------|--------|--------|--------|
G|--------|--------|--------|--------|--------|--------|--------|--------|--------|
D|--------|--------|--------|--------|--------|--------|--------|--------|--------|
A|--------|--------|--------|--------|--------|--------|--------|--------|--------|
E|--------|--------|--------|--------|--------|--------|--------|--------|--------|


E|--------|--------|--------|--------|--------|--------|--------|--------|--------|
B|--------|--------|--------|--------|--------|--------|--------|--------|--------|
G|--------|--------|--------|--------|--------|--------|--------|--------|--------|
D|--------|--------|--------|--------|--------|--------|--------|--------|--------|
A|--------|--------|--------|--------|--------|--------|--------|--------|--------|
E|--------|--------|--------|--------|--------|--------|--------|--------|--------|


E|--------|--------|--------|--------|--------|--------|--------|--------|--------|
B|--------|--------|--------|--------|--------|--------|--------|--------|--------|
G|--------|--------|--------|--------|--------|--------|--------|--------|--------|
D|--------|--------|--------|--------|--------|--------|--------|--------|--------|
A|--------|--------|--------|--------|--------|--------|--------|--------|--------|
E|--------|--------|--------|--------|--------|--------|--------|--------|--------|


E|--------|--------|--------|--------|--------|--------|--------|--------|--------|
B|--------|--------|--------|--------|--------|--------|--------|--------|--------|
G|--------|--------|--------|--------|--------|--------|--------|--------|--------|
D|--------|--------|--------|--------|--------|--------|--------|--------|--------|
A|--------|--------|--------|--------|--------|--------|--------|--------|--------|
E|--------|--------|--------|--------|--------|--------|--------|--------|--------|


E|--------|--------|--------|--------|--------|--------|--------|--------|--------|
B|--------|--------|--------|--------|--------|--------|--------|--------|--------|
G|--------|--------|--------|--------|--------|--------|--------|--------|--------|
D|--------|--------|--------|--------|--------|--------|--------|--------|--------|
A|--------|--------|--------|--------|--------|--------|--------|--------|--------|
E|--------|--------|--------|--------|--------|--------|--------|--------|--------|


E|--------|--------|--------|--------|--------|--------|--------|--------|--------|
B|--------|--------|--------|--------|--------|--------|--------|--------|--------|
G|--------|--------|--------|--------|--------|--------|--------|--------|--------|
D|--------|--------|--------|--------|--------|--------|--------|--------|--------|
A|--------|--------|--------|--------|--------|--------|--------|--------|--------|
E|--------|--------|--------|--------|--------|--------|--------|--------|--------|


E|--------|--------|--------|--------|--------|--------|--------|--------|--------|
B|--------|--------|--------|--------|--------|--------|--------|--------|--------|
G|--------|--------|--------|--------|--------|--------|--------|--------|--------|
D|--------|--------|--------|--------|--------|--------|--------|--------|--------|
A|--------|--------|--------|--------|--------|--------|--------|--------|--------|
E|--------|--------|--------|--------|--------|--------|--------|--------|--------|


E|--------|--------|--------|--------|--------|--------|--------|--------|--------|
B|--------|--------|--------|--------|--------|--------|--------|--------|--------|
G|--------|--------|--------|--------|--------|--------|--------|--------|--------|
D|--------|--------|--------|--------|--------|--------|--------|--------|--------|
A|--------|--------|--------|--------|--------|--------|--------|--------|--------|
E|--------|--------|--------|--------|--------|--------|--------|--------|--------|


E|--------|--------|--------|--------|--------|--------|--------|--------|--------|
B|--------|--------|--------|--------|--------|--------|--------|--------|--------|
G|--------|--------|--------|--------|--------|--------|--------|--------|--------|
D|--------|--------|--------|--------|--------|--------|--------|--------|--------|
A|--------|--------|--------|--------|--------|--------|--------|--------|--------|
E|--------|--------|--------|--------|--------|--------|--------|--------|--------|


E|--------|--------|--------|--------|--------|--------|--------|--------|--------|
B|--------|--------|--------|--------|--------|--------|--------|--------|--------|
G|--------|--------|--------|--------|--------|--------|--------|--------|--------|
D|--------|--------|--------|--------|--------|--------|--------|--------|--------|
A|--------|--------|--------|--------|--------|--------|--------|--------|--------|
E|--------|--------|--------|--------|--------|--------|--------|--------|--------|


E|--------|--------|--------|--------|--------|--------|--------|--------|--------|
B|--------|--------|--------|--------|--------|--------|--------|--------|--------|
G|--------|--------|--------|--------|--------|--------|--------|--------|--------|
D|--------|--------|--------|--------|--------|--------|--------|--------|--------|
A|--------|--------|--------|--------|--------|--------|--------|--------|--------|
E|--------|--------|--------|--------|--------|--------|--------|--------|--------|


E|--------|--------|--------|--------|--------|--------|--------|--------|--------|
B|--------|--------|--------|--------|--------|--------|--------|--------|--------|
G|--------|--------|--------|--------|--------|--------|--------|--------|--------|
D|--------|--------|--------|--------|--------|--------|--------|--------|--------|
A|--------|--------|--------|--------|--------|--------|--------|--------|--------|
E|--------|--------|--------|--------|--------|--------|--------|--------|--------|


E|--------|--------|--------|--------|--------|--------|--------|--------|--------|
B|--------|--------|--------|--------|--------|--------|--------|--------|--------|
G|--------|--------|--------|--------|--------|--------|--------|--------|--------|
D|--------|--------|--------|--------|--------|--------|--------|--------|--------|
A|--------|--------|--------|--------|--------|--------|--------|--------|--------|
E|--------|--------|--------|--------|--------|--------|--------|--------|--------|


E|--------|--------|--------|--------|--------|--------|--------|--------|--------|
B|--------|--------|--------|--------|--------|--------|--------|--------|--------|
G|--------|--------|--------|--------|--------|--------|--------|--------|--------|
D|--------|--------|--------|--------|--------|--------|--------|--------|--------|
A|--------|--------|--------|--------|--------|--------|--------|--------|--------|
E|--------|--------|--------|--------|--------|--------|--------|--------|--------|


E|--------|--------|--------|--------|--------|--------|--------|--------|--------|
B|--------|--------|--------|--------|--------|--------|--------|--------|--------|
G|--------|--------|--------|--------|--------|--------|--------|--------|--------|
D|--------|--------|--------|--------|--------|--------|--------|--------|--------|
A|--------|--------|--------|--------|--------|--------|--------|--------|--------|
E|--------|--------|--------|--------|--------|--------|--------|--------|--------|


E|--------|--------|--------|--------|--------|--------|--------|--------|--------|
B|--------|--------|--------|--------|--------|--------|--------|--------|--------|
G|--------|--------|--------|--------|--------|--------|--------|--------|--------|
D|--------|--------|--------|--------|--------|--------|--------|--------|--------|
A|--------|--------|--------|--------|--------|--------|--------|--------|--------|
E|--------|--------|--------|--------|--------|--------|--------|--------|--------|


E|--------|--------|--------|--------|--------|--------|--------|--------|--------|
B|--------|--------|--------|--------|--------|--------|--------|--------|--------|
G|--------|--------|--------|--------|--------|--------|--------|--------|--------|
D|--------|--------|--------|--------|--------|--------|--------|--------|--------|
A|--------|--------|--------|--------|--------|--------|--------|--------|--------|
E|--------|--------|--------|--------|--------|--------|--------|--------|--------|


E|--------|--------|--------|--------|--------|
B|--------|--------|--------|--------|--------|
G|--------|--------|--------|--------|--------|
D|--------|--------|--------|--------|--------|
A|--------|--------|--------|--------|--------|
E|--------|--------|--------|--------|--------|





Track 6: Orchestra Hit

E|--------|--------|--------|--------|--------|--------|--------|--------|--------|
B|--------|--------|--------|--------|--------|--------|--------|--------|--------|
G|--------|--------|--------|--------|--------|--------|--------|--------|--------|
D|--------|--------|--------|--------|--------|--------|--------|--------|--------|
A|--------|--------|--------|--------|--------|--------|--------|--------|--------|
E|--------|--------|--------|--------|--------|--------|--------|--------|--------|


E|--------|--------|--------|--------|--------|--------|--------|--------|--------|
B|--------|--------|--------|--------|--------|--------|--------|--------|--------|
G|--------|--------|--------|--------|--------|--------|--------|--------|--------|
D|--------|--------|--------|--------|--------|--------|--------|--------|--------|
A|--------|--------|--------|--------|--------|--------|--------|--------|--------|
E|--------|--------|--------|--------|--------|--------|--------|--------|--------|


E|--------|--------|--------|--------|--------|--------|--------|--------|--------|
B|--------|--------|--------|--------|--------|--------|--------|--------|--------|
G|--------|--------|--------|--------|--------|--------|--------|--------|--------|
D|--------|--------|--------|--------|--------|--------|--------|--------|--------|
A|--------|--------|--------|--------|--------|--------|--------|--------|--------|
E|--------|--------|--------|--------|--------|--------|--------|--------|--------|


E|--------|--------|--------|--------|--------|--------|--------|--------|--------|
B|--------|--------|--------|--------|--------|--------|--------|--------|--------|
G|--------|--------|--------|--------|--------|--------|--------|--------|--------|
D|--------|--------|--------|--------|--------|--------|--------|--------|--------|
A|--------|--------|--------|--------|--------|--------|--------|--------|--------|
E|--------|--------|--------|--------|--------|--------|--------|--------|--------|


E|--------|--------|--------|--------|--------|--------|--------|--------|--------|
B|--------|--------|--------|--------|--------|--------|--------|--------|--------|
G|--------|--------|--------|--------|--------|--------|--------|--------|--------|
D|--------|--------|--------|--------|--------|--------|--------|--------|--------|
A|--------|--------|--------|--------|--------|--------|--------|--------|--------|
E|--------|--------|--------|--------|--------|--------|--------|--------|--------|


E|--------|--------|--------|--------|--------|--------|--------|--------|--------|
B|--------|--------|--------|--------|--------|--------|--------|--------|--------|
G|--------|--------|--------|--------|--------|--------|--------|--------|--------|
D|--------|--------|--------|--------|--------|--------|--------|--------|--------|
A|--------|--------|--------|--------|--------|--------|--------|--------|--------|
E|--------|--------|--------|--------|--------|--------|--------|--------|--------|


E|--------|--------|--------|--------|--------|--------|--------|--------|--------|
B|--------|--------|--------|--------|--------|--------|--------|--------|--------|
G|--------|--------|--------|--------|--------|--------|--------|--------|--------|
D|--------|--------|--------|--------|--------|--------|--------|--------|--------|
A|--------|--------|--------|--------|--------|--------|--------|--------|--------|
E|--------|--------|--------|--------|--------|--------|--------|--------|--------|


E|--------|--------|--------|--------|--------|--------|--------|--------|--------|
B|--------|--------|--------|--------|--------|--------|--------|--------|--------|
G|--------|--------|--------|--------|--------|--------|--------|--------|--------|
D|--------|--------|--------|--------|--------|--------|--------|--------|--------|
A|--------|--------|--------|--------|--------|--------|--------|--------|--------|
E|--------|--------|--------|--------|--------|--------|--------|--------|--------|


E|--------|--------|--------|--------|--------|--------|--------|--------|--------|
B|--------|--------|--------|--------|--------|--------|--------|--------|--------|
G|--------|--------|--------|--------|--------|--------|--------|--------|--------|
D|--------|--------|--------|--------|--------|--------|--------|--------|--------|
A|--------|--------|--------|--------|--------|--------|--------|--------|--------|
E|--------|--------|--------|--------|--------|--------|--------|--------|--------|


E|--------|--------|--------|--------|--------|--------|--------|--------|--------|
B|--------|--------|--------|--------|--------|--------|--------|--------|--------|
G|--------|--------|--------|--------|--------|--------|--------|--------|--------|
D|--------|--------|--------|--------|--------|--------|--------|--------|--------|
A|--------|--------|--------|--------|--------|--------|--------|--------|--------|
E|--------|--------|--------|--------|--------|--------|--------|--------|--------|


E|--------|--------|--------|--------|--------|----------------|---------------------------------|
B|--------|--------|--------|--------|--------|----------------|---------------------------------|
G|--------|--------|--------|--------|--------|----------------|-------------7-------------------|
D|--------|--------|--------|--------|--------|------------8---|-8---7---2-----------8---10------|
A|--------|--------|--------|--------|--------|----------------|---------------------------------|
E|--------|--------|--------|--------|--------|----------------|---------------------------------|


E|--------|--------|--------|--------|--------|--------|--------|--------|--------|
B|--------|--------|--------|--------|--------|--------|--------|--------|--------|
G|--------|--------|--------|--------|--------|--------|--------|--------|--------|
D|--------|--------|--------|--------|--------|--------|--------|--------|--------|
A|--------|--------|--------|--------|--------|--------|--------|--------|--------|
E|--------|--------|--------|--------|--------|--------|--------|--------|--------|


E|--------|--------|--------|--------|--------|--------|--------|--------|--------|
B|--------|--------|--------|--------|--------|--------|--------|--------|--------|
G|--------|--------|--------|--------|--------|--------|--------|--------|--------|
D|--------|--------|--------|--------|--------|--------|--------|--------|--------|
A|--------|--------|--------|--------|--------|--------|--------|--------|--------|
E|--------|--------|--------|--------|--------|--------|--------|--------|--------|


E|--------|--------|--------|--------|--------|--------|--------|--------|--------|
B|--------|--------|--------|--------|--------|--------|--------|--------|--------|
G|--------|--------|--------|--------|--------|--------|--------|--------|--------|
D|--------|--------|--------|--------|--------|--------|--------|--------|--------|
A|--------|--------|--------|--------|--------|--------|--------|--------|--------|
E|--------|--------|--------|--------|--------|--------|--------|--------|--------|


E|--------|--------|--------|--------|--------|--------|--------|--------|--------|
B|--------|--------|--------|--------|--------|--------|--------|--------|--------|
G|--------|--------|--------|--------|--------|--------|--------|--------|--------|
D|--------|--------|--------|--------|--------|--------|--------|--------|--------|
A|--------|--------|--------|--------|--------|--------|--------|--------|--------|
E|--------|--------|--------|--------|--------|--------|--------|--------|--------|


E|--------|--------|--------|--------|--------|--------|--------|--------|--------|
B|--------|--------|--------|--------|--------|--------|--------|--------|--------|
G|--------|--------|--------|--------|--------|--------|--------|--------|--------|
D|--------|--------|--------|--------|--------|--------|--------|--------|--------|
A|--------|--------|--------|--------|--------|--------|--------|--------|--------|
E|--------|--------|--------|--------|--------|--------|--------|--------|--------|


E|--------|--------|--------|--------|--------|--------|--------|--------|--------|
B|--------|--------|--------|--------|--------|--------|--------|--------|--------|
G|--------|--------|--------|--------|--------|--------|--------|--------|--------|
D|--------|--------|--------|--------|--------|--------|--------|--------|--------|
A|--------|--------|--------|--------|--------|--------|--------|--------|--------|
E|--------|--------|--------|--------|--------|--------|--------|--------|--------|


E|--------|--------|--------|--------|--------|--------|--------|--------|--------|
B|--------|--------|--------|--------|--------|--------|--------|--------|--------|
G|--------|--------|--------|--------|--------|--------|--------|--------|--------|
D|--------|--------|--------|--------|--------|--------|--------|--------|--------|
A|--------|--------|--------|--------|--------|--------|--------|--------|--------|
E|--------|--------|--------|--------|--------|--------|--------|--------|--------|


E|--------|--------|--------|--------|--------|--------|--------|
B|--------|--------|--------|--------|--------|--------|--------|
G|--------|--------|--------|--------|--------|--------|--------|
D|--------|--------|--------|--------|--------|--------|--------|
A|--------|--------|--------|--------|--------|--------|--------|
E|--------|--------|--------|--------|--------|--------|--------|





Track 7: Acoustic Guitar

E|--------|--------|--------|--------|--------|--------|--------|--------|--------|
B|--------|--------|--------|--------|--------|--------|--------|--------|--------|
G|--------|--------|--------|--------|--------|--------|--------|--------|--------|
D|--------|--------|--------|--------|--------|--------|--------|--------|--------|
A|--------|--------|--------|--------|--------|--------|--------|--------|--------|
E|--------|--------|--------|--------|--------|--------|--------|--------|--------|


E|--------|--------|--------|--------|--------|--------|--------|--------|--------|
B|--------|--------|--------|--------|--------|--------|--------|--------|--------|
G|--------|--------|--------|--------|--------|--------|--------|--------|--------|
D|--------|--------|--------|--------|--------|--------|--------|--------|--------|
A|--------|--------|--------|--------|--------|--------|--------|--------|--------|
E|--------|--------|--------|--------|--------|--------|--------|--------|--------|


E|--------|--------|--------|--------|--------|--------|--------|--------|--------|
B|--------|--------|--------|--------|--------|--------|--------|--------|--------|
G|--------|--------|--------|--------|--------|--------|--------|--------|--------|
D|--------|--------|--------|--------|--------|--------|--------|--------|--------|
A|--------|--------|--------|--------|--------|--------|--------|--------|--------|
E|--------|--------|--------|--------|--------|--------|--------|--------|--------|


E|--------|--------|--------|--------|--------|--------|--------|--------|--------|
B|--------|--------|--------|--------|--------|--------|--------|--------|--------|
G|--------|--------|--------|--------|--------|--------|--------|--------|--------|
D|--------|--------|--------|--------|--------|--------|--------|--------|--------|
A|--------|--------|--------|--------|--------|--------|--------|--------|--------|
E|--------|--------|--------|--------|--------|--------|--------|--------|--------|


E|--------|--------|--------|--------|--------|--------|--------|--------|--------|
B|--------|--------|--------|--------|--------|--------|--------|--------|--------|
G|--------|--------|--------|--------|--------|--------|--------|--------|--------|
D|--------|--------|--------|--------|--------|--------|--------|--------|--------|
A|--------|--------|--------|--------|--------|--------|--------|--------|--------|
E|--------|--------|--------|--------|--------|--------|--------|--------|--------|


E|--------|--------|--------|--------|--------|--------|--------|--------|--------|
B|--------|--------|--------|--------|--------|--------|--------|--------|--------|
G|--------|--------|--------|--------|--------|--------|--------|--------|--------|
D|--------|--------|--------|--------|--------|--------|--------|--------|--------|
A|--------|--------|--------|--------|--------|--------|--------|--------|--------|
E|--------|--------|--------|--------|--------|--------|--------|--------|--------|


E|--------|--------|--------|--------|--------|--------|--------|--------|--------|
B|--------|--------|--------|--------|--------|--------|--------|--------|--------|
G|--------|--------|--------|--------|--------|--------|--------|--------|--------|
D|--------|--------|--------|--------|--------|--------|--------|--------|--------|
A|--------|--------|--------|--------|--------|--------|--------|--------|--------|
E|--------|--------|--------|--------|--------|--------|--------|--------|--------|


E|--------|--------|--------|--------|--------|--------|--------|--------|--------|
B|--------|--------|--------|--------|--------|--------|--------|--------|--------|
G|--------|--------|--------|--------|--------|--------|--------|--------|--------|
D|--------|--------|--------|--------|--------|--------|--------|--------|--------|
A|--------|--------|--------|--------|--------|--------|--------|--------|--------|
E|--------|--------|--------|--------|--------|--------|--------|--------|--------|


E|--------|--------|--------|--------|--------|--------|--------|--------|--------|
B|--------|--------|--------|--------|--------|--------|--------|--------|--------|
G|--------|--------|--------|--------|--------|--------|--------|--------|--------|
D|--------|--------|--------|--------|--------|--------|--------|--------|--------|
A|--------|--------|--------|--------|--------|--------|--------|--------|--------|
E|--------|--------|--------|--------|--------|--------|--------|--------|--------|


E|--------|--------|--------|--------|--------|--------|--------|--------|--------|
B|--------|--------|--------|--------|--------|--------|--------|--------|--------|
G|--------|--------|--------|--------|--------|--------|--------|--------|--------|
D|--------|--------|--------|--------|--------|--------|--------|--------|--------|
A|--------|--------|--------|--------|--------|--------|--------|--------|--------|
E|--------|--------|--------|--------|--------|--------|--------|--------|--------|


E|--------|--------|--------|--------|--------|--------|--------|--------|--------|
B|--------|--------|--------|--------|--------|--------|--------|--------|--------|
G|--------|--------|--------|--------|--------|--------|--------|--------|--------|
D|--------|--------|--------|--------|--------|--------|--------|--------|--------|
A|--------|--------|--------|--------|--------|--------|--------|--------|--------|
E|--------|--------|--------|--------|--------|--------|--------|--------|--------|


E|--------|--------|--------------------|--------|--------|--------|--------------------------------------|
B|--------|--------|--------------------|--------|--------|--------|-5-----------5---6---5--6--5--5-------|
G|--------|--------|-------0-0---0------|--------|--------|--------|--------------------------------------|
D|--------|--------|-----2--------------|-2------|-2------|-4------|-----7---7------------------------7---|
A|--------|--------|---2----------------|-3------|-4------|-5------|--------------------------------------|
E|--------|--------|-0------------------|--------|--------|--------|--------------------------------------|


E|---------------------------------|-----------------------------5---|-6-------------------------------|
B|-6-----------5---------------4---|-------------------------8-------|-----6-------6-------------------|
G|-----5---5-------5-------5-------|-7-----------7-------7-----------|---------6-------6-------6-------|
D|---------------------7-----------|-----5---5-------5---------------|---------------------8-------8---|
A|---------------------------------|---------------------------------|---------------------------------|
E|---------------------------------|---------------------------------|---------------------------------|


E|-----------------0---------------|---------------------------------------|-----------------|
B|-------------6-------6-----------|-----------------5---5-8---11--118-8---|-----------------|
G|---------5---------------5-------|-----------3---3-----------------------|-6---------------|
D|-5---7-----------------------7---|-----5---5-----------------------------|------7----7-----|
A|---------------------------------|-0-------------------------------------|-----------------|
E|---------------------------------|---------------------------------------|-----------------|


E|--------|--------|--------|--------|--------|--------|--------|--------|--------|
B|--------|--------|--------|--------|--------|--------|--------|--------|--------|
G|--------|--------|--------|--------|--------|--------|--------|--------|--------|
D|--------|--------|--------|--------|--------|--------|--------|--------|--------|
A|--------|--------|--------|--------|--------|--------|--------|--------|--------|
E|--------|--------|--------|--------|--------|--------|--------|--------|--------|


E|--------|--------|--------|--------|--------|--------|--------|--------|--------|
B|--------|--------|--------|--------|--------|--------|--------|--------|--------|
G|--------|--------|--------|--------|--------|--------|--------|--------|--------|
D|--------|--------|--------|--------|--------|--------|--------|--------|--------|
A|--------|--------|--------|--------|--------|--------|--------|--------|--------|
E|--------|--------|--------|--------|--------|--------|--------|--------|--------|


E|--------|--------|--------|--------|--------|--------|--------|--------|--------|
B|--------|--------|--------|--------|--------|--------|--------|--------|--------|
G|--------|--------|--------|--------|--------|--------|--------|--------|--------|
D|--------|--------|--------|--------|--------|--------|--------|--------|--------|
A|--------|--------|--------|--------|--------|--------|--------|--------|--------|
E|--------|--------|--------|--------|--------|--------|--------|--------|--------|


E|--------|--------|--------|--------|--------|--------|--------|--------|--------|
B|--------|--------|--------|--------|--------|--------|--------|--------|--------|
G|--------|--------|--------|--------|--------|--------|--------|--------|--------|
D|--------|--------|--------|--------|--------|--------|--------|--------|--------|
A|--------|--------|--------|--------|--------|--------|--------|--------|--------|
E|--------|--------|--------|--------|--------|--------|--------|--------|--------|


E|--------|--------|--------|--------|--------|--------|--------|--------|--------|
B|--------|--------|--------|--------|--------|--------|--------|--------|--------|
G|--------|--------|--------|--------|--------|--------|--------|--------|--------|
D|--------|--------|--------|--------|--------|--------|--------|--------|--------|
A|--------|--------|--------|--------|--------|--------|--------|--------|--------|
E|--------|--------|--------|--------|--------|--------|--------|--------|--------|


E|--------|--------|--------|--------|--------|--------|--------|--------|--------|
B|--------|--------|--------|--------|--------|--------|--------|--------|--------|
G|--------|--------|--------|--------|--------|--------|--------|--------|--------|
D|--------|--------|--------|--------|--------|--------|--------|--------|--------|
A|--------|--------|--------|--------|--------|--------|--------|--------|--------|
E|--------|--------|--------|--------|--------|--------|--------|--------|--------|


E|--------|
B|--------|
G|--------|
D|--------|
A|--------|
E|--------|





Track 8: Acoustic Guitar

E|--------|--------|--------|--------|--------|--------|--------|--------|--------|
B|--------|--------|--------|--------|--------|--------|--------|--------|--------|
G|--------|--------|--------|--------|--------|--------|--------|--------|--------|
D|--------|--------|--------|--------|--------|--------|--------|--------|--------|
A|--------|--------|--------|--------|--------|--------|--------|--------|--------|
E|--------|--------|--------|--------|--------|--------|--------|--------|--------|


E|--------|--------|--------|--------|--------|--------|--------|--------|--------|
B|--------|--------|--------|--------|--------|--------|--------|--------|--------|
G|--------|--------|--------|--------|--------|--------|--------|--------|--------|
D|--------|--------|--------|--------|--------|--------|--------|--------|--------|
A|--------|--------|--------|--------|--------|--------|--------|--------|--------|
E|--------|--------|--------|--------|--------|--------|--------|--------|--------|


E|--------|--------|--------|--------|--------|--------|--------|--------|--------|
B|--------|--------|--------|--------|--------|--------|--------|--------|--------|
G|--------|--------|--------|--------|--------|--------|--------|--------|--------|
D|--------|--------|--------|--------|--------|--------|--------|--------|--------|
A|--------|--------|--------|--------|--------|--------|--------|--------|--------|
E|--------|--------|--------|--------|--------|--------|--------|--------|--------|


E|--------|--------|--------|--------|--------|--------|--------|--------|--------|
B|--------|--------|--------|--------|--------|--------|--------|--------|--------|
G|--------|--------|--------|--------|--------|--------|--------|--------|--------|
D|--------|--------|--------|--------|--------|--------|--------|--------|--------|
A|--------|--------|--------|--------|--------|--------|--------|--------|--------|
E|--------|--------|--------|--------|--------|--------|--------|--------|--------|


E|--------|--------|--------|--------|--------|--------|--------|--------|--------|
B|--------|--------|--------|--------|--------|--------|--------|--------|--------|
G|--------|--------|--------|--------|--------|--------|--------|--------|--------|
D|--------|--------|--------|--------|--------|--------|--------|--------|--------|
A|--------|--------|--------|--------|--------|--------|--------|--------|--------|
E|--------|--------|--------|--------|--------|--------|--------|--------|--------|


E|--------|--------|--------|--------|--------|--------|--------|--------|--------|
B|--------|--------|--------|--------|--------|--------|--------|--------|--------|
G|--------|--------|--------|--------|--------|--------|--------|--------|--------|
D|--------|--------|--------|--------|--------|--------|--------|--------|--------|
A|--------|--------|--------|--------|--------|--------|--------|--------|--------|
E|--------|--------|--------|--------|--------|--------|--------|--------|--------|


E|--------|--------|--------|--------|--------|--------|--------|--------|--------|
B|--------|--------|--------|--------|--------|--------|--------|--------|--------|
G|--------|--------|--------|--------|--------|--------|--------|--------|--------|
D|--------|--------|--------|--------|--------|--------|--------|--------|--------|
A|--------|--------|--------|--------|--------|--------|--------|--------|--------|
E|--------|--------|--------|--------|--------|--------|--------|--------|--------|


E|--------|--------|--------|--------|--------|--------|--------|--------|--------|
B|--------|--------|--------|--------|--------|--------|--------|--------|--------|
G|--------|--------|--------|--------|--------|--------|--------|--------|--------|
D|--------|--------|--------|--------|--------|--------|--------|--------|--------|
A|--------|--------|--------|--------|--------|--------|--------|--------|--------|
E|--------|--------|--------|--------|--------|--------|--------|--------|--------|


E|--------|--------|--------|--------|--------|--------|--------|--------|--------|
B|--------|--------|--------|--------|--------|--------|--------|--------|--------|
G|--------|--------|--------|--------|--------|--------|--------|--------|--------|
D|--------|--------|--------|--------|--------|--------|--------|--------|--------|
A|--------|--------|--------|--------|--------|--------|--------|--------|--------|
E|--------|--------|--------|--------|--------|--------|--------|--------|--------|


E|--------|--------|--------|--------|--------|--------|--------|--------|--------|
B|--------|--------|--------|--------|--------|--------|--------|--------|--------|
G|--------|--------|--------|--------|--------|--------|--------|--------|--------|
D|--------|--------|--------|--------|--------|--------|--------|--------|--------|
A|--------|--------|--------|--------|--------|--------|--------|--------|--------|
E|--------|--------|--------|--------|--------|--------|--------|--------|--------|


E|--------|--------|--------|--------|--------|--------|--------|--------|--------|
B|--------|--------|--------|--------|--------|--------|--------|--------|--------|
G|--------|--------|--------|--------|--------|--------|--------|--------|--------|
D|--------|--------|--------|--------|--------|--------|--------|--------|--------|
A|--------|--------|--------|--------|--------|--------|--------|--------|--------|
E|--------|--------|--------|--------|--------|--------|--------|--------|--------|


E|--------|--------|--------|--------|--------|--------|--------------------------------------|
B|--------|--------|--------|--------|--------|--------|--------------------------------------|
G|--------|--------|--------|--------|--------|--------|-5-----------5---7---5--7--5--5-------|
D|--------|--------|--------|--------|--------|--------|-----7---7------------------------7---|
A|--------|--------|--------|--------|--------|--------|--------------------------------------|
E|--------|--------|--------|--------|--------|--------|--------------------------------------|


E|---------------------|-----------------------------|-------------------------|----------------|
B|---------------------|-----------------------------|-------------------------|----------------|
G|---------------------|-----------------------------|-------------------------|----------------|
D|-------------8---7---|-5---------8--7--8---5-------|-------11-10-8---8-------|----------------|
A|-6-----3-------------|-------5-----------------5---|-8-------------------8---|-8---7----------|
E|---------------------|-----------------------------|-------------------------|----------------|


E|---------------------------------------|-----------------|--------|--------|--------|
B|---------------------------------------|-----------------|--------|--------|--------|
G|-----------6---6-6---6-9---12--129-9---|-9---------------|--------|--------|--------|
D|---------------------------------------|------11---11----|--------|--------|--------|
A|-0---7---7-----------------------------|-----------------|--------|--------|--------|
E|---------------------------------------|-----------------|--------|--------|--------|


E|--------|--------|--------|--------|--------|--------|--------|--------|--------|
B|--------|--------|--------|--------|--------|--------|--------|--------|--------|
G|--------|--------|--------|--------|--------|--------|--------|--------|--------|
D|--------|--------|--------|--------|--------|--------|--------|--------|--------|
A|--------|--------|--------|--------|--------|--------|--------|--------|--------|
E|--------|--------|--------|--------|--------|--------|--------|--------|--------|


E|--------|--------|--------|--------|--------|--------|--------|--------|--------|
B|--------|--------|--------|--------|--------|--------|--------|--------|--------|
G|--------|--------|--------|--------|--------|--------|--------|--------|--------|
D|--------|--------|--------|--------|--------|--------|--------|--------|--------|
A|--------|--------|--------|--------|--------|--------|--------|--------|--------|
E|--------|--------|--------|--------|--------|--------|--------|--------|--------|


E|--------|--------|--------|--------|--------|--------|--------|--------|--------|
B|--------|--------|--------|--------|--------|--------|--------|--------|--------|
G|--------|--------|--------|--------|--------|--------|--------|--------|--------|
D|--------|--------|--------|--------|--------|--------|--------|--------|--------|
A|--------|--------|--------|--------|--------|--------|--------|--------|--------|
E|--------|--------|--------|--------|--------|--------|--------|--------|--------|


E|--------|--------|--------|--------|--------|--------|--------|--------|--------|
B|--------|--------|--------|--------|--------|--------|--------|--------|--------|
G|--------|--------|--------|--------|--------|--------|--------|--------|--------|
D|--------|--------|--------|--------|--------|--------|--------|--------|--------|
A|--------|--------|--------|--------|--------|--------|--------|--------|--------|
E|--------|--------|--------|--------|--------|--------|--------|--------|--------|


E|--------|--------|--------|--------|--------|--------|--------|--------|--------|
B|--------|--------|--------|--------|--------|--------|--------|--------|--------|
G|--------|--------|--------|--------|--------|--------|--------|--------|--------|
D|--------|--------|--------|--------|--------|--------|--------|--------|--------|
A|--------|--------|--------|--------|--------|--------|--------|--------|--------|
E|--------|--------|--------|--------|--------|--------|--------|--------|--------|


E|--------|--------|--------|--------|--------|--------|--------|
B|--------|--------|--------|--------|--------|--------|--------|
G|--------|--------|--------|--------|--------|--------|--------|
D|--------|--------|--------|--------|--------|--------|--------|
A|--------|--------|--------|--------|--------|--------|--------|
E|--------|--------|--------|--------|--------|--------|--------|





Track 9: Distortion Guitar 1

E|--------|--------|--------|--------|--------|--------|--------|--------|--------|
B|--------|--------|--------|--------|--------|--------|--------|--------|--------|
G|--------|--------|--------|--------|--------|--------|--------|--------|--------|
D|--------|--------|--------|--------|--------|--------|--------|--------|--------|
A|--------|--------|--------|--------|--------|--------|--------|--------|--------|
E|--------|--------|--------|--------|--------|--------|--------|--------|--------|


E|--------|--------|--------|--------|--------|--------|--------|--------|--------|
B|--------|--------|--------|--------|--------|--------|--------|--------|--------|
G|--------|--------|--------|--------|--------|--------|--------|--------|--------|
D|--------|--------|--------|--------|--------|--------|--------|--------|--------|
A|--------|--------|--------|--------|--------|--------|--------|--------|--------|
E|--------|--------|--------|--------|--------|--------|--------|--------|--------|


E|--------|--------|--------|--------|--------|--------|--------|--------|--------|
B|--------|--------|--------|--------|--------|--------|--------|--------|--------|
G|--------|--------|--------|--------|--------|--------|--------|--------|--------|
D|--------|--------|--------|--------|--------|--------|--------|--------|--------|
A|--------|--------|--------|--------|--------|--------|--------|--------|--------|
E|--------|--------|--------|--------|--------|--------|--------|--------|--------|


E|--------|--------|--------|--------|--------|--------|--------|--------|--------|
B|--------|--------|--------|--------|--------|--------|--------|--------|--------|
G|--------|--------|--------|--------|--------|--------|--------|--------|--------|
D|--------|--------|--------|--------|--------|--------|--------|--------|--------|
A|--------|--------|--------|--------|--------|--------|--------|--------|--------|
E|--------|--------|--------|--------|--------|--------|--------|--------|--------|


E|--------|--------|--------|--------|--------|--------|--------|--------|--------|
B|--------|--------|--------|--------|--------|--------|--------|--------|--------|
G|--------|--------|--------|--------|--------|--------|--------|--------|--------|
D|--------|--------|--------|--------|--------|--------|--------|--------|--------|
A|--------|--------|--------|--------|--------|--------|--------|--------|--------|
E|--------|--------|--------|--------|--------|--------|--------|--------|--------|


E|--------|--------|--------|--------|--------|--------|--------|--------|--------|
B|--------|--------|--------|--------|--------|--------|--------|--------|--------|
G|--------|--------|--------|--------|--------|--------|--------|--------|--------|
D|--------|--------|--------|--------|--------|--------|--------|--------|--------|
A|--------|--------|--------|--------|--------|--------|--------|--------|--------|
E|--------|--------|--------|--------|--------|--------|--------|--------|--------|


E|--------|--------|--------|--------|--------|--------|--------|--------|--------|
B|--------|--------|--------|--------|--------|--------|--------|--------|--------|
G|--------|--------|--------|--------|--------|--------|--------|--------|--------|
D|--------|--------|--------|--------|--------|--------|--------|--------|--------|
A|--------|--------|--------|--------|--------|--------|--------|--------|--------|
E|--------|--------|--------|--------|--------|--------|--------|--------|--------|


E|--------|--------|--------|--------|--------|--------|--------|--------|--------|
B|--------|--------|--------|--------|--------|--------|--------|--------|--------|
G|--------|--------|--------|--------|--------|--------|--------|--------|--------|
D|--------|--------|--------|--------|--------|--------|--------|--------|--------|
A|--------|--------|--------|--------|--------|--------|--------|--------|--------|
E|--------|--------|--------|--------|--------|--------|--------|--------|--------|


E|--------|--------|--------|--------|--------|--------|--------|--------|--------|
B|--------|--------|--------|--------|--------|--------|--------|--------|--------|
G|--------|--------|--------|--------|--------|--------|--------|--------|--------|
D|--------|--------|--------|--------|--------|--------|--------|--------|--------|
A|--------|--------|--------|--------|--------|--------|--------|--------|--------|
E|--------|--------|--------|--------|--------|--------|--------|--------|--------|


E|--------|--------|--------|--------|--------|--------|--------|--------|--------|
B|--------|--------|--------|--------|--------|--------|--------|--------|--------|
G|--------|--------|--------|--------|--------|--------|--------|--------|--------|
D|--------|--------|--------|--------|--------|--------|--------|--------|--------|
A|--------|--------|--------|--------|--------|--------|--------|--------|--------|
E|--------|--------|--------|--------|--------|--------|--------|--------|--------|


E|--------|--------|--------|--------|--------|--------|--------|--------|--------|
B|--------|--------|--------|--------|--------|--------|--------|--------|--------|
G|--------|--------|--------|--------|--------|--------|--------|--------|--------|
D|--------|--------|--------|--------|--------|--------|--------|--------|--------|
A|--------|--------|--------|--------|--------|--------|--------|--------|--------|
E|--------|--------|--------|--------|--------|--------|--------|--------|--------|


E|--------|--------|--------|--------|--------|--------|--------|--------|--------|
B|--------|--------|--------|--------|--------|--------|--------|--------|--------|
G|--------|--------|--------|--------|--------|--------|--------|--------|--------|
D|--------|--------|--------|--------|--------|--------|--------|--------|--------|
A|--------|--------|--------|--------|--------|--------|--------|--------|--------|
E|--------|--------|--------|--------|--------|--------|--------|--------|--------|


E|--------|--------|--------|--------|-------------|--------|--------|--------|--------|
B|--------|--------|--------|--------|-------------|--------|--------|--------|--------|
G|--------|--------|--------|--------|-------------|--------|--------|--------|--------|
D|--------|--------|--------|--------|-------------|--------|--------|--------|--------|
A|--------|--------|--------|--------|-------------|--------|--------|--------|--------|
E|--------|--------|--------|--------|-------------|--------|--------|--------|--------|


E|--------|--------|--------|--------|--------|--------|--------|--------|--------|
B|--------|--------|--------|--------|--------|--------|--------|--------|--------|
G|--------|--------|--------|--------|--------|--------|--------|--------|--------|
D|--------|--------|--------|--------|--------|--------|--------|--------|--------|
A|--------|--------|--------|--------|--------|--------|--------|--------|--------|
E|--------|--------|--------|--------|--------|--------|--------|--------|--------|


E|--------|--------|--------|--------|--------|--------|--------|--------|--------|
B|--------|--------|--------|--------|--------|--------|--------|--------|--------|
G|--------|--------|--------|--------|--------|--------|--------|--------|--------|
D|--------|--------|--------|--------|--------|--------|--------|--------|--------|
A|--------|--------|--------|--------|--------|--------|--------|--------|--------|
E|--------|--------|--------|--------|--------|--------|--------|--------|--------|


E|--------|--------|--------|--------|--------|--------|--------|--------|--------|
B|--------|--------|--------|--------|--------|--------|--------|--------|--------|
G|--------|--------|--------|--------|--------|--------|--------|--------|--------|
D|--------|--------|--------|--------|--------|--------|--------|--------|--------|
A|--------|--------|--------|--------|--------|--------|--------|--------|--------|
E|--------|--------|--------|--------|--------|--------|--------|--------|--------|


E|--------|--------|--------|--------|--------|--------|--------|--------|--------|
B|--------|--------|--------|--------|--------|--------|--------|--------|--------|
G|--------|--------|--------|--------|--------|--------|--------|--------|--------|
D|--------|--------|--------|--------|--------|--------|--------|--------|--------|
A|--------|--------|--------|--------|--------|--------|--------|--------|--------|
E|--------|--------|--------|--------|--------|--------|--------|--------|--------|


E|--------|--------|--------|--------|--------|--------|--------|--------|--------|
B|--------|--------|--------|--------|--------|--------|--------|--------|--------|
G|--------|--------|--------|--------|--------|--------|--------|--------|--------|
D|--------|--------|--------|--------|--------|--------|--------|--------|--------|
A|--------|--------|--------|--------|--------|--------|--------|--------|--------|
E|--------|--------|--------|--------|--------|--------|--------|--------|--------|


E|--------|--------|--------|--------|--------|
B|--------|--------|--------|--------|--------|
G|--------|--------|--------|--------|--------|
D|--------|--------|--------|--------|--------|
A|--------|--------|--------|--------|--------|
E|--------|--------|--------|--------|--------|





Track 10: Distortion Guitar 1

E|--------|--------|--------|--------|--------|--------|--------|--------|--------|
B|--------|--------|--------|--------|--------|--------|--------|--------|--------|
G|--------|--------|--------|--------|--------|--------|--------|--------|--------|
D|--------|--------|--------|--------|--------|--------|--------|--------|--------|
A|--------|--------|--------|--------|--------|--------|--------|--------|--------|
E|--------|--------|--------|--------|--------|--------|--------|--------|--------|


E|--------|--------|--------|--------|--------|--------|--------|--------|--------|
B|--------|--------|--------|--------|--------|--------|--------|--------|--------|
G|--------|--------|--------|--------|--------|--------|--------|--------|--------|
D|--------|--------|--------|--------|--------|--------|--------|--------|--------|
A|--------|--------|--------|--------|--------|--------|--------|--------|--------|
E|--------|--------|--------|--------|--------|--------|--------|--------|--------|


E|--------|--------|--------|--------|--------|--------|--------|--------|--------|
B|--------|--------|--------|--------|--------|--------|--------|--------|--------|
G|--------|--------|--------|--------|--------|--------|--------|--------|--------|
D|--------|--------|--------|--------|--------|--------|--------|--------|--------|
A|--------|--------|--------|--------|--------|--------|--------|--------|--------|
E|--------|--------|--------|--------|--------|--------|--------|--------|--------|


E|--------|--------|--------|--------|--------|--------|--------|--------|--------|
B|--------|--------|--------|--------|--------|--------|--------|--------|--------|
G|--------|--------|--------|--------|--------|--------|--------|--------|--------|
D|--------|--------|--------|--------|--------|--------|--------|--------|--------|
A|--------|--------|--------|--------|--------|--------|--------|--------|--------|
E|--------|--------|--------|--------|--------|--------|--------|--------|--------|


E|--------|--------|--------|--------|--------|--------|--------|--------|--------|
B|--------|--------|--------|--------|--------|--------|--------|--------|--------|
G|--------|--------|--------|--------|--------|--------|--------|--------|--------|
D|--------|--------|--------|--------|--------|--------|--------|--------|--------|
A|--------|--------|--------|--------|--------|--------|--------|--------|--------|
E|--------|--------|--------|--------|--------|--------|--------|--------|--------|


E|--------|--------|--------|--------|--------|--------|--------|--------|--------|
B|--------|--------|--------|--------|--------|--------|--------|--------|--------|
G|--------|--------|--------|--------|--------|--------|--------|--------|--------|
D|--------|--------|--------|--------|--------|--------|--------|--------|--------|
A|--------|--------|--------|--------|--------|--------|--------|--------|--------|
E|--------|--------|--------|--------|--------|--------|--------|--------|--------|


E|--------|--------|--------|--------|--------|--------|--------|--------|--------|
B|--------|--------|--------|--------|--------|--------|--------|--------|--------|
G|--------|--------|--------|--------|--------|--------|--------|--------|--------|
D|--------|--------|--------|--------|--------|--------|--------|--------|--------|
A|--------|--------|--------|--------|--------|--------|--------|--------|--------|
E|--------|--------|--------|--------|--------|--------|--------|--------|--------|


E|--------|--------|--------|--------|--------|--------|--------|--------|--------|
B|--------|--------|--------|--------|--------|--------|--------|--------|--------|
G|--------|--------|--------|--------|--------|--------|--------|--------|--------|
D|--------|--------|--------|--------|--------|--------|--------|--------|--------|
A|--------|--------|--------|--------|--------|--------|--------|--------|--------|
E|--------|--------|--------|--------|--------|--------|--------|--------|--------|


E|--------|--------|--------|--------|--------|--------|--------|--------|--------|
B|--------|--------|--------|--------|--------|--------|--------|--------|--------|
G|--------|--------|--------|--------|--------|--------|--------|--------|--------|
D|--------|--------|--------|--------|--------|--------|--------|--------|--------|
A|--------|--------|--------|--------|--------|--------|--------|--------|--------|
E|--------|--------|--------|--------|--------|--------|--------|--------|--------|


E|--------|--------|--------|--------|--------|--------|--------|--------|--------|
B|--------|--------|--------|--------|--------|--------|--------|--------|--------|
G|--------|--------|--------|--------|--------|--------|--------|--------|--------|
D|--------|--------|--------|--------|--------|--------|--------|--------|--------|
A|--------|--------|--------|--------|--------|--------|--------|--------|--------|
E|--------|--------|--------|--------|--------|--------|--------|--------|--------|


E|--------|--------|--------|--------|--------|--------|--------|--------|--------|
B|--------|--------|--------|--------|--------|--------|--------|--------|--------|
G|--------|--------|--------|--------|--------|--------|--------|--------|--------|
D|--------|--------|--------|--------|--------|--------|--------|--------|--------|
A|--------|--------|--------|--------|--------|--------|--------|--------|--------|
E|--------|--------|--------|--------|--------|--------|--------|--------|--------|


E|--------|--------|--------|--------|--------|--------|--------|--------|--------|
B|--------|--------|--------|--------|--------|--------|--------|--------|--------|
G|--------|--------|--------|--------|--------|--------|--------|--------|--------|
D|--------|--------|--------|--------|--------|--------|--------|--------|--------|
A|--------|--------|--------|--------|--------|--------|--------|--------|--------|
E|--------|--------|--------|--------|--------|--------|--------|--------|--------|


E|--------|--------|--------|--------|-------------|--------|--------|--------|--------|
B|--------|--------|--------|--------|-------------|--------|--------|--------|--------|
G|--------|--------|--------|--------|-------------|--------|--------|--------|--------|
D|--------|--------|--------|--------|-------------|--------|--------|--------|--------|
A|--------|--------|--------|--------|-------------|--------|--------|--------|--------|
E|--------|--------|--------|--------|-------------|--------|--------|--------|--------|


E|--------|--------|--------|--------|--------|--------|--------|--------|--------|
B|--------|--------|--------|--------|--------|--------|--------|--------|--------|
G|--------|--------|--------|--------|--------|--------|--------|--------|--------|
D|--------|--------|--------|--------|--------|--------|--------|--------|--------|
A|--------|--------|--------|--------|--------|--------|--------|--------|--------|
E|--------|--------|--------|--------|--------|--------|--------|--------|--------|


E|--------|--------|--------|--------|--------|--------|--------|--------|--------|
B|--------|--------|--------|--------|--------|--------|--------|--------|--------|
G|--------|--------|--------|--------|--------|--------|--------|--------|--------|
D|--------|--------|--------|--------|--------|--------|--------|--------|--------|
A|--------|--------|--------|--------|--------|--------|--------|--------|--------|
E|--------|--------|--------|--------|--------|--------|--------|--------|--------|


E|--------|--------|--------|--------|--------|--------|--------|--------|--------|
B|--------|--------|--------|--------|--------|--------|--------|--------|--------|
G|--------|--------|--------|--------|--------|--------|--------|--------|--------|
D|--------|--------|--------|--------|--------|--------|--------|--------|--------|
A|--------|--------|--------|--------|--------|--------|--------|--------|--------|
E|--------|--------|--------|--------|--------|--------|--------|--------|--------|


E|--------|--------|--------|--------|--------|--------|--------|--------|--------|
B|--------|--------|--------|--------|--------|--------|--------|--------|--------|
G|--------|--------|--------|--------|--------|--------|--------|--------|--------|
D|--------|--------|--------|--------|--------|--------|--------|--------|--------|
A|--------|--------|--------|--------|--------|--------|--------|--------|--------|
E|--------|--------|--------|--------|--------|--------|--------|--------|--------|


E|--------|--------|--------|--------|--------|--------|--------|--------|--------|
B|--------|--------|--------|--------|--------|--------|--------|--------|--------|
G|--------|--------|--------|--------|--------|--------|--------|--------|--------|
D|--------|--------|--------|--------|--------|--------|--------|--------|--------|
A|--------|--------|--------|--------|--------|--------|--------|--------|--------|
E|--------|--------|--------|--------|--------|--------|--------|--------|--------|


E|--------|--------|--------|--------|--------|
B|--------|--------|--------|--------|--------|
G|--------|--------|--------|--------|--------|
D|--------|--------|--------|--------|--------|
A|--------|--------|--------|--------|--------|
E|--------|--------|--------|--------|--------|





Track 11: Bass 1

G|--------|--------|--------|--------|--------|--------|--------|--------|----------------|
D|--------|--------|--------|--------|--------|--------|--------|--------|----------------|
A|--------|--------|--------|--------|--------|--------|--------|--------|----------------|
E|--------|--------|--------|--------|--------|--------|--------|--------|-0------0-------|
B|--------|--------|--------|--------|--------|--------|--------|--------|------------1---|


G|----------------|----------------|------------|----------------|----------------|
D|----------------|----------------|------------|----------------|----------------|
A|------------3---|-3--------------|------------|----------------|------------3---|
E|----------------|--------0-------|------------|-0------0-------|----------------|
B|-1------1-------|------------3---|-3------3---|------------1---|-1------1-------|


G|----------------|--------------------|-----------------------|-----------------------|
D|----------------|--------------------|-----------------------|---------2-------------|
A|-3--------------|--------------------|-------------------3---|-3---3-------3-----0---|
E|--------0-------|-----------0----0---|-0---0---3---0---------|-----------------------|
B|------------3---|-3-----3------------|-----------------------|-----------------------|


G|-----------------------|-----------------------|-----------------------|-----------------------|
D|-----------------------|-----------------------|-----------------------|---------2-------------|
A|-0---0---3---0---------|---------0-------------|-------------------3---|-3---3-------3-----0---|
E|-------------------1---|-1---1-------1-----0---|-0---0---3---0---------|-----------------------|
B|-----------------------|-----------------------|-----------------------|-----------------------|


G|-----------------------|---------------------|-----------------------|-----------------------|
D|-----------------------|---------------------|-----------------------|---------2-------------|
A|-0---0---3---0-----1---|-1-----1----1--------|-------------------3---|-3---3-------3-----0---|
E|-----------------------|-----------------0---|-0---0---3---0---------|-----------------------|
B|-----------------------|---------------------|-----------------------|-----------------------|


G|-----------------------|-----------------------|-----------------------|-----------------------|
D|-----------------------|-----------------------|-----------------------|---------2-------------|
A|-0---0---3---0---------|---------0-------------|-------------------3---|-3---3-------3-----0---|
E|-------------------1---|-1---1-------1-----0---|-0---0---3---0---------|-----------------------|
B|-----------------------|-----------------------|-----------------------|-----------------------|


G|-----------------------|------------------------------|---------------------------------|
D|-----------------------|------------------------------|---------------------------------|
A|-0---0---3---0---------|------------------------------|---------------------------------|
E|-------------------1---|-1---1---1---1----1---1---1---|-1---1---1---1---1---1---1---1---|
B|-----------------------|------------------------------|---------------------------------|


G|---------------------------------|---------------------------------|---------------------------------|
D|---------------------------------|---------------------------------|---------------------------------|
A|-----------------------------3---|-3---3---3---3---3---3---3---3---|-0---0---0---0---0---0---0---1---|
E|-0-------0-------0---0---0-------|---------------------------------|---------------------------------|
B|---------------------------------|---------------------------------|---------------------------------|


G|------------------------------|---------------------------------|---------------------------------|
D|-------------0----------------|---------------------------------|---------------------------------|
A|-1---0---------------1---3----|-----------------------------3---|-3---3---3---3---3---3---3---3---|
E|---------0-------0------------|-0---0---0---0---0---0---0-------|---------------------------------|
B|------------------------------|---------------------------------|---------------------------------|


G|---------------------------------|------------------------------|---------------------------------|
D|---------------------------------|-------------0----------------|---------------------------------|
A|-0---0---0---0---0---0---0---1---|-1---0---------------1---3----|-----------------------------3---|
E|---------------------------------|---------0-------0------------|-0---0---0---0---0---0---0-------|
B|---------------------------------|------------------------------|---------------------------------|


G|---------------------------------|---------------------------------|---------------------------------|
D|---------------------------------|---------------------------------|-----------------------------2---|
A|-3---------------------------0---|-0-------------------------------|---------------------------------|
E|-----0---0---0---0---0---0-------|-----0---0---0---0---0---0---1---|-1---0---0---0---0---0---0-------|
B|---------------------------------|---------------------------------|---------------------------------|


G|---------------------------------|---------------------------------|---------------------------------|
D|-2-------------------------------|---------------------------------|---------------------------------|
A|-----------------------------3---|-3-----------2---2-----------0---|-0-------------------------------|
E|-----0---0---0---0---0---0-------|-----0---0-----------0---0-------|-----0---0---0---0---0---0---1---|
B|---------------------------------|---------------------------------|---------------------------------|


G|---------------------------------|---------------------------------|---------------------------------|
D|-----------------------------2---|-2-------------------------------|---------------------------------|
A|---------------------------------|-----------------------------3---|-3---------------------------0---|
E|-1---0---0---0---0---0---0-------|-----0---0---0---0---0---0-------|-----0---0---0---0---0---0-------|
B|---------------------------------|---------------------------------|---------------------------------|


G|---------------------------------|---------------------------------|---------------------------------|
D|---------------------------------|-----------------------------2---|-2-------------------------------|
A|-0-------------------------------|---------------------------------|-----------------------------3---|
E|-----0---0---0---0---0---0---1---|-1---0---0---0---0---0---0-------|-----0---0---0---0---0---0-------|
B|---------------------------------|---------------------------------|---------------------------------|


G|---------------------------------|---------------------------------|---------------------------------|
D|---------------------0-----------|---------------------------------|---------------------------------|
A|-3-----------2---------------0---|-0-------------------------------|---------------------------------|
E|-----0---0-------0-------0-------|-----0---0---0---0---0---0---1---|-1---1---1---1---1---1---1---1---|
B|---------------------------------|---------------------------------|---------------------------------|


G|---------------------------------|---------------------------------|---------------------------------|
D|---------------------------------|---------------------------------|---------------------------------|
A|-----------------------------3---|-3---3---3---3---3---3---3---3---|-0---0---0---0---0---0---0---1---|
E|-0---0---0---0---0---0---0-------|---------------------------------|---------------------------------|
B|---------------------------------|---------------------------------|---------------------------------|


G|------------------------------|---------------------------------|---------------------------------|
D|-------------0----------------|---------------------------------|---------------------------------|
A|-1---0---------------1---3----|-----------------------------3---|-3---3---3---3---3---3---2---2---|
E|---------0-------0------------|-0---0---0---0---2---3---0-------|---------------------------------|
B|------------------------------|---------------------------------|---------------------------------|


G|---------------------------------|------------------------------|---------------------------------|
D|---------------------------------|-------------0----------------|---------------------------------|
A|-0---0---0---0---0---0---0---1---|-1---0---------------1---3----|-----------------------------3---|
E|---------------------------------|---------0-------0------------|-0---0---0---0---0---0---0-------|
B|---------------------------------|------------------------------|---------------------------------|


G|---------------------------------|---------------------------------|---------------------------------|
D|---------------------------------|---------------------------------|-----------------------------2---|
A|-3---------------------------0---|-0-------------------------------|---------------------------------|
E|-----0---0---0---0---0---0-------|-----0---0---0---0---0---0---1---|-1---0---0---0---0---0---0-------|
B|---------------------------------|---------------------------------|---------------------------------|


G|---------------------------------|---------------------------------|---------------------------------|
D|-2-------------------------------|---------------------------------|---------------------------------|
A|-----------------------------3---|-3-----------2---2-----------0---|-0-------------------------------|
E|-----0---0---0---0---0---0-------|-----0---0-----------0---0-------|-----0---0---0---0---0---0---1---|
B|---------------------------------|---------------------------------|---------------------------------|


G|---------------------------------|---------------------------------|---------------------------------|
D|-----------------------------2---|-2-------------------------------|---------------------------------|
A|---------------------------------|-----------------------------3---|-3---------------------------0---|
E|-1---0---0---0---0---0---0-------|-----0---0---0---0---0---0-------|-----0---0---0---0---0---0-------|
B|---------------------------------|---------------------------------|---------------------------------|


G|---------------------------------|---------------------------------|---------------------------------|
D|---------------------------------|-----------------------------2---|-2-------------------------------|
A|-0-------------------------------|---------------------------------|-----------------------------3---|
E|-----0---0---0---0---0---0---1---|-1---0---0---0---0---0---0-------|-----0---0---0---0---0---0-------|
B|---------------------------------|---------------------------------|---------------------------------|


G|---------------------------------|---------------------------------|---------------------------------|
D|---------------------0-----------|---------------------------------|---------------------------------|
A|-3-----------2---------------0---|-0-------------------------------|---------------------------------|
E|-----0---0-------0-------0-------|-----0---0---0---0---0---0---1---|-1---1---1---1---1---1---1---1---|
B|---------------------------------|---------------------------------|---------------------------------|


G|---------------------------------|---------------------------------|---------------------------------|
D|---------------------------------|---------------------------------|---------------------------------|
A|-------------------------3---3---|-3---3---3---3---3---3---3---0---|-0---0---0---0---0---0---1---1---|
E|-0---0---0---0---0---0-----------|---------------------------------|---------------------------------|
B|---------------------------------|---------------------------------|---------------------------------|


G|------------------------------|------------------------------|---------------------------------|
D|---------0--------------------|---------0--------------------|---------------------------------|
A|-0---------------1---3----1---|-0---------------1---3--------|-------------------------3---3---|
E|-----0-------0----------------|-----0-------0------------0---|-0---0---0---0---0---0-----------|
B|------------------------------|------------------------------|---------------------------------|


G|---------------------------------|---------------------------------|------------------------------|
D|---------------------------------|---------------------------------|---------0--------------------|
A|-3---3---3---3---3---3---3---0---|-0---0---0---0---0---0---1---1---|-0---------------1---3--------|
E|---------------------------------|---------------------------------|-----0-------0------------0---|
B|---------------------------------|---------------------------------|------------------------------|


G|---------------------------------|---------------------------------|---------------------------------|
D|---------------------------------|---------------------------------|---------------------------------|
A|-------------------------3---3---|-3---3---3---3---3---2---2---0---|-0---0---0---0---0---0---1---1---|
E|-0---0---0---2---3---0-----------|---------------------------------|---------------------------------|
B|---------------------------------|---------------------------------|---------------------------------|


G|------------------------------|--------|--------|--------|----------------|----------------|
D|---------0--------------------|--------|--------|--------|----------------|----------------|
A|-0---------------1---3--------|--------|--------|--------|----------------|----------------|
E|-----0-------0----------------|--------|--------|--------|----------------|----------------|
B|------------------------------|--------|--------|--------|----------------|----------------|


G|----------------|----------------|----------------|----------------|----------------|
D|----------------|----------------|----------------|----------------|----------------|
A|----------------|----------------|----------------|----------------|----------------|
E|----------------|----------------|----------------|----------------|----------------|
B|----------------|----------------|----------------|----------------|----------------|


G|------------------|---------------------------|-----------------------|----------------|
D|------------------|---------------------------|-----------------------|----------------|
A|------------------|-------0-----1-----1---0---|-------------------0---|------------0---|
E|------------------|-3-------------------------|---------------3-------|----------------|
B|------------0-----|---------------------------|-----------0-----------|----------------|


G|--------|------------------------|------------------------------|------------------------------|
D|--------|------------------------|------------------------------|------------------------------|
A|--------|------------------------|-------------1----1---1---0---|-----0-------0----0---0---0---|
E|--------|-------1----1---1---0---|-----0---0--------------------|---------3--------------------|
B|--------|------------------------|------------------------------|------------------------------|


G|---------------------------------|---------------------------------|-----------------------|
D|---------------------------------|---------------------------------|-----------------------|
A|-0---0---0---0---0---0---0---0---|-0---0---0---0---0---0---0---0---|-0---0---0---0---------|
E|---------------------------------|---------------------------------|-----------------------|
B|---------------------------------|---------------------------------|-----------------------|


G|---------------------------|---------------------------------|---------------------------------|
D|---------------------------|---------------------------------|---------------------------------|
A|---------------------------|---------3---3---3---3---3---3---|-3---3---3---0---0---0---0---0---|
E|-------0---0---0---0---0---|-0---0---------------------------|---------------------------------|
B|---------------------------|---------------------------------|---------------------------------|


G|---------------------------------|------------------------------|---------------------------------|
D|-------------------------0-------|------------------------------|---------------------------------|
A|-0---0---1---1---0---------------|-1---3------------------------|---------3---3---3---3---3---3---|
E|---------------------0-------0---|----------0---0---0---0---0---|-0---0---------------------------|
B|---------------------------------|------------------------------|---------------------------------|


G|---------------------------------|---------------------------------|------------------------------|
D|---------------------------------|-------------------------0-------|------------------------------|
A|-3---3---3---0---0---0---0---0---|-0---0---1---1---0---------------|-1---3------------------------|
E|---------------------------------|---------------------0-------0---|----------0---0---0---0---0---|
B|---------------------------------|---------------------------------|------------------------------|


G|---------------------------------|---------------------------------|---------------------------------|
D|---------------------------------|---------------------------------|-------------------------0-------|
A|---------3---3---3---3---3---3---|-3---3---3---0---0---0---0---0---|-0---0---1---1---0---------------|
E|-0---0---------------------------|---------------------------------|---------------------0-------0---|
B|---------------------------------|---------------------------------|---------------------------------|


G|------------------------------|---------------------------------|---------------------------------|
D|------------------------------|---------------------------------|---------------------------------|
A|-1---3------------------------|---------3---3---3---3---3---3---|-3---2---2---0---0---0---0---0---|
E|----------0---0---0---0---2---|-3---0---------------------------|---------------------------------|
B|------------------------------|---------------------------------|---------------------------------|


G|---------------------------------|------------------------------|---------------------------------|
D|-------------------------0-------|------------------------------|---------------------------------|
A|-0---0---1---1---0---------------|-1---3------------------------|---------3---3---3---3---3---3---|
E|---------------------0-------0---|----------0---0---0---0---0---|-0---0---------------------------|
B|---------------------------------|------------------------------|---------------------------------|


G|---------------------------------|---------------------------------|------------------------------|
D|---------------------------------|-------------------------0-------|------------------------------|
A|-3---3---3---0---0---0---0---0---|-0---0---1---1---0---------------|-1---3------------------------|
E|---------------------------------|---------------------0-------0---|----------0---0---0---0---0---|
B|---------------------------------|---------------------------------|------------------------------|


G|---------------------------------|---------------------------------|---------------------------------|
D|---------------------------------|---------------------------------|-------------------------0-------|
A|---------3---3---3---3---3---3---|-3---3---3---0---0---0---0---0---|-0---0---1---1---0---------------|
E|-0---0---------------------------|---------------------------------|---------------------0-------0---|
B|---------------------------------|---------------------------------|---------------------------------|


G|------------------------------|---------------------------------|---------------------------------|
D|------------------------------|---------------------------------|---------------------------------|
A|-1---3------------------------|---------3---3---3---3---3---3---|-3---3---3---0---0---0---0---0---|
E|----------0---0---0---0---0---|-0---0---------------------------|---------------------------------|
B|------------------------------|---------------------------------|---------------------------------|


G|---------------------------------|------------------------------|---------------------------------|
D|-------------------------0-------|------------------------------|---------------------------------|
A|-0---0---1---1---0---------------|-1---3------------------------|---------3---3---3---3---3---3---|
E|---------------------0-------0---|----------0---0---0---0---2---|-3---0---------------------------|
B|---------------------------------|------------------------------|---------------------------------|


G|---------------------------------|---------------------------------|------------------------------|
D|---------------------------------|-------------------------0-------|------------------------------|
A|-3---2---2---0---0---0---0---0---|-0---0---1---1---0---------------|-1---3------------------------|
E|---------------------------------|---------------------0-------0---|----------0---0---0---0---0---|
B|---------------------------------|---------------------------------|------------------------------|


G|---------------------------------|---------------------------------|---------------------------------|
D|---------------------------------|---------------------------------|-------------------------0-------|
A|---------3---3---3---3---3---3---|-3---3---3---0---0---0---0---0---|-0---0---1---1---0---------------|
E|-0---0---------------------------|---------------------------------|---------------------0-------0---|
B|---------------------------------|---------------------------------|---------------------------------|


G|------------------------------|---------------------------------|---------------------------------|
D|------------------------------|---------------------------------|-------------7---7---7---7---7---|
A|-1---3------------------------|---------3---3---3---3---3---3---|-3---3---3-----------------------|
E|----------0---0---0---0---0---|-0---0---------------------------|---------------------------------|
B|------------------------------|---------------------------------|---------------------------------|


G|-------------------------7-------|------------------------------|---------------------------------|
D|-7---7---8---8---7---------------|-8---10-----------------------|---------------------------------|
A|---------------------7-------7---|------------------------------|---------3---3---3---3---3---3---|
E|---------------------------------|----------0---0---0---0---0---|-0---0---------------------------|
B|---------------------------------|------------------------------|---------------------------------|


G|---------------------------------|---------------------------------|------------------------------|
D|---------------------------------|-------------------------0-------|------------------------------|
A|-3---3---3---0---0---0---0---0---|-0---0---1---1---0---------------|-1---3------------------------|
E|---------------------------------|---------------------0-------0---|----------0---0---0---0---2---|
B|---------------------------------|---------------------------------|------------------------------|


G|---------------------------------|---------------------------------|---------------------------------|
D|---------------------------------|---------------------------------|-------------------------0-------|
A|---------3---3---3---3---3---3---|-3---2---2---0---0---0---0---0---|-0---0---1---1---0---------------|
E|-3---0---------------------------|---------------------------------|---------------------0-------0---|
B|---------------------------------|---------------------------------|---------------------------------|


G|---------------------|--------|--------|--------|
D|---------------------|--------|--------|--------|
A|-1---3---------------|--------|--------|--------|
E|----------0----------|--------|--------|--------|
B|---------------------|--------|--------|--------|





Track 12: Piano

E|--------|--------|--------|--------|--------|--------|--------|--------|--------|
B|--------|--------|--------|--------|--------|--------|--------|--------|--------|
G|--------|--------|--------|--------|--------|--------|--------|--------|--------|
D|--------|--------|--------|--------|--------|--------|--------|--------|--------|
A|--------|--------|--------|--------|--------|--------|--------|--------|--------|
E|--------|--------|--------|--------|--------|--------|--------|--------|--------|


E|--------|--------|--------|--------|--------|--------|--------|--------|--------|
B|--------|--------|--------|--------|--------|--------|--------|--------|--------|
G|--------|--------|--------|--------|--------|--------|--------|--------|--------|
D|--------|--------|--------|--------|--------|--------|--------|--------|--------|
A|--------|--------|--------|--------|--------|--------|--------|--------|--------|
E|--------|--------|--------|--------|--------|--------|--------|--------|--------|


E|--------|--------|--------|--------|--------12--|-12--13--13--13--13--12--12---|
B|--------|--------|--------|--------|------------|------------------------------|
G|--------|--------|--------|--------|--------9---|-9---10--10--10--10--9---9----|
D|--------|--------|--------|--------|------------|------------------------------|
A|--------|--------|--------|--------|------------|------------------------------|
E|--------|--------|--------|--------|------------|------------------------------|


E|--------|--------|--------|--------|--------|--------|--------|--------|--------|
B|--------|--------|--------|--------|--------|--------|--------|--------|--------|
G|--------|--------|--------|--------|--------|--------|--------|--------|--------|
D|--------|--------|--------|--------|--------|--------|--------|--------|--------|
A|--------|--------|--------|--------|--------|--------|--------|--------|--------|
E|--------|--------|--------|--------|--------|--------|--------|--------|--------|


E|--------|--------|--------|--------|--------|--------|--------|--------|--------|
B|--------|--------|--------|--------|--------|--------|--------|--------|--------|
G|--------|--------|--------|--------|--------|--------|--------|--------|--------|
D|--------|--------|--------|--------|--------|--------|--------|--------|--------|
A|--------|--------|--------|--------|--------|--------|--------|--------|--------|
E|--------|--------|--------|--------|--------|--------|--------|--------|--------|


E|--------|--------|--------|--------|--------|--------|--------|--------|--------|
B|--------|--------|--------|--------|--------|--------|--------|--------|--------|
G|--------|--------|--------|--------|--------|--------|--------|--------|--------|
D|--------|--------|--------|--------|--------|--------|--------|--------|--------|
A|--------|--------|--------|--------|--------|--------|--------|--------|--------|
E|--------|--------|--------|--------|--------|--------|--------|--------|--------|


E|--------|--------|--------|--------|--------|--------|--------|--------|--------|
B|--------|--------|--------|--------|--------|--------|--------|--------|--------|
G|--------|--------|--------|--------|--------|--------|--------|--------|--------|
D|--------|--------|--------|--------|--------|--------|--------|--------|--------|
A|--------|--------|--------|--------|--------|--------|--------|--------|--------|
E|--------|--------|--------|--------|--------|--------|--------|--------|--------|


E|--------|--------|--------|--------|--------|--------|--------|--------|--------|
B|--------|--------|--------|--------|--------|--------|--------|--------|--------|
G|--------|--------|--------|--------|--------|--------|--------|--------|--------|
D|--------|--------|--------|--------|--------|--------|--------|--------|--------|
A|--------|--------|--------|--------|--------|--------|--------|--------|--------|
E|--------|--------|--------|--------|--------|--------|--------|--------|--------|


E|--------|--------|--------|--------|--------|--------|--------|--------|--------|
B|--------|--------|--------|--------|--------|--------|--------|--------|--------|
G|--------|--------|--------|--------|--------|--------|--------|--------|--------|
D|--------|--------|--------|--------|--------|--------|--------|--------|--------|
A|--------|--------|--------|--------|--------|--------|--------|--------|--------|
E|--------|--------|--------|--------|--------|--------|--------|--------|--------|


E|--------|--------|--------|--------|--------|--------|--------|--------|--------|
B|--------|--------|--------|--------|--------|--------|--------|--------|--------|
G|--------|--------|--------|--------|--------|--------|--------|--------|--------|
D|--------|--------|--------|--------|--------|--------|--------|--------|--------|
A|--------|--------|--------|--------|--------|--------|--------|--------|--------|
E|--------|--------|--------|--------|--------|--------|--------|--------|--------|


E|--------|--------|--------|--------|--------|--------|--------|--------|--------|
B|--------|--------|--------|--------|--------|--------|--------|--------|--------|
G|--------|--------|--------|--------|--------|--------|--------|--------|--------|
D|--------|--------|--------|--------|--------|--------|--------|--------|--------|
A|--------|--------|--------|--------|--------|--------|--------|--------|--------|
E|--------|--------|--------|--------|--------|--------|--------|--------|--------|


E|--------|--------|--------|--------|--------|--------|--------|--------|--------|
B|--------|--------|--------|--------|--------|--------|--------|--------|--------|
G|--------|--------|--------|--------|--------|--------|--------|--------|--------|
D|--------|--------|--------|--------|--------|--------|--------|--------|--------|
A|--------|--------|--------|--------|--------|--------|--------|--------|--------|
E|--------|--------|--------|--------|--------|--------|--------|--------|--------|


E|--------|--------|--------|--------|--------|--------|--------|--------|--------|
B|--------|--------|--------|--------|--------|--------|--------|--------|--------|
G|--------|--------|--------|--------|--------|--------|--------|--------|--------|
D|--------|--------|--------|--------|--------|--------|--------|--------|--------|
A|--------|--------|--------|--------|--------|--------|--------|--------|--------|
E|--------|--------|--------|--------|--------|--------|--------|--------|--------|


E|--------|--------|--------|--------|--------|--------|--------|--------|--------|
B|--------|--------|--------|--------|--------|--------|--------|--------|--------|
G|--------|--------|--------|--------|--------|--------|--------|--------|--------|
D|--------|--------|--------|--------|--------|--------|--------|--------|--------|
A|--------|--------|--------|--------|--------|--------|--------|--------|--------|
E|--------|--------|--------|--------|--------|--------|--------|--------|--------|


E|--------|--------|--------|--------|--------|--------|--------|--------|--------|
B|--------|--------|--------|--------|--------|--------|--------|--------|--------|
G|--------|--------|--------|--------|--------|--------|--------|--------|--------|
D|--------|--------|--------|--------|--------|--------|--------|--------|--------|
A|--------|--------|--------|--------|--------|--------|--------|--------|--------|
E|--------|--------|--------|--------|--------|--------|--------|--------|--------|


E|--------|--------|--------|--------|--------|--------|--------|--------|--------|
B|--------|--------|--------|--------|--------|--------|--------|--------|--------|
G|--------|--------|--------|--------|--------|--------|--------|--------|--------|
D|--------|--------|--------|--------|--------|--------|--------|--------|--------|
A|--------|--------|--------|--------|--------|--------|--------|--------|--------|
E|--------|--------|--------|--------|--------|--------|--------|--------|--------|


E|--------|--------|--------|--------|--------|--------|--------|--------|--------|
B|--------|--------|--------|--------|--------|--------|--------|--------|--------|
G|--------|--------|--------|--------|--------|--------|--------|--------|--------|
D|--------|--------|--------|--------|--------|--------|--------|--------|--------|
A|--------|--------|--------|--------|--------|--------|--------|--------|--------|
E|--------|--------|--------|--------|--------|--------|--------|--------|--------|


E|--------|--------|--------|--------|--------|--------|--------|--------|--------|
B|--------|--------|--------|--------|--------|--------|--------|--------|--------|
G|--------|--------|--------|--------|--------|--------|--------|--------|--------|
D|--------|--------|--------|--------|--------|--------|--------|--------|--------|
A|--------|--------|--------|--------|--------|--------|--------|--------|--------|
E|--------|--------|--------|--------|--------|--------|--------|--------|--------|


E|--------|--------|--------|--------|--------|--------|--------|--------|
B|--------|--------|--------|--------|--------|--------|--------|--------|
G|--------|--------|--------|--------|--------|--------|--------|--------|
D|--------|--------|--------|--------|--------|--------|--------|--------|
A|--------|--------|--------|--------|--------|--------|--------|--------|
E|--------|--------|--------|--------|--------|--------|--------|--------|