Menu:

 

Search:

 

megadeth - train of consequences:

 



Title: Train of Consequences
Artist: 
Album: Youthanasia
Author: Dave Mustaine


Track 1: Guitar I

D#|--------|-------------------------------------------------|-------------------------------------------------------|
A#|--------|-------------------------------------------------|-------------------------------------------------------|
F#|--------|-------------------------------------------------|-------------------------------------------------------|
C#|--------|-2--2-----2-----2--2--2-----2-----0--2--0--------|-2--2-----2-----2--2--2-----2-----2--2--2--2--2--2--2--|
G#|--------|-2--2-----2-----2--2--2-----2--------------2--0--|-2--2-----2-----2--2--2-----2-----2--2--2--2--2--2--2--|
D#|--------|-0--0-----0-----0--0--0-----0--------------------|-0--0-----0-----0--0--0-----0-----0--0--0--0--0--0--0--|


D#|-------------------------------------------------|---------------------------------------------|
A#|-------------------------------------------------|---------------------------------------------|
F#|-------------------------------------------------|---------------------------------------------|
C#|-2--2-----2-----2--2--2-----2-----0--2--0--------|-2--2-----2-----2--2--2-----2-----2--8---8---|
G#|-2--2-----2-----2--2--2-----2--------------2--0--|-2--2-----2-----2--2--2-----2-----2--8---8---|
D#|-0--0-----0-----0--0--0-----0--------------------|-0--0-----0-----0--0--0-----0-----0--6---6---|


D#|-------------------------------------------------|-------------------------------------------------------|
A#|-------------------------------------------------|-------------------------------------------------------|
F#|-------------------------------------------------|-------------------------------------------------------|
C#|-2--2-----2-----2--2--2-----2-----0--2--0--------|-2--2-----2-----2--2--2-----2-----2--2--2--2--2--2--2--|
G#|-2--2-----2-----2--2--2-----2--------------2--0--|-2--2-----2-----2--2--2-----2-----2--2--2--2--2--2--2--|
D#|-0--0-----0-----0--0--0-----0--------------------|-0--0-----0-----0--0--0-----0-----0--0--0--0--0--0--0--|


D#|-------------------------------------------------|---------------------------------------------|
A#|-------------------------------------------------|---------------------------------------------|
F#|-------------------------------------------------|---------------------------------------------|
C#|-2--2-----2-----2--2--2-----2-----0--2--0--------|-2--2-----2-----2--2--2-----2-----2--8---8---|
G#|-2--2-----2-----2--2--2-----2--------------2--0--|-2--2-----2-----2--2--2-----2-----2--8---8---|
D#|-0--0-----0-----0--0--0-----0--------------------|-0--0-----0-----0--0--0-----0-----0--6---6---|


D#|-------------------------------------------------|-------------------------------------------------------|
A#|-------------------------------------------------|-------------------------------------------------------|
F#|-------------------------------------------------|-------------------------------------------------------|
C#|-2--2-----2-----2--2--2-----2-----0--2--0--------|-2--2-----2-----2--2--2-----2-----2--2--2--2--2--2--2--|
G#|-2--2-----2-----2--2--2-----2--------------2--0--|-2--2-----2-----2--2--2-----2-----2--2--2--2--2--2--2--|
D#|-0--0-----0-----0--0--0-----0--------------------|-0--0-----0-----0--0--0-----0-----0--0--0--0--0--0--0--|


D#|-------------------------------------------------|---------------------------------------------|
A#|-------------------------------------------------|---------------------------------------------|
F#|-------------------------------------------------|---------------------------------------------|
C#|-2--2-----2-----2--2--2-----2-----0--2--0--------|-2--2-----2-----2--2--2-----2-----2--8---8---|
G#|-2--2-----2-----2--2--2-----2--------------2--0--|-2--2-----2-----2--2--2-----2-----2--8---8---|
D#|-0--0-----0-----0--0--0-----0--------------------|-0--0-----0-----0--0--0-----0-----0--6---6---|


D#|-------------------------------------------------|-------------------------------------------------------|
A#|-------------------------------------------------|-------------------------------------------------------|
F#|-------------------------------------------------|-------------------------------------------------------|
C#|-2--2-----2-----2--2--2-----2-----0--2--0--------|-2--2-----2-----2--2--2-----2-----2--2--2--2--2--2--2--|
G#|-2--2-----2-----2--2--2-----2--------------2--0--|-2--2-----2-----2--2--2-----2-----2--2--2--2--2--2--2--|
D#|-0--0-----0-----0--0--0-----0--------------------|-0--0-----0-----0--0--0-----0-----0--0--0--0--0--0--0--|


D#|-------------------------------------------------|---------------------------------------------|
A#|-------------------------------------------------|---------------------------------------------|
F#|-------------------------------------------------|---------------------------------------------|
C#|-2--2-----2-----2--2--2-----2-----0--2--0--------|-2--2-----2-----2--2--2-----2-----2--8---8---|
G#|-2--2-----2-----2--2--2-----2--------------2--0--|-2--2-----2-----2--2--2-----2-----2--8---8---|
D#|-0--0-----0-----0--0--0-----0--------------------|-0--0-----0-----0--0--0-----0-----0--6---6---|


D#|-----------------------------------|---------------------------------------|-------------------------------------|
A#|-----------------------------------|---------------------------------------|-------------------------------------|
F#|-----------------------------------|---------------------------------------|-------------6---6-------------------|
C#|-------------4---4-----------------|-----------4---------------------------|------6--6---------------------------|
G#|------4--4-------------------------|-----4--4------------------------------|-4-------------------4---5--4--0--2--|
D#|-2-------------------2---3--2--0---|-2------------2---2---2--2--3--2--0----|-------------------------------------|


D#|------------------------------------|-------------0---------------0---|-------------0---------------0---|
A#|------------------------------------|-----------------3---------------|-----------------3---------------|
F#|-----4------------------------------|------1--1------------1--1-------|------2--2------------2--2-------|
C#|-----4------------2--2--------------|-3-------------------------------|-0-------------------------------|
G#|-2-------5--4--2--0--0----5--4--0---|---------------------------------|---------------------------------|
D#|------------------------------------|---------------------------------|---------------------------------|


D#|---------------------------------|---------------------------------|-------------0---------------0---|
A#|---------------------------------|---------------------------------|-----------------3---------------|
F#|---------------------------------|-----------------------------2---|------1--1------------1--1-------|
C#|------2--2---5--------4--4---7---|------2--2---5-------------------|-3-------------------------------|
G#|-3---------------5---------------|-3---------------0----4--4-------|---------------------------------|
D#|---------------------------------|---------------------------------|---------------------------------|


D#|-------------0---------------0---|---------------------------------|---------------------------------|
A#|-----------------3---------------|---------------------------------|---------------------------------|
F#|------2--2------------2--2-------|---------------------------------|-----------------------------2---|
C#|-0-------------------------------|------2--2---5--------4--4---7---|------2--2---5-------------------|
G#|---------------------------------|-3---------------5---------------|-3---------------0----4--4-------|
D#|---------------------------------|---------------------------------|---------------------------------|


D#|-------------------------------------------------|-------------------------------------------------------|
A#|-------------------------------------------------|-------------------------------------------------------|
F#|-------------------------------------------------|-------------------------------------------------------|
C#|-2--2-----2-----2--2--2-----2-----0--2--0--------|-2--2-----2-----2--2--2-----2-----2--2--2--2--2--2--2--|
G#|-2--2-----2-----2--2--2-----2--------------2--0--|-2--2-----2-----2--2--2-----2-----2--2--2--2--2--2--2--|
D#|-0--0-----0-----0--0--0-----0--------------------|-0--0-----0-----0--0--0-----0-----0--0--0--0--0--0--0--|


D#|-------------------------------------------------|---------------------------------------------|
A#|-------------------------------------------------|---------------------------------------------|
F#|-------------------------------------------------|---------------------------------------------|
C#|-2--2-----2-----2--2--2-----2-----0--2--0--------|-2--2-----2-----2--2--2-----2-----2--8---8---|
G#|-2--2-----2-----2--2--2-----2--------------2--0--|-2--2-----2-----2--2--2-----2-----2--8---8---|
D#|-0--0-----0-----0--0--0-----0--------------------|-0--0-----0-----0--0--0-----0-----0--6---6---|


D#|-------------------------------------------------|-------------------------------------------------------|
A#|-------------------------------------------------|-------------------------------------------------------|
F#|-------------------------------------------------|-------------------------------------------------------|
C#|-2--2-----2-----2--2--2-----2-----0--2--0--------|-2--2-----2-----2--2--2-----2-----2--2--2--2--2--2--2--|
G#|-2--2-----2-----2--2--2-----2--------------2--0--|-2--2-----2-----2--2--2-----2-----2--2--2--2--2--2--2--|
D#|-0--0-----0-----0--0--0-----0--------------------|-0--0-----0-----0--0--0-----0-----0--0--0--0--0--0--0--|


D#|-------------------------------------------------|---------------------------------------------|
A#|-------------------------------------------------|---------------------------------------------|
F#|-------------------------------------------------|---------------------------------------------|
C#|-2--2-----2-----2--2--2-----2-----0--2--0--------|-2--2-----2-----2--2--2-----2-----2--8---8---|
G#|-2--2-----2-----2--2--2-----2--------------2--0--|-2--2-----2-----2--2--2-----2-----2--8---8---|
D#|-0--0-----0-----0--0--0-----0--------------------|-0--0-----0-----0--0--0-----0-----0--6---6---|


D#|-------------------------------------------------|-------------------------------------------------------|
A#|-------------------------------------------------|-------------------------------------------------------|
F#|-------------------------------------------------|-------------------------------------------------------|
C#|-2--2-----2-----2--2--2-----2-----0--2--0--------|-2--2-----2-----2--2--2-----2-----2--2--2--2--2--2--2--|
G#|-2--2-----2-----2--2--2-----2--------------2--0--|-2--2-----2-----2--2--2-----2-----2--2--2--2--2--2--2--|
D#|-0--0-----0-----0--0--0-----0--------------------|-0--0-----0-----0--0--0-----0-----0--0--0--0--0--0--0--|


D#|-------------------------------------------------|---------------------------------------------|
A#|-------------------------------------------------|---------------------------------------------|
F#|-------------------------------------------------|---------------------------------------------|
C#|-2--2-----2-----2--2--2-----2-----0--2--0--------|-2--2-----2-----2--2--2-----2-----2--8---8---|
G#|-2--2-----2-----2--2--2-----2--------------2--0--|-2--2-----2-----2--2--2-----2-----2--8---8---|
D#|-0--0-----0-----0--0--0-----0--------------------|-0--0-----0-----0--0--0-----0-----0--6---6---|


D#|-------------------------------------------------|-------------------------------------------------------|
A#|-------------------------------------------------|-------------------------------------------------------|
F#|-------------------------------------------------|-------------------------------------------------------|
C#|-2--2-----2-----2--2--2-----2-----0--2--0--------|-2--2-----2-----2--2--2-----2-----2--2--2--2--2--2--2--|
G#|-2--2-----2-----2--2--2-----2--------------2--0--|-2--2-----2-----2--2--2-----2-----2--2--2--2--2--2--2--|
D#|-0--0-----0-----0--0--0-----0--------------------|-0--0-----0-----0--0--0-----0-----0--0--0--0--0--0--0--|


D#|-------------------------------------------------|---------------------------------------------|
A#|-------------------------------------------------|---------------------------------------------|
F#|-------------------------------------------------|---------------------------------------------|
C#|-2--2-----2-----2--2--2-----2-----0--2--0--------|-2--2-----2-----2--2--2-----2-----2--8---8---|
G#|-2--2-----2-----2--2--2-----2--------------2--0--|-2--2-----2-----2--2--2-----2-----2--8---8---|
D#|-0--0-----0-----0--0--0-----0--------------------|-0--0-----0-----0--0--0-----0-----0--6---6---|


D#|-----------------------------------|---------------------------------------|-------------------------------------|
A#|-----------------------------------|---------------------------------------|-------------------------------------|
F#|-----------------------------------|---------------------------------------|-------------6---6-------------------|
C#|-------------4---4-----------------|-----------4---------------------------|------6--6---------------------------|
G#|------4--4-------------------------|-----4--4------------------------------|-4-------------------4---5--4--0--2--|
D#|-2-------------------2---3--2--0---|-2------------2---2---2--2--3--2--0----|-------------------------------------|


D#|------------------------------------|-------------0---------------0---|-------------0---------------0---|
A#|------------------------------------|-----------------3---------------|-----------------3---------------|
F#|-----4------------------------------|------1--1------------1--1-------|------2--2------------2--2-------|
C#|-----4------------2--2--------------|-3-------------------------------|-0-------------------------------|
G#|-2-------5--4--2--0--0----5--4--0---|---------------------------------|---------------------------------|
D#|------------------------------------|---------------------------------|---------------------------------|


D#|---------------------------------|---------------------------------|-------------0---------------0---|
A#|---------------------------------|---------------------------------|-----------------3---------------|
F#|---------------------------------|-----------------------------2---|------1--1------------1--1-------|
C#|------2--2---5--------4--4---7---|------2--2---5-------------------|-3-------------------------------|
G#|-3---------------5---------------|-3---------------0----4--4-------|---------------------------------|
D#|---------------------------------|---------------------------------|---------------------------------|


D#|-------------0---------------0---|---------------------------------|---------------------------------|
A#|-----------------3---------------|---------------------------------|---------------------------------|
F#|------2--2------------2--2-------|---------------------------------|-----------------------------2---|
C#|-0-------------------------------|------2--2---5--------4--4---7---|------2--2---5-------------------|
G#|---------------------------------|-3---------------5---------------|-3---------------0----4--4-------|
D#|---------------------------------|---------------------------------|---------------------------------|


D#|-----------------------------------------|-------------------------------------------------|
A#|-----------------------------------------|-------------------------------------------------|
F#|-----------------------------------------|-------------------------------------------------|
C#|-0--2--2--2--3--2--0--2--2-------0---2---|----------------------7--7--7--7--7--7--6--5-----|
G#|----------------------------2------------|-3--5-----------3--5--------------------------7--|
D#|-----------------------------------------|-------0--3--5-----------------------------------|


D#|---------------------------------------|-----------------------------------------|
A#|---------------------------------------|-----------------------------------------|
F#|---------------------------------------|-------------------------------------2---|
C#|--------------------2--2---------------|-5---------5-----------------------------|
G#|-3---3--3--3--0-----0--0--2----5---7---|-3---3--3--3--0-----0--0---------3-------|
D#|-----------------3--------0----3---5---|-----------------3--------3--3-----------|


D#|-----------------------------------------|-------------------------------------------------|
A#|-----------------------------------------|-------------------------------------------------|
F#|-----------------------------------------|-------------------------------------------------|
C#|-0--2--2--2--3--2--0--2--2-------0---2---|----------------------7--7--7--7--7--7--6--5-----|
G#|----------------------------2------------|-3--5-----------3--5--------------------------7--|
D#|-----------------------------------------|-------0--3--5-----------------------------------|


D#|---------------------------------------|-----------------------------------------|
A#|---------------------------------------|-----------------------------------------|
F#|---------------------------------------|-------------------------------------2---|
C#|--------------------2--2---------------|-5---------5-----------------------------|
G#|-3---3--3--3--0-----0--0--2----5---7---|-3---3--3--3--0-----0--0---------3-------|
D#|-----------------3--------0----3---5---|-----------------3--------3--3-----------|


D#|-----------------------------------------|-------------------------------------------------|
A#|-----------------------------------------|-------------------------------------------------|
F#|-----------------------------------------|-------------------------------------------------|
C#|-0--2--2--2--3--2--0--2--2-------0---2---|----------------------7--7--7--7--7--7--6--5-----|
G#|----------------------------2------------|-3--5-----------3--5--------------------------7--|
D#|-----------------------------------------|-------0--3--5-----------------------------------|


D#|---------------------------------------|-----------------------------------------|
A#|---------------------------------------|-----------------------------------------|
F#|---------------------------------------|-------------------------------------2---|
C#|--------------------2--2---------------|-5---------5-----------------------------|
G#|-3---3--3--3--0-----0--0--2----5---7---|-3---3--3--3--0-----0--0---------3-------|
D#|-----------------3--------0----3---5---|-----------------3--------3--3-----------|


D#|-----------------------------------------|-------------------------------------------------|
A#|-----------------------------------------|-------------------------------------------------|
F#|-----------------------------------------|-------------------------------------------------|
C#|-0--2--2--2--3--2--0--2--2-------0---2---|----------------------7--7--7--7--7--7--6--5-----|
G#|----------------------------2------------|-3--5-----------3--5--------------------------7--|
D#|-----------------------------------------|-------0--3--5-----------------------------------|


D#|---------------------------------------|-----------------------------------------|
A#|---------------------------------------|-----------------------------------------|
F#|---------------------------------------|-------------------------------------2---|
C#|--------------------2--2---------------|-5---------5-----------------------------|
G#|-3---3--3--3--0-----0--0--2----5---7---|-3---3--3--3--0-----0--0---------3-------|
D#|-----------------3--------0----3---5---|-----------------3--------3--3-----------|


D#|-------------0---------------0---|-------------0---------------0---|---------------------------------|
A#|-----------------3---------------|-----------------3---------------|---------------------------------|
F#|------1--1------------1--1-------|------2--2------------2--2-------|---------------------------------|
C#|-3-------------------------------|-0-------------------------------|------2--2---5--------4--4---7---|
G#|---------------------------------|---------------------------------|-3---------------5---------------|
D#|---------------------------------|---------------------------------|---------------------------------|


D#|---------------------------------|-------------0---------------0---|-------------0---------------0---|
A#|---------------------------------|-----------------3---------------|-----------------3---------------|
F#|-----------------------------2---|------1--1------------1--1-------|------2--2------------2--2-------|
C#|------2--2---5-------------------|-3-------------------------------|-0-------------------------------|
G#|-3---------------0----4--4-------|---------------------------------|---------------------------------|
D#|---------------------------------|---------------------------------|---------------------------------|


D#|---------------------------------|---------------------------------|-------------0---------------0---|
A#|---------------------------------|---------------------------------|-----------------3---------------|
F#|---------------------------------|-----------------------------2---|------1--1------------1--1-------|
C#|------2--2---5--------4--4---7---|------2--2---5-------------------|-3-------------------------------|
G#|-3---------------5---------------|-3---------------0----4--4-------|---------------------------------|
D#|---------------------------------|---------------------------------|---------------------------------|


D#|-------------0---------------0---|---------------------------------|---------------------------------|
A#|-----------------3---------------|---------------------------------|---------------------------------|
F#|------2--2------------2--2-------|---------------------------------|-----------------------------2---|
C#|-0-------------------------------|------2--2---5--------4--4---7---|------2--2---5-------------------|
G#|---------------------------------|-3---------------5---------------|-3---------------0----4--4-------|
D#|---------------------------------|---------------------------------|---------------------------------|


D#|-------------0---------------0---|-------------0---------------0---|---------------------------------|
A#|-----------------3---------------|-----------------3---------------|---------------------------------|
F#|------1--1------------1--1-------|------2--2------------2--2-------|---------------------------------|
C#|-3-------------------------------|-0-------------------------------|------2--2---5--------4--4---7---|
G#|---------------------------------|---------------------------------|-3---------------5---------------|
D#|---------------------------------|---------------------------------|---------------------------------|


D#|---------------------------------|-------------------------------------------------|
A#|---------------------------------|-------------------------------------------------|
F#|-----------------------------2---|-------------------------------------------------|
C#|------2--2---5-------------------|-2--2-----2-----2--2--2-----2-----0--2--0--------|
G#|-3---------------0----4--4-------|-2--2-----2-----2--2--2-----2--------------2--0--|
D#|---------------------------------|-0--0-----0-----0--0--0-----0--------------------|


D#|-------------------------------------------------------|-------------------------------------------------|
A#|-------------------------------------------------------|-------------------------------------------------|
F#|-------------------------------------------------------|-------------------------------------------------|
C#|-2--2-----2-----2--2--2-----2-----2--2--2--2--2--2--2--|-2--2-----2-----2--2--2-----2-----0--2--0--------|
G#|-2--2-----2-----2--2--2-----2-----2--2--2--2--2--2--2--|-2--2-----2-----2--2--2-----2--------------2--0--|
D#|-0--0-----0-----0--0--0-----0-----0--0--0--0--0--0--0--|-0--0-----0-----0--0--0-----0--------------------|


D#|---------------------------------------------|-------------------------------------------------|
A#|---------------------------------------------|-------------------------------------------------|
F#|---------------------------------------------|-------------------------------------------------|
C#|-2--2-----2-----2--2--2-----2-----2--8---8---|-2--2-----2-----2--2--2-----2-----0--2--0--------|
G#|-2--2-----2-----2--2--2-----2-----2--8---8---|-2--2-----2-----2--2--2-----2--------------2--0--|
D#|-0--0-----0-----0--0--0-----0-----0--6---6---|-0--0-----0-----0--0--0-----0--------------------|


D#|-------------------------------------------------------|-------------------------------------------------|
A#|-------------------------------------------------------|-------------------------------------------------|
F#|-------------------------------------------------------|-------------------------------------------------|
C#|-2--2-----2-----2--2--2-----2-----2--2--2--2--2--2--2--|-2--2-----2-----2--2--2-----2-----0--2--0--------|
G#|-2--2-----2-----2--2--2-----2-----2--2--2--2--2--2--2--|-2--2-----2-----2--2--2-----2--------------2--0--|
D#|-0--0-----0-----0--0--0-----0-----0--0--0--0--0--0--0--|-0--0-----0-----0--0--0-----0--------------------|


D#|---------------------------------------------|-------------------------------------------------|
A#|---------------------------------------------|-------------------------------------------------|
F#|---------------------------------------------|-------------------------------------------------|
C#|-2--2-----2-----2--2--2-----2-----2--8---8---|-2--2-----2-----2--2--2-----2-----0--2--0--------|
G#|-2--2-----2-----2--2--2-----2-----2--8---8---|-2--2-----2-----2--2--2-----2--------------2--0--|
D#|-0--0-----0-----0--0--0-----0-----0--6---6---|-0--0-----0-----0--0--0-----0--------------------|


D#|-------------------------------------------------------|-------------------------------------------------|
A#|-------------------------------------------------------|-------------------------------------------------|
F#|-------------------------------------------------------|-------------------------------------------------|
C#|-2--2-----2-----2--2--2-----2-----2--2--2--2--2--2--2--|-2--2-----2-----2--2--2-----2-----0--2--0--------|
G#|-2--2-----2-----2--2--2-----2-----2--2--2--2--2--2--2--|-2--2-----2-----2--2--2-----2--------------2--0--|
D#|-0--0-----0-----0--0--0-----0-----0--0--0--0--0--0--0--|-0--0-----0-----0--0--0-----0--------------------|


D#|---------------------------------------------|
A#|---------------------------------------------|
F#|---------------------------------------------|
C#|-2--2-----2-----2--2--2-----2-----2--8---8---|
G#|-2--2-----2-----2--2--2-----2-----2--8---8---|
D#|-0--0-----0-----0--0--0-----0-----0--6---6---|





Track 2: Guitar III

D#|--------|--------|--------|--------|--------|--------|--------|--------|--------|
A#|--------|--------|--------|--------|--------|--------|--------|--------|--------|
F#|--------|--------|--------|--------|--------|--------|--------|--------|--------|
C#|--------|--------|--------|--------|--------|--------|--------|--------|--------|
G#|--------|--------|--------|--------|--------|--------|--------|--------|--------|
D#|--------|--------|--------|--------|--------|--------|--------|--------|--------|


D#|--------|--------|--------|--------|--------|--------|--------|--------|--------|
A#|--------|--------|--------|--------|--------|--------|--------|--------|--------|
F#|--------|--------|--------|--------|--------|--------|--------|--------|--------|
C#|--------|--------|--------|--------|--------|--------|--------|--------|--------|
G#|--------|--------|--------|--------|--------|--------|--------|--------|--------|
D#|--------|--------|--------|--------|--------|--------|--------|--------|--------|


D#|--------|--------|--------|--------|--------|--------|--------|--------|--------|
A#|--------|--------|--------|--------|--------|--------|--------|--------|--------|
F#|--------|--------|--------|--------|--------|--------|--------|--------|--------|
C#|--------|--------|--------|--------|--------|--------|--------|--------|--------|
G#|--------|--------|--------|--------|--------|--------|--------|--------|--------|
D#|--------|--------|--------|--------|--------|--------|--------|--------|--------|


D#|--------|--------|--------|--------|--------|--------|--------|--------|--------|
A#|--------|--------|--------|--------|--------|--------|--------|--------|--------|
F#|--------|--------|--------|--------|--------|--------|--------|--------|--------|
C#|--------|--------|--------|--------|--------|--------|--------|--------|--------|
G#|--------|--------|--------|--------|--------|--------|--------|--------|--------|
D#|--------|--------|--------|--------|--------|--------|--------|--------|--------|


D#|--------|--------|--------|--------|--------|--------|--------|--------|--------|
A#|--------|--------|--------|--------|--------|--------|--------|--------|--------|
F#|--------|--------|--------|--------|--------|--------|--------|--------|--------|
C#|--------|--------|--------|--------|--------|--------|--------|--------|--------|
G#|--------|--------|--------|--------|--------|--------|--------|--------|--------|
D#|--------|--------|--------|--------|--------|--------|--------|--------|--------|


D#|--------|--------|--------|--------|--------|--------|--------|--------|--------|
A#|--------|--------|--------|--------|--------|--------|--------|--------|--------|
F#|--------|--------|--------|--------|--------|--------|--------|--------|--------|
C#|--------|--------|--------|--------|--------|--------|--------|--------|--------|
G#|--------|--------|--------|--------|--------|--------|--------|--------|--------|
D#|--------|--------|--------|--------|--------|--------|--------|--------|--------|


D#|--------|--------|--------|--------|--------|--------|------------12----------|
A#|--------|--------|--------|--------|--------|--------|-12----15-------15--12--|
F#|--------|--------|--------|--------|--------|--------|------------------------|
C#|--------|--------|--------|--------|--------|--------|------------------------|
G#|--------|--------|--------|--------|--------|--------|------------------------|
D#|--------|--------|--------|--------|--------|--------|------------------------|


D#|-----------12-------|----------------------------|------------------|----------------------------------0--0--|
A#|-15-----15----14-12-|----------------------------|------------------|----------------------------------0--0--|
F#|--------------------|-14---141214----14-12-------|------------------|----------------------------------------|
C#|--------------------|----------------------14----|-14-----14--12-10-|----------------------------------------|
G#|--------------------|-------------------------12-|------------------|-12-10-12-10-12-13-12-10----------------|
D#|--------------------|----------------------------|------------------|-------------------------12---12--------|


D#|-0---0--0--0---0--0--0---0--0--0---0--0--|-0---10-------10-----10-12--10-------------|
A#|-5---5--5--3---3--3--5---5--5--8---8--8--|-10-----10-10----10------------12--11--10--|
F#|-----------------------------------------|-------------------------------------------|
C#|-----------------------------------------|-------------------------------------------|
G#|-----------------------------------------|-------------------------------------------|
D#|-----------------------------------------|-------------------------------------------|


D#|----------------------------------|------------------------------------------------|
A#|----------------------------------|------------------------------------------------|
F#|-12----12--1----12-14-15-16-15-14-|-12-14-15-16-15-14-12----14-12----14-12---12-14-|
C#|----------------------------------|----------------------14-------14---------------|
G#|----------------------------------|------------------------------------------------|
D#|----------------------------------|------------------------------------------------|


D#|----------------12----------------12-------------|-------12----------------12-------------15-15-14-|
A#|----12-15----12-------12-15----12-------12-15----|-12-15----15-12----12-15----15-12----12----------|
F#|-14-------14-------14-------14-------14-------14-|----------------14----------------14-------------|
C#|-------------------------------------------------|-------------------------------------------------|
G#|-------------------------------------------------|-------------------------------------------------|
D#|-------------------------------------------------|-------------------------------------------------|


D#|-15---15-15---15--15---------|----------14-15-171514-15-17-191715-17-19-20--22-|
A#|-----------------------------|-------17----------------------------------------|
F#|-----------------------------|----16-------------------------------------------|
C#|--------------------------16-|-17----------------------------------------------|
G#|-----------------------19----|-------------------------------------------------|
D#|-----------------------------|-------------------------------------------------|


D#|-22-----|-22--------------|--------|--------|--------|--------|--------|--------|
A#|--------|-----------------|--------|--------|--------|--------|--------|--------|
F#|--------|-----------------|--------|--------|--------|--------|--------|--------|
C#|--------|-----------------|--------|--------|--------|--------|--------|--------|
G#|--------|-----------------|--------|--------|--------|--------|--------|--------|
D#|--------|-----------------|--------|--------|--------|--------|--------|--------|


D#|--------|--------|--------|--------|--------|--------|--------|--------|--------|
A#|--------|--------|--------|--------|--------|--------|--------|--------|--------|
F#|--------|--------|--------|--------|--------|--------|--------|--------|--------|
C#|--------|--------|--------|--------|--------|--------|--------|--------|--------|
G#|--------|--------|--------|--------|--------|--------|--------|--------|--------|
D#|--------|--------|--------|--------|--------|--------|--------|--------|--------|


D#|--------|--------|--------|--------|--------|--------|--------|--------|--------|
A#|--------|--------|--------|--------|--------|--------|--------|--------|--------|
F#|--------|--------|--------|--------|--------|--------|--------|--------|--------|
C#|--------|--------|--------|--------|--------|--------|--------|--------|--------|
G#|--------|--------|--------|--------|--------|--------|--------|--------|--------|
D#|--------|--------|--------|--------|--------|--------|--------|--------|--------|


D#|--------|--------|
A#|--------|--------|
F#|--------|--------|
C#|--------|--------|
G#|--------|--------|
D#|--------|--------|





Track 3: Untitled

G|--------|--------|--------|--------|--------|--------|--------|--------|--------|
D|--------|--------|--------|--------|--------|--------|--------|--------|--------|
A|--------|--------|--------|--------|--------|--------|--------|--------|--------|
E|--------|--------|--------|--------|--------|--------|--------|--------|--------|


G|--------|--------|--------|--------|--------|--------|--------|--------|--------|
D|--------|--------|--------|--------|--------|--------|--------|--------|--------|
A|--------|--------|--------|--------|--------|--------|--------|--------|--------|
E|--------|--------|--------|--------|--------|--------|--------|--------|--------|


G|--------|--------|--------|--------|--------|--------|--------|--------|--------|
D|--------|--------|--------|--------|--------|--------|--------|--------|--------|
A|--------|--------|--------|--------|--------|--------|--------|--------|--------|
E|--------|--------|--------|--------|--------|--------|--------|--------|--------|


G|--------|--------|--------|--------|--------|--------|--------|--------|--------|
D|--------|--------|--------|--------|--------|--------|--------|--------|--------|
A|--------|--------|--------|--------|--------|--------|--------|--------|--------|
E|--------|--------|--------|--------|--------|--------|--------|--------|--------|


G|--------|--------|--------|--------|--------|--------|--------|--------|--------|
D|--------|--------|--------|--------|--------|--------|--------|--------|--------|
A|--------|--------|--------|--------|--------|--------|--------|--------|--------|
E|--------|--------|--------|--------|--------|--------|--------|--------|--------|


G|--------|--------|--------|--------|--------|--------|--------|--------|--------|
D|--------|--------|--------|--------|--------|--------|--------|--------|--------|
A|--------|--------|--------|--------|--------|--------|--------|--------|--------|
E|--------|--------|--------|--------|--------|--------|--------|--------|--------|


G|--------|--------|--------|--------|--------|--------|--------|--------|--------|
D|--------|--------|--------|--------|--------|--------|--------|--------|--------|
A|--------|--------|--------|--------|--------|--------|--------|--------|--------|
E|--------|--------|--------|--------|--------|--------|--------|--------|--------|


G|--------|--------|--------|--------|--------|--------|--------|--------|--------|
D|--------|--------|--------|--------|--------|--------|--------|--------|--------|
A|--------|--------|--------|--------|--------|--------|--------|--------|--------|
E|--------|--------|--------|--------|--------|--------|--------|--------|--------|


G|--------|--------|--------|--------|--------|--------|--------|--------|--------|
D|--------|--------|--------|--------|--------|--------|--------|--------|--------|
A|--------|--------|--------|--------|--------|--------|--------|--------|--------|
E|--------|--------|--------|--------|--------|--------|--------|--------|--------|


G|--------|--------|--------|--------|--------|--------|--------|--------|--------|
D|--------|--------|--------|--------|--------|--------|--------|--------|--------|
A|--------|--------|--------|--------|--------|--------|--------|--------|--------|
E|--------|--------|--------|--------|--------|--------|--------|--------|--------|


G|--------|--------|--------|--------|--------|--------|--------|--------|--------|
D|--------|--------|--------|--------|--------|--------|--------|--------|--------|
A|--------|--------|--------|--------|--------|--------|--------|--------|--------|
E|--------|--------|--------|--------|--------|--------|--------|--------|--------|


G|--------|--------|
D|--------|--------|
A|--------|--------|
E|--------|--------|