Menu:

 

Search:

 

megadeth - tornado of souls:

 



Title: Tornado of Souls
Artist: 
Album: Rust in Peace
Author: Megadeth


Track 1: Dave Mustaine

E|------------------------------|---------------------------------|------------------------------|
B|------------------------------|---------------------------------|------------------------------|
G|------------------------------|---------------------------------|------------------------------|
D|------------------------------|-------------7-------------------|------------------------------|
A|-9----------------------------|-7-------------------9---9---9---|-9----------------------------|
E|-7----7---7---7---7---7---7---|-----7---7-------7---7---7---7---|-7----7---7---7---7---7---7---|


E|---------------------------------|------------------------------|---------------------------------|
B|---------------------------------|------------------------------|---------------------------------|
G|---------------------------------|------------------------------|---------------------------------|
D|-------------7-------------------|------------------------------|-------------7-------------------|
A|-7-----------------------7---9---|-9----------------------------|-7-------------------9---9---9---|
E|-----7---7-------7---7-------7---|-7----7---7---7---7---7---7---|-----7---7-------7---7---7---7---|


E|------------------------------|---------------------------------|-----------------------------------|
B|------------------------------|---------------------------------|-----------------------------------|
G|------------------------------|---------------------------------|-----------------------------------|
D|------------------------------|-------------7-------------------|-----------------------------------|
A|-9----------------------------|-7-----------------------7-------|-----------------7--8--7-------7---|
E|-7----7---7---7---7---7---7---|-----7---7-------7---7-------7---|-7---7---9---10------------10------|


E|---------------------------------|-----------------------------------|---------------------------------|
B|---------------------------------|-----------------------------------|---------------------------------|
G|-------------------------7-------|-----------------------------------|-------------------------7-------|
D|---------7-------9---7-----------|-----------------------------------|---------7-------9---7-----------|
A|-8---9-------9-------------------|-----------------7--8--7-------7---|-8---9-------9-------------------|
E|-----------------------------7---|-7---7---9---10------------10------|-----------------------------7---|


E|-----------------------------------|-----------------------------------|-------------|
B|-----------------------------------|-----------------------------------|-------------|
G|-----------------------------------|-------------------------9---------|-------------|
D|-----------------------------------|---------7-------9---7-------9--7--|-7-----5-----|
A|-----------------7--8--7-------7---|-8---9-------9---------------7--5--|-5-----3-----|
E|-7---7---9---10------------10------|-----------------------------------|-------------|


E|---------------------------------------------|------------------------------|---------------------------------|
B|---------------------------------------------|------------------------------|---------------------------------|
G|---------------------------------------------|------------------------------|---------------------------------|
D|-----------------------------------------4---|-4----4---4---4---------------|-----------------------------4---|
A|-7--8--7--5--5--7--5--4--4--5--4--3--3---2---|-2----2---2---2---4---4---5---|-5---2---2---4---4---5---0---2---|
E|---------------------------------------------|------------------2---2---3---|-3---0---0---2---2---3-----------|


E|------------------------------|---------------------------------|------------------------------|
B|------------------------------|---------------------------------|------------------------------|
G|------------------------------|---------------------------------|------------------------------|
D|-4----4---4---4---------------|-----------------------------4---|-4----4---4---4---------------|
A|-2----2---2---2---4---4---5---|-5---2---2---4---4---5---0---2---|-2----2---2---2---4---4---5---|
E|------------------2---2---3---|-3---0---0---2---2---3-----------|------------------2---2---3---|


E|---------------------------------|------------------------------|---------------------------------|
B|---------------------------------|------------------------------|---------------------------------|
G|---------------------------------|------------------------------|---------------------------------|
D|-----------------------------4---|-4----4---4---4---------------|-----------------------------4---|
A|-5---2---2---4---4---5---0---2---|-2----2---2---2---4---4---5---|-5---2---2---4---4---5---0---2---|
E|-3---0---0---2---2---3-----------|------------------2---2---3---|-3---0---0---2---2---3-----------|


E|------------------------------|---------------------------------|------------------------------|
B|------------------------------|---------------------------------|------------------------------|
G|------------------------------|---------------------------------|------------------------------|
D|-4----4---4---4---------------|-----------------------------4---|-4----4---4---4---------------|
A|-2----2---2---2---4---4---5---|-5---2---2---4---4---5---0---2---|-2----2---2---2---4---4---5---|
E|------------------2---2---3---|-3---0---0---2---2---3-----------|------------------2---2---3---|


E|---------------------------------|------------------------------|---------------------------------|
B|---------------------------------|------------------------------|---------------------------------|
G|---------------------------------|------------------------------|---------------------------------|
D|-----------------------------4---|-4----4---4---4---------------|-----------------------------2---|
A|-5---2---2---4---4---5---0---2---|-2----2---2---2---4---4---5---|-5---2---2---4---4---5---0---0---|
E|-3---0---0---2---2---3-----------|------------------2---2---3---|-3---0---0---2---2---3-----------|


E|------------------------------|---------------------------------|------------------------------|
B|------------------------------|---------------------------------|------------------------------|
G|------------------------------|---------------------------------|------------------------------|
D|-2----2---2---2-------0-------|-------------2---2---5---3---5---|-2----2---2---2-------0-------|
A|-0----0---0---0---2---0---3---|-3-----------0---0---3---3---3---|-0----0---0---0---2---0---3---|
E|------------------0-------1---|-1---3---4-----------------------|------------------0-------1---|


E|---------------------------------|------------------------------|---------------------------------|
B|---------------------------------|------------------------------|---------------------------------|
G|---------------------------------|------------------------------|---------------------------------|
D|-------------2---2---5---3---5---|-4----4---4---4---------------|-----------------------------4---|
A|-3-----------0---0---3---3---3---|-2----2---2---2---4---4---5---|-5---2---2---4---4---5---0---2---|
E|-1---3---4-----------------------|------------------2---2---3---|-3---0---0---2---2---3-----------|


E|------------------------------|---------------------------------|-----------------------|
B|------------------------------|---------------------------------|-----------------------|
G|------------------------------|---------------------------------|-----------------------|
D|-4----4---4---4---------------|-----------------------------4---|-4---------------------|
A|-2----2---2---2---4---4---5---|-5---2---2---4---4---5---0---2---|-2---------4-------5---|
E|------------------2---2---3---|-3---0---0---2---2---3-----------|-----------2-------3---|


E|---------------------------------|-----------------------|-----------------------|
B|---------------------------------|-----------------------|-----------------------|
G|---------------------------------|-----------------------|-----------------------|
D|---------------------------------|-----------------------|-----------7-------7---|
A|-5---------------------------2---|-2---------------------|-----------5-------5---|
E|-3---0---2---3---3---2---0---0---|-0---------3-------3---|-2---------------------|


E|-----------------------|---------------------------------|-----------------------|
B|-----------------------|---------------------------------|-----------------------|
G|-----------------------|---------------------------------|-----------------------|
D|-4---------------------|---------------------------------|-----------------------|
A|-2---------4-------5---|-5---------------------------2---|-2---------------------|
E|-----------2-------3---|-3---0---2---3---3---2---0---0---|-0---------3-------3---|


E|-----------------------|-----------------------|---------------------------------|
B|-----------------------|-----------------------|---------------------------------|
G|-----------------------|-----------------------|---------------------------------|
D|-----------7-------7---|-4---------------------|---------------------------------|
A|-----------5-------5---|-2---------4-------5---|-5---------------------------2---|
E|-2---------------------|-----------2-------3---|-3---0---2---3---3---2---0---0---|


E|-----------------------|-----------------------|-----------------------|---------------------------------|
B|-----------------------|-----------------------|-----------------------|---------------------------------|
G|-----------------------|-----------------------|-----------------------|---------------------------------|
D|-----------------------|-----------7-------7---|-4---------------------|---------------------------------|
A|-2---------------------|-----------5-------5---|-2---------4-------5---|-5---------------------------2---|
E|-0---------3-------3---|-2---------------------|-----------2-------3---|-3---0---2---3---3---2---0---0---|


E|-----------------------|---------------------------|------------------------------|
B|-----------------------|---------------------------|------------------------------|
G|-----------------------|---------------------------|------------------------------|
D|-----------------------|-----------------------4---|-4----4---4---4---------------|
A|-2---------------------|------4---5---4---0----2---|-2----2---2---2---4---4---5---|
E|-0---------3-------3---|-2-------------------------|------------------2---2---3---|


E|---------------------------------|------------------------------|---------------------------------|
B|---------------------------------|------------------------------|---------------------------------|
G|---------------------------------|------------------------------|---------------------------------|
D|-----------------------------4---|-4----4---4---4---------------|-----------------------------4---|
A|-5---2---2---4---4---5---0---2---|-2----2---2---2---4---4---5---|-5---2---2---4---4---5---0---2---|
E|-3---0---0---2---2---3-----------|------------------2---2---3---|-3---0---0---2---2---3-----------|


E|------------------------------|---------------------------------|------------------------------|
B|------------------------------|---------------------------------|------------------------------|
G|------------------------------|---------------------------------|------------------------------|
D|-4----4---4---4---------------|-----------------------------4---|-4----4---4---4---------------|
A|-2----2---2---2---4---4---5---|-5---2---2---4---4---5---0---2---|-2----2---2---2---4---4---5---|
E|------------------2---2---3---|-3---0---0---2---2---3-----------|------------------2---2---3---|


E|---------------------------------|------------------------------|---------------------------------|
B|---------------------------------|------------------------------|---------------------------------|
G|---------------------------------|------------------------------|---------------------------------|
D|-----------------------------4---|-4----4---4---4---------------|-----------------------------2---|
A|-5---2---2---4---4---5---0---2---|-2----2---2---2---4---4---5---|-5---2---2---4---4---5---0---0---|
E|-3---0---0---2---2---3-----------|------------------2---2---3---|-3---0---0---2---2---3-----------|


E|------------------------------|---------------------------------|------------------------------|
B|------------------------------|---------------------------------|------------------------------|
G|------------------------------|---------------------------------|------------------------------|
D|-2----2---2---2-------0-------|-------------2---2---5---3---5---|-2----2---2---2-------0-------|
A|-0----0---0---0---2---0---3---|-3-----------0---0---3---3---3---|-0----0---0---0---2---0---3---|
E|------------------0-------1---|-1---3---4-----------------------|------------------0-------1---|


E|---------------------------------|------------------------------|---------------------------------|
B|---------------------------------|------------------------------|---------------------------------|
G|---------------------------------|------------------------------|---------------------------------|
D|-------------2---2---5---3---5---|-4----4---4---4---------------|-----------------------------4---|
A|-3-----------0---0---3---3---3---|-2----2---2---2---4---4---5---|-5---2---2---4---4---5---0---2---|
E|-1---3---4-----------------------|------------------2---2---3---|-3---0---0---2---2---3-----------|


E|------------------------------|---------------------------------|-----------------------|
B|------------------------------|---------------------------------|-----------------------|
G|------------------------------|---------------------------------|-----------------------|
D|-4----4---4---4---------------|-----------------------------4---|-4---------------------|
A|-2----2---2---2---4---4---5---|-5---2---2---4---4---5---0---2---|-2---------4-------5---|
E|------------------2---2---3---|-3---0---0---2---2---3-----------|-----------2-------3---|


E|---------------------------------|-----------------------|-----------------------|
B|---------------------------------|-----------------------|-----------------------|
G|---------------------------------|-----------------------|-----------------------|
D|---------------------------------|-----------------------|-----------7-------7---|
A|-5---------------------------2---|-2---------------------|-----------5-------5---|
E|-3---0---2---3---3---2---0---0---|-0---------3-------3---|-2---------------------|


E|-----------------------|---------------------------------|-----------------------|
B|-----------------------|---------------------------------|-----------------------|
G|-----------------------|---------------------------------|-----------------------|
D|-4---------------------|---------------------------------|-----------------------|
A|-2---------4-------5---|-5---------------------------2---|-2---------------------|
E|-----------2-------3---|-3---0---2---3---3---2---0---0---|-0---------3-------3---|


E|-----------------------|-----------------------|---------------------------------|
B|-----------------------|-----------------------|---------------------------------|
G|-----------------------|-----------------------|---------------------------------|
D|-----------7-------7---|-4---------------------|---------------------------------|
A|-----------5-------5---|-2---------4-------5---|-5---------------------------2---|
E|-2---------------------|-----------2-------3---|-3---0---2---3---3---2---0---0---|


E|-----------------------|-----------------------|-----------------------|---------------------------------|
B|-----------------------|-----------------------|-----------------------|---------------------------------|
G|-----------------------|-----------------------|-----------------------|---------------------------------|
D|-----------------------|-----------7-------7---|-4---------------------|---------------------------------|
A|-2---------------------|-----------5-------5---|-2---------4-------5---|-5---------------------------2---|
E|-0---------3-------3---|-2---------------------|-----------2-------3---|-3---0---2---3---3---2---0---0---|


E|-----------------------|---------------------------|------------------------------|
B|-----------------------|---------------------------|------------------------------|
G|-----------------------|---------------------------|------------------------------|
D|-----------------------|-----------------------4---|-4----4-------4---------------|
A|-2---------------------|------4---5---4---0----2---|-2----2-------2---4-------5---|
E|-0---------3-------3---|-2-------------------------|------------------2-------3---|


E|--------------------|------------------------------|------------------------------|
B|--------------------|------------------------------|------------------------------|
G|--------------------|------------------------------|------------------------------|
D|--------------------|-4----4-------4---------------|--------------7---7-------4---|
A|-5----5-------------|-2----2-------2---4-------5---|-5----5-------5---5-------2---|
E|-3----3-------------|------------------2-------3---|-3----3-----------------------|


E|------------------------------|--------------------|------------------------------|
B|------------------------------|--------------------|------------------------------|
G|------------------------------|--------------------|------------------------------|
D|-4----4-------4---------------|--------------------|-4----4-------4---------------|
A|-2----2-------2---4-------5---|-5----5-------------|-2----2-------2---4-------5---|
E|------------------2-------3---|-3----3-------------|------------------2-------3---|


E|------------------------------|------------------------------|--------------------|
B|------------------------------|------------------------------|--------------------|
G|------------------------------|------------------------------|--------------------|
D|--------------7---7-------2---|-2----2-----------------------|--------------------|
A|-5----5-------5---5-------0---|-0----0-------2---2-------3---|-3----3-------------|
E|-3----3-----------------------|--------------0---0-------1---|-1----1-------------|


E|------------------------------|------------------------------|------------------------------|
B|------------------------------|------------------------------|------------------------------|
G|------------------------------|------------------------------|------------------------------|
D|-2----2-----------------------|--------------5---------------|------4-------4---------------|
A|-0----0-------2---2-------3---|-3----3-------3---5-------4---|-4----2-------2---4-------5---|
E|--------------0---0-------1---|-1----1-------3---3-------2---|-2----2-------2---2-------3---|


E|--------------------|------------------------------|------------------------------|
B|--------------------|------------------------------|------------------------------|
G|--------------------|------------------------------|------------------------------|
D|--------------------|-4----4-------4---------------|--------------7---7-------4---|
A|-5----5-------------|-2----2-------2---4-------5---|-5----5-------5---5-------2---|
E|-3----3-------------|------------------2-------3---|-3----3-----------------------|


E|-----------------|-----------------|-----------------------------------|---------------------------------|
B|-----------------|-----------------|-----------------------------------|---------------------------------|
G|-----------------|-----------------|-----------------------------------|-------------------------7-------|
D|-4---------------|-----------------|-----------------------------------|---------7-------9---7-----------|
A|-2---------------|-----------------|-----------------7--8--7-------7---|-8---9-------9-------------------|
E|-----------------|-------------7---|-7---7---9---10------------10------|-----------------------------7---|


E|-----------------------------------|---------------------------------|-----------------------------------|
B|-----------------------------------|---------------------------------|-----------------------------------|
G|-----------------------------------|-------------------------7-------|-----------------------------------|
D|-----------------------------------|---------7-------9---7-----------|-----------------------------------|
A|-----------------7--8--7-------7---|-8---9-------9-------------------|-----------------7--8--7-------7---|
E|-7---7---9---10------------10------|-----------------------------7---|-7---7---9---10------------10------|


E|---------------------------------|-----------------------------------|---------------------------------|
B|---------------------------------|-----------------------------------|---------------------------------|
G|-------------------------7-------|-----------------------------------|-------------------------7-------|
D|---------7-------9---7-----------|-----------------------------------|---------7-------9---7-----------|
A|-8---9-------9-------------------|-----------------7--8--7-------7---|-8---9-------9-------------------|
E|-----------------------------7---|-7---7---9---10------------10------|-----------------------------7---|


E|-----------------------------------|---------------------------------|-----------------------------------|
B|-----------------------------------|---------------------------------|-----------------------------------|
G|-----------------------------------|-------------------------7-------|-----------------------------------|
D|-----------------------------------|---------7-------9---7-----------|-----------------------------------|
A|-----------------7--8--7-------7---|-8---9-------9-------------------|-----------------7--8--7-------7---|
E|-7---7---9---10------------10------|-----------------------------7---|-7---7---9---10------------10------|


E|---------------------------------|-----------------------------------|---------------------------------|
B|---------------------------------|-----------------------------------|---------------------------------|
G|-------------------------7-------|-----------------------------------|-------------------------7-------|
D|---------7-------9---7-----------|-----------------------------------|---------7-------9---7-----------|
A|-8---9-------9-------------------|-----------------7--8--7-------7---|-8---9-------9-------------------|
E|-----------------------------7---|-7---7---9---10------------10------|-----------------------------7---|


E|-----------------------------------|---------------------------------|-----------------------------------|
B|-----------------------------------|---------------------------------|-----------------------------------|
G|-----------------------------------|-------------------------7-------|-----------------------------------|
D|-----------------------------------|---------7-------9---7-----------|-----------------------------------|
A|-----------------7--8--7-------7---|-8---9-------9-------------------|-----------------7--8--7-------7---|
E|-7---7---9---10------------10------|-----------------------------7---|-7---7---9---10------------10------|


E|---------------------------------|-----------------------------------|---------------------------------|
B|---------------------------------|-----------------------------------|---------------------------------|
G|-------------------------7-------|-----------------------------------|-------------------------7-------|
D|---------7-------9---7-----------|-----------------------------------|---------7-------9---7-----------|
A|-8---9-------9-------------------|-----------------7--8--7-------7---|-8---9-------9-------------------|
E|-----------------------------7---|-7---7---9---10------------10------|-----------------------------7---|


E|-----------------------------------|---------------------------------|-----------------------------------|
B|-----------------------------------|---------------------------------|-----------------------------------|
G|-----------------------------------|-------------------------7-------|-----------------------------------|
D|-----------------------------------|---------7-------9---7-----------|-----------------------------------|
A|-----------------7--8--7-------7---|-8---9-------9-------------------|-----------------7--8--7-------7---|
E|-7---7---9---10------------10------|-----------------------------7---|-7---7---9---10------------10------|


E|---------------------------------|-----------------------------------|---------------------------------|
B|---------------------------------|-----------------------------------|---------------------------------|
G|---------------------------------|-----------------------------------|-------------------------7-------|
D|---------7-------9---7---7-------|-----------------------------------|---------7-------9---7-----------|
A|-8---9-------9-------------------|-----------------7--8--7-------7---|-8---9-------9-------------------|
E|-----------------------------7---|-7---7---9---10------------10------|-----------------------------7---|


E|-----------------------------------|---------------------------------|-----------------------------------|
B|-----------------------------------|---------------------------------|-----------------------------------|
G|-----------------------------------|---------------------------------|-----------------------------------|
D|-----------------------------------|---------7-------9---7---7-------|-----------------------------------|
A|-----------------7--8--7-------7---|-8---9-------9-------------------|-----------------7--8--7-------7---|
E|-7---7---9---10------------10------|-----------------------------7---|-7---7---9---10------------10------|


E|---------------------------------|-----------------------------------|---------------------------------|
B|---------------------------------|-----------------------------------|---------------------------------|
G|-------------------------7-------|-----------------------------------|---------------------------------|
D|---------7-------9---7-----------|-----------------------------------|---------7-------9---7---7-------|
A|-8---9-------9-------------------|-----------------7--8--7-------7---|-8---9-------9-------------------|
E|-----------------------------7---|-7---7---9---10------------10------|-----------------------------7---|


E|---------------------------------|---------------------------------|---------------------------------|
B|---------------------------------|---------------------------------|---------------------------------|
G|---------------------------------|---------------------------------|---------------------------------|
D|---------------------------------|---------------------------------|---------------------------------|
A|---------5-------7---5-----------|---------7-----------5---7-------|---------5-------7---5-----------|
E|-7---7-------7-----------5---7---|-7---7-------7---7-----------7---|-7---7-------7-----------5---7---|


E|---------------------------------|---------------------------------|---------------------------------|
B|---------------------------------|---------------------------------|---------------------------------|
G|---------------------------------|---------------------------------|---------------------------------|
D|---------------------------------|---------------------------------|---------------------------------|
A|---------7-----------5---7-------|---------5-------7---5-----------|---------7-----------5---7-------|
E|-7---7-------7---7-----------7---|-7---7-------7-----------5---7---|-7---7-------7---7-----------7---|


E|---------------------------------|---------------------------------|---------------------------------|
B|---------------------------------|---------------------------------|---------------------------------|
G|---------------------------------|---------------------------------|---------------------------------|
D|---------------------------------|---------------------------------|---------------------------------|
A|---------5-------7---5-----------|---------7-----------5---7-------|---------5-------7---5-----------|
E|-7---7-------7-----------5---7---|-7---7-------7---7-----------7---|-7---7-------7-----------5---7---|


E|---------------------------------|---------------------------------|---------------------------------|
B|---------------------------------|---------------------------------|---------------------------------|
G|---------------------------------|---------------------------------|---------------------------------|
D|---------------------------------|---------------------------------|---------------------------------|
A|---------7-----------5---7-------|---------5-------7---5-----------|---------7-----------5---7-------|
E|-7---7-------7---7-----------7---|-7---7-------7-----------5---7---|-7---7-------7---7-----------7---|


E|---------------------------------|---------------------------------|------------------------------|
B|---------------------------------|---------------------------------|------------------------------|
G|---------------------------------|---------------------------------|------------------------------|
D|---------------------------------|-----------------------------4---|-4----------------------------|
A|---------5-------7---5-----------|---------7-----------5-------2---|-2----2---2---2---2---2---2---|
E|-7---7-------7-----------5---7---|-7---7-------7---7---------------|------------------------------|


E|---------------------------------|------------------------------|---------------------------------|
B|---------------------------------|------------------------------|---------------------------------|
G|---------------------------------|------------------------------|---------------------------------|
D|-------------------------4-------|------------------------------|---------------------------------|
A|-2---2---2---2---2---2---2---5---|-5----------------------------|-------------------------3---2---|
E|-----------------------------3---|-3----3---3---3---3---3---3---|-3---3---3---3---3---3---3---0---|


E|------------------------------|---------------------------------|------------------------------|
B|------------------------------|---------------------------------|------------------------------|
G|------------------------------|---------------------------------|------------------------------|
D|------------------------------|---------------------------------|--------------------------2---|
A|-2----------------------------|-------------------------4---4---|-4------------------------0---|
E|-0----0---0---0---0---0---0---|-0---0---0---0---0---0---2---2---|-2----2---2---2---2---2-------|


E|------------------------------|------------------------------|---------------------------------|
B|------------------------------|------------------------------|---------------------------------|
G|------------------------------|------------------------------|---------------------------------|
D|-2----------------3-------4---|-4----------------------------|-------------------------4-------|
A|-0----0---0---0---1-------2---|-2----2---2---2---2---2---2---|-2---2---2---2---2---2---2---5---|
E|------------------------------|------------------------------|-----------------------------3---|


E|------------------------------|---------------------------------|------------------------------|
B|------------------------------|---------------------------------|------------------------------|
G|------------------------------|---------------------------------|------------------------------|
D|------------------------------|---------------------------------|------------------------------|
A|-5----------------------------|-------------------------3---2---|-2----------------------------|
E|-3----3---3---3---3---3---3---|-3---3---3---3---3---3---3---0---|-0----0---0---0---0---0---0---|


E|---------------------------------|------------------------------|------------------------------|
B|---------------------------------|------------------------------|------------------------------|
G|---------------------------------|------------------------------|------------------------------|
D|---------------------------------|--------------------------2---|-2----------------3-------4---|
A|-------------------------4---4---|-4------------------------0---|-0----0---0---0---1-------2---|
E|-0---0---0---0---0---0---2---2---|-2----2---2---2---2---2-------|------------------------------|


E|------------------------------|---------------------------------|------------------------------|
B|------------------------------|---------------------------------|------------------------------|
G|------------------------------|---------------------------------|------------------------------|
D|-4----------------------------|-------------------------4-------|------------------------------|
A|-2----2---2---2---2---2---2---|-2---2---2---2---2---2---2---5---|-5----------------------------|
E|------------------------------|-----------------------------3---|-3----3---3---3---3---3---3---|


E|---------------------------------|------------------------------|---------------------------------|
B|---------------------------------|------------------------------|---------------------------------|
G|---------------------------------|------------------------------|---------------------------------|
D|---------------------------------|------------------------------|---------------------------------|
A|-------------------------3---2---|-2----------------------------|-------------------------4---4---|
E|-3---3---3---3---3---3---3---0---|-0----0---0---0---0---0---0---|-0---0---0---0---0---0---2---2---|


E|------------------------------|------------------------------|------------------------------|
B|------------------------------|------------------------------|------------------------------|
G|------------------------------|------------------------------|------------------------------|
D|--------------------------2---|-2----------------3-------4---|-4----------------------------|
A|-4------------------------0---|-0----0---0---0---1-------2---|-2----2---2---2---2---2---2---|
E|-2----2---2---2---2---2-------|------------------------------|------------------------------|


E|---------------------------------|------------------------------|---------------------------------|
B|---------------------------------|------------------------------|---------------------------------|
G|---------------------------------|------------------------------|---------------------------------|
D|-------------------------4-------|------------------------------|---------------------------------|
A|-2---2---2---2---2---2---2---5---|-5----------------------------|-------------------------3---2---|
E|-----------------------------3---|-3----3---3---3---3---3---3---|-3---3---3---3---3---3---3---0---|


E|------------------------------|---------------------------------|------------------------------|
B|------------------------------|---------------------------------|------------------------------|
G|------------------------------|---------------------------------|------------------------------|
D|------------------------------|---------------------------------|--------------------------2---|
A|-2----------------------------|-------------------------4---4---|-4------------------------0---|
E|-0----0---0---0---0---0---0---|-0---0---0---0---0---0---2---2---|-2----2---2---2---2---2-------|


E|------------------------------|------------------------------|---------------------------------|
B|------------------------------|------------------------------|---------------------------------|
G|------------------------------|------------------------------|---------------------------------|
D|-2----------------3-------4---|-4----------------------------|-------------------------4-------|
A|-0----0---0---0---1-------2---|-2----2---2---2---2---2---2---|-2---2---2---2---2---2---2---5---|
E|------------------------------|------------------------------|-----------------------------3---|


E|------------------------------|---------------------------------|------------------------------|
B|------------------------------|---------------------------------|------------------------------|
G|------------------------------|---------------------------------|------------------------------|
D|------------------------------|---------------------------------|------------------------------|
A|-5----------------------------|-------------------------3---2---|-2----------------------------|
E|-3----3---3---3---3---3---3---|-3---3---3---3---3---3---3---0---|-0----0---0---0---0---0---0---|


E|---------------------------------|------------------------------|------------------------------|
B|---------------------------------|------------------------------|------------------------------|
G|---------------------------------|------------------------------|------------------------------|
D|---------------------------------|--------------------------2---|-2----------------3-------4---|
A|-------------------------4---4---|-4------------------------0---|-0----0---0---0---1-------2---|
E|-0---0---0---0---0---0---2---2---|-2----2---2---2---2---2-------|------------------------------|


E|------------------------------|---------------------------------|------------------------------|
B|------------------------------|---------------------------------|------------------------------|
G|------------------------------|---------------------------------|------------------------------|
D|-4----------------------------|-------------------------4-------|------------------------------|
A|-2----2---2---2---2---2---2---|-2---2---2---2---2---2---2---5---|-5----------------------------|
E|------------------------------|-----------------------------3---|-3----3---3---3---3---3---3---|


E|---------------------------------|------------------------------|---------------------------------|
B|---------------------------------|------------------------------|---------------------------------|
G|---------------------------------|------------------------------|---------------------------------|
D|---------------------------------|------------------------------|---------------------------------|
A|-------------------------3---2---|-2----------------------------|-------------------------4---4---|
E|-3---3---3---3---3---3---3---0---|-0----0---0---0---0---0---0---|-0---0---0---0---0---0---2---2---|


E|------------------------------|------------------------------|---------------------------------|
B|------------------------------|------------------------------|---------------------------------|
G|------------------------------|------------------------------|---------4-----------------------|
D|--------------------------2---|-2----------------3-------4---|-4-------4-----------5-----------|
A|-4------------------------0---|-0----0---0---0---1-------2---|-2---2-------2---2---5---2---2---|
E|-2----2---2---2---2---2-------|------------------------------|---------------------------------|


E|---------------------------------|---------------------------------|---------------------------------|
B|---------------------------------|---------------------------------|---------------------------------|
G|-4-----------2-------2---4-------|---------4-----------------------|-4-----------2-------2---4-------|
D|-4-----------2-------2---4-------|---------5-----------5-----------|-5-----------2-------2---4-------|
A|-----2---2-----------------------|---------------------5-----------|---------------------------------|
E|-----------------------------3---|-3---3-------3---3-------3---3---|-----3---3-------------------0---|


E|---------------------------------|---------------------------------|---------------------------------|
B|---------------------------------|---------------------------------|---------------------------------|
G|---------4-----------------------|-4-----------2-------2---4-------|---------4-----------------------|
D|---------4-----------4-----------|-4-----------2-------2---4-------|---------4-----------4-----------|
A|---------------------4-----------|---------------------------------|---------------------4-------0---|
E|-0---0-------0---0-------0---0---|-----0---0-------------------2---|-2---2-------2---2-------2-------|


E|------------------------------|---------------------------------|---------------------------------|
B|------------------------------|---------------------------------|---------------------------------|
G|---------4--------------------|---------4-----------------------|-4-----------2-------2---4-------|
D|---------4--------------------|---------4-----------5-----------|-4-----------2-------2---4-------|
A|-0---0-------0---0---1----2---|-2---2-------2---2---5---2---2---|-----2---2-----------------------|
E|------------------------------|---------------------------------|-----------------------------3---|


E|---------------------------------|---------------------------------|---------------------------------|
B|---------------------------------|---------------------------------|---------------------------------|
G|---------4-----------------------|-4-----------2-------2---4-------|---------4-----------------------|
D|---------5-----------5-----------|-5-----------2-------2---4-------|---------4-----------4-----------|
A|---------------------5-----------|---------------------------------|---------------------4-----------|
E|-3---3-------3---3-------3---3---|-----3---3-------------------0---|-0---0-------0---0-------0---0---|


E|---------------------------------|---------------------------------|---------------------------|
B|---------------------------------|---------------------------------|---------------------------|
G|-4-----------2-------2---4-------|---------4-----------------------|---------------------------|
D|-4-----------2-------2---4-------|---------4-----------4-----------|-----------------------4---|
A|---------------------------------|---------------------4-------0---|------4---5---4---0----2---|
E|-----0---0-------------------2---|-2---2-------2---2-------2-------|-2-------------------------|


E|---------------------------------|------------------------------|---------------------------------|
B|---------------------------------|------------------------------|---------------------------------|
G|---------------------2-----------|----------------------2-------|---------------------2-----------|
D|-4-----------2---4---0---4---2---|-4------------2---4---0---4---|-4-----------2---4---0---4---2---|
A|-2---2---4---0---2-------2---0---|-2----2---4---0---2-------2---|-2---2---4---0---2-------2---0---|
E|-----0---2-----------------------|------0---2-------------------|-----0---2-----------------------|


E|------------------------------|---------------------------------|------------------------------|
B|------------------------------|---------------------------------|------------------------------|
G|----------------------2-------|---------------------2-----------|----------------------2-------|
D|-4------------2---4---0---4---|-4-----------2---4---0---4---2---|-4------------2---4---0---4---|
A|-2----2---4---0---2-------2---|-2---2---4---0---2-------2---0---|-2----2---4---0---2-------2---|
E|------0---2-------------------|-----0---2-----------------------|------0---2-------------------|


E|---------------------------------|------------------------------|---------------------------------|
B|---------------------------------|------------------------------|---------------------------------|
G|---------------------2-----------|----------------------2-------|---------------------------------|
D|-4-----------2---4---0---4---2---|-4------------2---4---0---4---|---------------------0-----------|
A|-2---2---4---0---2-------2---0---|-2----2---4---0---2-------2---|-2-----------0---2-------2---0---|
E|-----0---2-----------------------|------0---2-------------------|-----0---2-----------------------|


E|------------------------------|---------------------------------|------------------------------|
B|------------------------------|---------------------------------|------------------------------|
G|------------------------------|---------------------------------|------------------------------|
D|----------------------0-------|---------------------0-----------|----------------------0-------|
A|-2------------0---2-------2---|-2-----------0---2-------2---0---|-2------------0---2-------2---|
E|------0---2-------------------|-----0---2-----------------------|------0---2-------------------|


E|---------------------------------|------------------------------|---------------------------------|
B|---------------------------------|------------------------------|---------------------------------|
G|---------------------------------|------------------------------|---------------------------------|
D|---------------------0-----------|----------------------0-------|---------------------0-----------|
A|-2-----------0---2-------2---0---|-2------------0---2-------2---|-2-----------0---2-------2---0---|
E|-----0---2-----------------------|------0---2-------------------|-----0---2-----------------------|


E|------------------------------|---------------------------------|------------------------------|
B|------------------------------|---------------------------------|------------------------------|
G|------------------------------|---------------------------------|------------------------------|
D|----------------------0-------|---------------------0-----------|----------------------0-------|
A|-2------------0---2-------2---|-2-----------0---2-------2---0---|-2------------0---2-------2---|
E|------0---2-------------------|-----0---2-----------------------|------0---2-------------------|


E|---------------------------------|------------------------------|---------------------------------|
B|---------------------------------|------------------------------|---------------------------------|
G|---------------------------------|------------------------------|---------------------------------|
D|---------------------0-----------|----------------------0-------|---------------------0-----------|
A|-2-----------0---2-------2---0---|-2------------0---2-------2---|-2-----------0---2-------2---0---|
E|-----0---2-----------------------|------0---2-------------------|-----0---2-----------------------|


E|------------------------------|---------------------------------|------------------------------|
B|------------------------------|---------------------------------|------------------------------|
G|------------------------------|---------------------------------|------------------------------|
D|----------------------0-------|---------------------0-----------|----------------------0---5---|
A|-2------------0---2-------2---|-2-----------0---2-------2---0---|-2------------0---2-------3---|
E|------0---2-------------------|-----0---2-----------------------|------0---2-------------------|


E|---------------------------------|------------------------------|---------------------------------|
B|---------------------------------|------------------------------|---------------------------------|
G|---------------------2-----------|----------------------2-------|---------------------2-----------|
D|-5-----------2---5---0---5---2---|-5------------2---5---0---4---|-4-----------2---4---0---4---2---|
A|-3---2---5---0---3-------3---0---|-3----2---5---0---3-------2---|-2---2---4---0---2-------2---0---|
E|-----0---3-----------------------|------0---3-------------------|-----0---2-----------------------|


E|------------------------------|---------------------------------|------------------------------|
B|------------------------------|---------------------------------|------------------------------|
G|----------------------2-------|---------------------2-----------|----------------------2-------|
D|-4------------2---4---0---5---|-5-----------2---5---0---5---2---|-5------------2---5---0---4---|
A|-2----2---4---0---2-------3---|-3---2---5---0---3-------3---0---|-3----2---5---0---3-------2---|
E|------0---2-------------------|-----0---3-----------------------|------0---3-------------------|


E|---------------------------------|------------------------------|------------------------------|
B|---------------------------------|------------------------------|------------------------------|
G|---------------------2-----------|----------------------2-------|------------------------------|
D|-4-----------2---4---0---4---2---|-4------------2---4---0---4---|-4----4-------4---------------|
A|-2---2---4---0---2-------2---0---|-2----2---4---0---2-------2---|-2----2-------2---4-------5---|
E|-----0---2-----------------------|------0---2-------------------|------------------2-------3---|


E|------------------------------|------------------------------|---------------------------|
B|------------------------------|------------------------------|---------------------------|
G|------------------------------|------------------------------|---------------------------|
D|--------------2---2-----------|------------------------------|----------2---2--------4---|
A|-5----5-------0---0-------2---|-2----2-------2---4-------5---|-5----5---0---0----4---2---|
E|-3----3-------------------0---|-0----0-------0---2-------3---|-3----3------------2-------|


E|------------------------------|------------------------------|-------------|---------------------------------------------|
B|------------------------------|------------------------------|-------------|---------------------------------------------|
G|------------------------------|------------------------------|-------------|---------------------------------------------|
D|-4----4-----------------------|------5-------2---2-------7---|-7-----5-----|-----------------------------------------4---|
A|-2----2-------4---4-------5---|-5----5-------0---0-------5---|-5-----3-----|-7--8--7--5--5--7--5--4--4--5--4--3--3---2---|
E|--------------2---2-------3---|-3----------------------------|-------------|---------------------------------------------|





Track 2: Marty Friedman

E|--------|--------|--------|--------|--------|--------|--------|--------|--------|
B|--------|--------|--------|--------|--------|--------|--------|--------|--------|
G|--------|--------|--------|--------|--------|--------|--------|--------|--------|
D|--------|--------|--------|--------|--------|--------|--------|--------|--------|
A|--------|--------|--------|--------|--------|--------|--------|--------|--------|
E|--------|--------|--------|--------|--------|--------|--------|--------|--------|


E|--------|--------|--------|--------|--------|--------|--------|--------|--------|
B|--------|--------|--------|--------|--------|--------|--------|--------|--------|
G|--------|--------|--------|--------|--------|--------|--------|--------|--------|
D|--------|--------|--------|--------|--------|--------|--------|--------|--------|
A|--------|--------|--------|--------|--------|--------|--------|--------|--------|
E|--------|--------|--------|--------|--------|--------|--------|--------|--------|


E|--------|--------|--------|--------|--------|--------|--------|--------|--------|
B|--------|--------|--------|--------|--------|--------|--------|--------|--------|
G|--------|--------|--------|--------|--------|--------|--------|--------|--------|
D|--------|--------|--------|--------|--------|--------|--------|--------|--------|
A|--------|--------|--------|--------|--------|--------|--------|--------|--------|
E|--------|--------|--------|--------|--------|--------|--------|--------|--------|


E|--------|--------|--------|--------|--------|--------|--------|--------|--------|
B|--------|--------|--------|--------|--------|--------|--------|--------|--------|
G|--------|--------|--------|--------|--------|--------|--------|--------|--------|
D|--------|--------|--------|--------|--------|--------|--------|--------|--------|
A|--------|--------|--------|--------|--------|--------|--------|--------|--------|
E|--------|--------|--------|--------|--------|--------|--------|--------|--------|


E|--------|--------|--------|--------|--------|--------|--------|--------|--------|
B|--------|--------|--------|--------|--------|--------|--------|--------|--------|
G|--------|--------|--------|--------|--------|--------|--------|--------|--------|
D|--------|--------|--------|--------|--------|--------|--------|--------|--------|
A|--------|--------|--------|--------|--------|--------|--------|--------|--------|
E|--------|--------|--------|--------|--------|--------|--------|--------|--------|


E|--------|--------|--------|--------|--------|--------|--------|--------|--------|
B|--------|--------|--------|--------|--------|--------|--------|--------|--------|
G|--------|--------|--------|--------|--------|--------|--------|--------|--------|
D|--------|--------|--------|--------|--------|--------|--------|--------|--------|
A|--------|--------|--------|--------|--------|--------|--------|--------|--------|
E|--------|--------|--------|--------|--------|--------|--------|--------|--------|


E|--------|--------|--------|--------|--------|--------|--------|--------|--------|
B|--------|--------|--------|--------|--------|--------|--------|--------|--------|
G|--------|--------|--------|--------|--------|--------|--------|--------|--------|
D|--------|--------|--------|--------|--------|--------|--------|--------|--------|
A|--------|--------|--------|--------|--------|--------|--------|--------|--------|
E|--------|--------|--------|--------|--------|--------|--------|--------|--------|


E|--------|--------|--------|--------|--------|--------|--------|--------|--------|
B|--------|--------|--------|--------|--------|--------|--------|--------|--------|
G|--------|--------|--------|--------|--------|--------|--------|--------|--------|
D|--------|--------|--------|--------|--------|--------|--------|--------|--------|
A|--------|--------|--------|--------|--------|--------|--------|--------|--------|
E|--------|--------|--------|--------|--------|--------|--------|--------|--------|


E|--------|--------|--------|--------|--------|--------|--------|--------|--------|
B|--------|--------|--------|--------|--------|--------|--------|--------|--------|
G|--------|--------|--------|--------|--------|--------|--------|--------|--------|
D|--------|--------|--------|--------|--------|--------|--------|--------|--------|
A|--------|--------|--------|--------|--------|--------|--------|--------|--------|
E|--------|--------|--------|--------|--------|--------|--------|--------|--------|


E|--------|--------|--------|--------|--------|--------|--------|--------|--------|
B|--------|--------|--------|--------|--------|--------|--------|--------|--------|
G|--------|--------|--------|--------|--------|--------|--------|--------|--------|
D|--------|--------|--------|--------|--------|--------|--------|--------|--------|
A|--------|--------|--------|--------|--------|--------|--------|--------|--------|
E|--------|--------|--------|--------|--------|--------|--------|--------|--------|


E|--------|--------|--------|--------|--------|--------|--------|--------|--------|
B|--------|--------|--------|--------|--------|--------|--------|--------|--------|
G|--------|--------|--------|--------|--------|--------|--------|--------|--------|
D|--------|--------|--------|--------|--------|--------|--------|--------|--------|
A|--------|--------|--------|--------|--------|--------|--------|--------|--------|
E|--------|--------|--------|--------|--------|--------|--------|--------|--------|


E|--------|--------|--------|--------|--------|--------|--------|--------|--------|
B|--------|--------|--------|--------|--------|--------|--------|--------|--------|
G|--------|--------|--------|--------|--------|--------|--------|--------|--------|
D|--------|--------|--------|--------|--------|--------|--------|--------|--------|
A|--------|--------|--------|--------|--------|--------|--------|--------|--------|
E|--------|--------|--------|--------|--------|--------|--------|--------|--------|


E|--------|--------|--------|--------|--------|--------|--------|--------|--------|
B|--------|--------|--------|--------|--------|--------|--------|--------|--------|
G|--------|--------|--------|--------|--------|--------|--------|--------|--------|
D|--------|--------|--------|--------|--------|--------|--------|--------|--------|
A|--------|--------|--------|--------|--------|--------|--------|--------|--------|
E|--------|--------|--------|--------|--------|--------|--------|--------|--------|


E|--------|--------|--------|--------|--------|--------|--------|--------|--------|
B|--------|--------|--------|--------|--------|--------|--------|--------|--------|
G|--------|--------|--------|--------|--------|--------|--------|--------|--------|
D|--------|--------|--------|--------|--------|--------|--------|--------|--------|
A|--------|--------|--------|--------|--------|--------|--------|--------|--------|
E|--------|--------|--------|--------|--------|--------|--------|--------|--------|


E|--------|--------|--------|--------|--------|--------|--------|--------|--------|
B|--------|--------|--------|--------|--------|--------|--------|--------|--------|
G|--------|--------|--------|--------|--------|--------|--------|--------|--------|
D|--------|--------|--------|--------|--------|--------|--------|--------|--------|
A|--------|--------|--------|--------|--------|--------|--------|--------|--------|
E|--------|--------|--------|--------|--------|--------|--------|--------|--------|


E|--------|--------|--------|--------|--------|--------|--------|--------|-----------------------|
B|--------|--------|--------|--------|--------|--------|--------|--------|-----------------------|
G|--------|--------|--------|--------|--------|--------|--------|--------|-----------------------|
D|--------|--------|--------|--------|--------|--------|--------|--------|-----------4---7-------|
A|--------|--------|--------|--------|--------|--------|--------|--------|-------------------5---|
E|--------|--------|--------|--------|--------|--------|--------|--------|-----------------------|


E|---------------------------------|---------------------------------|---------------------------------|
B|---------------------------------|---------------------------------|---------------------------------|
G|---------------------------------|---------------------------------|---------------------------------|
D|---------4-------5---4-----------|---------5-----------4---5-------|---------4-------5---4-----------|
A|-5---5-------5-----------4---5---|-5---5-------5---5-----------5---|-5---5-------5-----------4---5---|
E|---------------------------------|---------------------------------|---------------------------------|


E|---------------------------------|---------------------------------|---------------------------------|
B|---------------------------------|---------------------------------|---------------------------------|
G|---------------------------------|---------------------------------|---------------------------------|
D|---------5-----------4---5-------|---------4-------5---4-----------|---------5-----------4---5-------|
A|-5---5-------5---5-----------5---|-5---5-------5-----------4---5---|-5---5-------5---5-----------5---|
E|---------------------------------|---------------------------------|---------------------------------|


E|---------------------------------|---------------------------------|--------|--------|
B|---------------------------------|---------------------------------|--------|--------|
G|---------------------------------|---------------------------------|--------|--------|
D|---------4-------5---4-----------|---------5-----------4-----------|--------|--------|
A|-5---5-------5-----------4---5---|-5---5-------5---5---------------|--------|--------|
E|---------------------------------|---------------------------------|--------|--------|


E|--------|--------|--------|--------|--------|--------|--------|--------|--------|
B|--------|--------|--------|--------|--------|--------|--------|--------|--------|
G|--------|--------|--------|--------|--------|--------|--------|--------|--------|
D|--------|--------|--------|--------|--------|--------|--------|--------|--------|
A|--------|--------|--------|--------|--------|--------|--------|--------|--------|
E|--------|--------|--------|--------|--------|--------|--------|--------|--------|


E|--------|--------|--------|--------|--------|--------|--------|--------|--------|
B|--------|--------|--------|--------|--------|--------|--------|--------|--------|
G|--------|--------|--------|--------|--------|--------|--------|--------|--------|
D|--------|--------|--------|--------|--------|--------|--------|--------|--------|
A|--------|--------|--------|--------|--------|--------|--------|--------|--------|
E|--------|--------|--------|--------|--------|--------|--------|--------|--------|


E|--------|--------|--------|--------|--------|--------|--------|--------|--------|
B|--------|--------|--------|--------|--------|--------|--------|--------|--------|
G|--------|--------|--------|--------|--------|--------|--------|--------|--------|
D|--------|--------|--------|--------|--------|--------|--------|--------|--------|
A|--------|--------|--------|--------|--------|--------|--------|--------|--------|
E|--------|--------|--------|--------|--------|--------|--------|--------|--------|


E|--------|--------|--------|--------|--------|--------|--------|--------|--------|
B|--------|--------|--------|--------|--------|--------|--------|--------|--------|
G|--------|--------|--------|--------|--------|--------|--------|--------|--------|
D|--------|--------|--------|--------|--------|--------|--------|--------|--------|
A|--------|--------|--------|--------|--------|--------|--------|--------|--------|
E|--------|--------|--------|--------|--------|--------|--------|--------|--------|


E|--------|--------|--------|--------|--------|--------|--------|--------|--------|
B|--------|--------|--------|--------|--------|--------|--------|--------|--------|
G|--------|--------|--------|--------|--------|--------|--------|--------|--------|
D|--------|--------|--------|--------|--------|--------|--------|--------|--------|
A|--------|--------|--------|--------|--------|--------|--------|--------|--------|
E|--------|--------|--------|--------|--------|--------|--------|--------|--------|


E|--------|--------|--------|--------|--------|--------|--------|--------|--------|
B|--------|--------|--------|--------|--------|--------|--------|--------|--------|
G|--------|--------|--------|--------|--------|--------|--------|--------|--------|
D|--------|--------|--------|--------|--------|--------|--------|--------|--------|
A|--------|--------|--------|--------|--------|--------|--------|--------|--------|
E|--------|--------|--------|--------|--------|--------|--------|--------|--------|


E|--------|--------|--------|--------|--------|--------|--------|--------|--------|
B|--------|--------|--------|--------|--------|--------|--------|--------|--------|
G|--------|--------|--------|--------|--------|--------|--------|--------|--------|
D|--------|--------|--------|--------|--------|--------|--------|--------|--------|
A|--------|--------|--------|--------|--------|--------|--------|--------|--------|
E|--------|--------|--------|--------|--------|--------|--------|--------|--------|


E|--------|--------|--------|--------|--------|--------|--------|--------|--------|
B|--------|--------|--------|--------|--------|--------|--------|--------|--------|
G|--------|--------|--------|--------|--------|--------|--------|--------|--------|
D|--------|--------|--------|--------|--------|--------|--------|--------|--------|
A|--------|--------|--------|--------|--------|--------|--------|--------|--------|
E|--------|--------|--------|--------|--------|--------|--------|--------|--------|


E|--------|--------|--------|--------|--------|--------|--------|--------|--------|
B|--------|--------|--------|--------|--------|--------|--------|--------|--------|
G|--------|--------|--------|--------|--------|--------|--------|--------|--------|
D|--------|--------|--------|--------|--------|--------|--------|--------|--------|
A|--------|--------|--------|--------|--------|--------|--------|--------|--------|
E|--------|--------|--------|--------|--------|--------|--------|--------|--------|


E|--------|--------|--------|--------|--------|--------|--------|--------|--------|
B|--------|--------|--------|--------|--------|--------|--------|--------|--------|
G|--------|--------|--------|--------|--------|--------|--------|--------|--------|
D|--------|--------|--------|--------|--------|--------|--------|--------|--------|
A|--------|--------|--------|--------|--------|--------|--------|--------|--------|
E|--------|--------|--------|--------|--------|--------|--------|--------|--------|


E|--------|--------|--------|--------|--------|--------|--------|--------|--------|
B|--------|--------|--------|--------|--------|--------|--------|--------|--------|
G|--------|--------|--------|--------|--------|--------|--------|--------|--------|
D|--------|--------|--------|--------|--------|--------|--------|--------|--------|
A|--------|--------|--------|--------|--------|--------|--------|--------|--------|
E|--------|--------|--------|--------|--------|--------|--------|--------|--------|


E|--------|--------|--------|
B|--------|--------|--------|
G|--------|--------|--------|
D|--------|--------|--------|
A|--------|--------|--------|
E|--------|--------|--------|





Track 3: Marty Friedman - Solo Guitar

E|--------|--------|--------|--------|--------|--------|--------|--------|--------|
B|--------|--------|--------|--------|--------|--------|--------|--------|--------|
G|--------|--------|--------|--------|--------|--------|--------|--------|--------|
D|--------|--------|--------|--------|--------|--------|--------|--------|--------|
A|--------|--------|--------|--------|--------|--------|--------|--------|--------|
E|--------|--------|--------|--------|--------|--------|--------|--------|--------|


E|--------|--------|--------|--------|--------|--------|--------|--------|--------|
B|--------|--------|--------|--------|--------|--------|--------|--------|--------|
G|--------|--------|--------|--------|--------|--------|--------|--------|--------|
D|--------|--------|--------|--------|--------|--------|--------|--------|--------|
A|--------|--------|--------|--------|--------|--------|--------|--------|--------|
E|--------|--------|--------|--------|--------|--------|--------|--------|--------|


E|--------|--------|--------|--------|--------|--------|--------|--------|--------|
B|--------|--------|--------|--------|--------|--------|--------|--------|--------|
G|--------|--------|--------|--------|--------|--------|--------|--------|--------|
D|--------|--------|--------|--------|--------|--------|--------|--------|--------|
A|--------|--------|--------|--------|--------|--------|--------|--------|--------|
E|--------|--------|--------|--------|--------|--------|--------|--------|--------|


E|--------|--------|--------|--------|--------|--------|--------|--------|--------|
B|--------|--------|--------|--------|--------|--------|--------|--------|--------|
G|--------|--------|--------|--------|--------|--------|--------|--------|--------|
D|--------|--------|--------|--------|--------|--------|--------|--------|--------|
A|--------|--------|--------|--------|--------|--------|--------|--------|--------|
E|--------|--------|--------|--------|--------|--------|--------|--------|--------|


E|--------|--------|--------|--------|--------|--------|--------|--------|--------|
B|--------|--------|--------|--------|--------|--------|--------|--------|--------|
G|--------|--------|--------|--------|--------|--------|--------|--------|--------|
D|--------|--------|--------|--------|--------|--------|--------|--------|--------|
A|--------|--------|--------|--------|--------|--------|--------|--------|--------|
E|--------|--------|--------|--------|--------|--------|--------|--------|--------|


E|--------|--------|--------|--------|--------|--------|--------|--------|--------|
B|--------|--------|--------|--------|--------|--------|--------|--------|--------|
G|--------|--------|--------|--------|--------|--------|--------|--------|--------|
D|--------|--------|--------|--------|--------|--------|--------|--------|--------|
A|--------|--------|--------|--------|--------|--------|--------|--------|--------|
E|--------|--------|--------|--------|--------|--------|--------|--------|--------|


E|--------|--------|--------|--------|--------|--------|--------|--------|--------|
B|--------|--------|--------|--------|--------|--------|--------|--------|--------|
G|--------|--------|--------|--------|--------|--------|--------|--------|--------|
D|--------|--------|--------|--------|--------|--------|--------|--------|--------|
A|--------|--------|--------|--------|--------|--------|--------|--------|--------|
E|--------|--------|--------|--------|--------|--------|--------|--------|--------|


E|--------|--------|--------|--------|--------|--------|--------|--------|--------|
B|--------|--------|--------|--------|--------|--------|--------|--------|--------|
G|--------|--------|--------|--------|--------|--------|--------|--------|--------|
D|--------|--------|--------|--------|--------|--------|--------|--------|--------|
A|--------|--------|--------|--------|--------|--------|--------|--------|--------|
E|--------|--------|--------|--------|--------|--------|--------|--------|--------|


E|--------|--------|--------|--------|--------|--------|--------|--------|--------|
B|--------|--------|--------|--------|--------|--------|--------|--------|--------|
G|--------|--------|--------|--------|--------|--------|--------|--------|--------|
D|--------|--------|--------|--------|--------|--------|--------|--------|--------|
A|--------|--------|--------|--------|--------|--------|--------|--------|--------|
E|--------|--------|--------|--------|--------|--------|--------|--------|--------|


E|--------|--------|--------|--------|--------|--------|--------|--------|--------|
B|--------|--------|--------|--------|--------|--------|--------|--------|--------|
G|--------|--------|--------|--------|--------|--------|--------|--------|--------|
D|--------|--------|--------|--------|--------|--------|--------|--------|--------|
A|--------|--------|--------|--------|--------|--------|--------|--------|--------|
E|--------|--------|--------|--------|--------|--------|--------|--------|--------|


E|--------|--------|--------|--------|--------|--------|--------|--------|--------|
B|--------|--------|--------|--------|--------|--------|--------|--------|--------|
G|--------|--------|--------|--------|--------|--------|--------|--------|--------|
D|--------|--------|--------|--------|--------|--------|--------|--------|--------|
A|--------|--------|--------|--------|--------|--------|--------|--------|--------|
E|--------|--------|--------|--------|--------|--------|--------|--------|--------|


E|--------|--------|--------|--------|--------|--------|--------|--------|--------|
B|--------|--------|--------|--------|--------|--------|--------|--------|--------|
G|--------|--------|--------|--------|--------|--------|--------|--------|--------|
D|--------|--------|--------|--------|--------|--------|--------|--------|--------|
A|--------|--------|--------|--------|--------|--------|--------|--------|--------|
E|--------|--------|--------|--------|--------|--------|--------|--------|--------|


E|--------|--------|--------|--------|--------|--------|--------|--------|--------|
B|--------|--------|--------|--------|--------|--------|--------|--------|--------|
G|--------|--------|--------|--------|--------|--------|--------|--------|--------|
D|--------|--------|--------|--------|--------|--------|--------|--------|--------|
A|--------|--------|--------|--------|--------|--------|--------|--------|--------|
E|--------|--------|--------|--------|--------|--------|--------|--------|--------|


E|--------|--------|--------|--------|--------|--------|--------|--------|--------|
B|--------|--------|--------|--------|--------|--------|--------|--------|--------|
G|--------|--------|--------|--------|--------|--------|--------|--------|--------|
D|--------|--------|--------|--------|--------|--------|--------|--------|--------|
A|--------|--------|--------|--------|--------|--------|--------|--------|--------|
E|--------|--------|--------|--------|--------|--------|--------|--------|--------|


E|--------|--------|--------|--------|--------|--------|--------|--------|--------|
B|--------|--------|--------|--------|--------|--------|--------|--------|--------|
G|--------|--------|--------|--------|--------|--------|--------|--------|--------|
D|--------|--------|--------|--------|--------|--------|--------|--------|--------|
A|--------|--------|--------|--------|--------|--------|--------|--------|--------|
E|--------|--------|--------|--------|--------|--------|--------|--------|--------|


E|--------|--------|--------|--------|--------|--------|--------|--------|--------|
B|--------|--------|--------|--------|--------|--------|--------|--------|--------|
G|--------|--------|--------|--------|--------|--------|--------|--------|--------|
D|--------|--------|--------|--------|--------|--------|--------|--------|--------|
A|--------|--------|--------|--------|--------|--------|--------|--------|--------|
E|--------|--------|--------|--------|--------|--------|--------|--------|--------|


E|--------|--------|--------|--------|--------|--------|--------|----------------|
B|--------|--------|--------|--------|--------|--------|--------|----------------|
G|--------|--------|--------|--------|--------|--------|--------|----------------|
D|--------|--------|--------|--------|--------|--------|--------|------------7---|
A|--------|--------|--------|--------|--------|--------|--------|----------------|
E|--------|--------|--------|--------|--------|--------|--------|----------------|


E|-------------|------------------------|------------------------|---------------------|
B|-------------|------------------------|------------------------|---------------------|
G|-------------|-4---------6--------7---|-7---9-----9----11--11--|-11--9-----9----7----|
D|-7-----7-----|-------0--------0-------|------------------------|---------------------|
A|-------------|------------------------|------------------------|---------------------|
E|-------------|------------------------|------------------------|---------------------|


E|-----------------------|-----------------------------------|-----------------|---------------------------------|
B|-------------------10--|-7---------------------------------|-----------------|---------------------------------|
G|-9-----9---7---9-------|-----9---7---6---7-----------6--7--|-6-----6-----6---|-7---6---------------------------|
D|-----------------------|----------------------9--9---------|-----------------|---------9---7-------7---9-------|
A|-----------------------|-----------------------------------|-----------------|-----------------9-----------9---|
E|-----------------------|-----------------------------------|-----------------|---------------------------------|


E|-----------------------|---------7---9---7---9---9-------9---|-----------------------|
B|-----------------------|-----7-----------------------12------|-14----14---14-14--12--|
G|-------------------6---|-7-----------------------------------|-----------------------|
D|---------------9-------|-------------------------------------|-----------------------|
A|-9-----9---10----------|-------------------------------------|-----------------------|
E|-----------------------|-------------------------------------|-----------------------|


E|------------------------------|---------------------14--14--15--|-14--10--14-10--14-10--9---10--9---|
B|-14-14---14---14--12--12--14--|---------------------------------|-----------------------------------|
G|------------------------------|-12---12-12--12--12--------------|-----------------------------------|
D|------------------------------|---------------------------------|-----------------------------------|
A|------------------------------|---------------------------------|-----------------------------------|
E|------------------------------|---------------------------------|-----------------------------------|


E|---------------------------------|--------------------14--|-14--10-14-10---------------------10--|
B|-12------------------------------|------------------------|--------------14--12------12--14------|
G|-----11--9---11--9-------9---9---|-7---6-----6---6--------|----------------------11--------------|
D|---------------------12----------|------------------------|--------------------------------------|
A|---------------------------------|------------------------|--------------------------------------|
E|---------------------------------|------------------------|--------------------------------------|


E|-19--14----------------------14--|-19--15-19-15---------------------15--|-19--19--19--19--19---0---19--|
B|---------15--14------14--15------|--------------17--------------17------|------------------------------|
G|-----------------16--------------|------------------16------16----------|------------------------------|
D|---------------------------------|----------------------17--------------|------------------------------|
A|---------------------------------|--------------------------------------|------------------------------|
E|---------------------------------|--------------------------------------|------------------------------|


E|-19--16-19-16-----------------------12-16-|-12-------------------------------|------------------------|
B|--------------17-----------------12-------|----12----------------------------|------------------------|
G|------------------16--13------13----------|-------13-----13-9---9----9---11--|-11--11--12---15---7----|
D|--------------------------14--------------|-----------14---------------------|------------------------|
A|------------------------------------------|----------------------------------|------------------------|
E|------------------------------------------|----------------------------------|------------------------|


E|------------------------|--------------------|-----------------------|----------------|
B|------------------------|--------------------|-----------------------|----------------|
G|-9----6----6----7---7---|-7-----7------------|-----------7---9---9---|-9------9---7---|
D|------------------------|------------9-------|-------9---------------|----------------|
A|------------------------|----------------9---|-9---------------------|----------------|
E|------------------------|--------------------|-----------------------|----------------|


E|-----------------------|------------------------------|---------------------------|
B|-----------------------|------------------------------|---------------------------|
G|-7---------7-----------|------7-------9---7-----------|---------------------------|
D|-------9-------9---9---|-9--------9-----------9---7---|-9--9----7-----------------|
A|-----------------------|------------------------------|-------------7---7-----9---|
E|-----------------------|------------------------------|---------------------------|


E|-------------------------------------------------|--------------------------------------------14-|
B|-----------------8---11--14--11------------------|-----------------14--19--14-10----10-14-12-----|
G|-------------9-------------------12--14--11------|-------------14----------------12--------------|
D|-----8---11----------------------------------14--|-----11--14------------------------------------|
A|-9-----------------------------------------------|-12--------------------------------------------|
E|-------------------------------------------------|-----------------------------------------------|


E|-14-10----10-14-10-14-10----10-14-10-14-10----10-|-15-10----10-14-10----10-15-10----10-14-10----10-|
B|-------12----------------12----------------12----|-------12----------12----------12----------12----|
G|-------------------------------------------------|-------------------------------------------------|
D|-------------------------------------------------|-------------------------------------------------|
A|-------------------------------------------------|-------------------------------------------------|
E|-------------------------------------------------|-------------------------------------------------|


E|-15-10----10-15-10-15-10----10-15-10-15-10----10-|-17-10----10-15-10----10-17-10----10-15-10----10-|
B|-------12----------------12----------------12----|-------12----------12----------12----------12----|
G|-------------------------------------------------|-------------------------------------------------|
D|-------------------------------------------------|-------------------------------------------------|
A|-------------------------------------------------|-------------------------------------------------|
E|-------------------------------------------------|-------------------------------------------------|


E|-16-10----10-16-10-16-10----10-16-10-16-10----10-|-17-10----10-16-10----10-17-10----10-16-10----10-|
B|-------12----------------12----------------12----|-------12----------12----------12----------12----|
G|-------------------------------------------------|-------------------------------------------------|
D|-------------------------------------------------|-------------------------------------------------|
A|-------------------------------------------------|-------------------------------------------------|
E|-------------------------------------------------|-------------------------------------------------|


E|-18-14----14-18-14-18-14----14-18-14-18-14----14-|-17-12----12-17-12-17-12----12-17-12-12-12-17--|
B|-------14----------------14----------------14----|-------14----------------14--------------------|
G|-------------------------------------------------|-----------------------------------------------|
D|-------------------------------------------------|-----------------------------------------------|
A|-------------------------------------------------|-----------------------------------------------|
E|-------------------------------------------------|-----------------------------------------------|


E|-17----17--17-----------|-----------------------------17-14-17-21-17----|-----17--19--24-19----19-------2217---15-19-14----|
B|----------------17------|-19-17-------------15--19-15----------------19-|-19----------------22----22-19-----19----------15-|
G|--------------------19--|-------19-18-16-18-----------------------------|--------------------------------------------------|
D|------------------------|-----------------------------------------------|--------------------------------------------------|
A|------------------------|-----------------------------------------------|--------------------------------------------------|
E|------------------------|-----------------------------------------------|--------------------------------------------------|


E|-12-17-12----10-15-10----9--14-9--------------------------|-------------------------------------|
B|----------14----------12----------------12----12----------|----------------------------------5--|
G|----------------------------------14-14----14----14-12-14-|-9--12-9--11-12-11-9-----11-7--------|
D|----------------------------------------------------------|----------------------12-------------|
A|----------------------------------------------------------|-------------------------------------|
E|----------------------------------------------------------|-------------------------------------|


E|-----7-----------------------|-------------------------------------------------------|
B|-7-------10-7--10--10---10---|-------------------------------------------------------|
G|-----------------------------|-------------9--7--9--10-7--7--8--9--7--12-11-11-12-11-|
D|-----------------------------|-9--10-12-14-------------------------------------------|
A|-----------------------------|-------------------------------------------------------|
E|-----------------------------|-------------------------------------------------------|


E|---------------------------------------------|--------|--------|--------|--------|
B|---------------------------------------------|--------|--------|--------|--------|
G|-12-13-14--16-15-14-15-16-15-14-15-16-15-16--|--------|--------|--------|--------|
D|---------------------------------------------|--------|--------|--------|--------|
A|---------------------------------------------|--------|--------|--------|--------|
E|---------------------------------------------|--------|--------|--------|--------|


E|--------|--------|--------|--------|--------|--------|--------|--------|--------|
B|--------|--------|--------|--------|--------|--------|--------|--------|--------|
G|--------|--------|--------|--------|--------|--------|--------|--------|--------|
D|--------|--------|--------|--------|--------|--------|--------|--------|--------|
A|--------|--------|--------|--------|--------|--------|--------|--------|--------|
E|--------|--------|--------|--------|--------|--------|--------|--------|--------|


E|--------|--------|--------|--------|--------|--------|--------|--------|--------|
B|--------|--------|--------|--------|--------|--------|--------|--------|--------|
G|--------|--------|--------|--------|--------|--------|--------|--------|--------|
D|--------|--------|--------|--------|--------|--------|--------|--------|--------|
A|--------|--------|--------|--------|--------|--------|--------|--------|--------|
E|--------|--------|--------|--------|--------|--------|--------|--------|--------|


E|--------|--------|--------|--------|--------|--------|--------|--------|--------|
B|--------|--------|--------|--------|--------|--------|--------|--------|--------|
G|--------|--------|--------|--------|--------|--------|--------|--------|--------|
D|--------|--------|--------|--------|--------|--------|--------|--------|--------|
A|--------|--------|--------|--------|--------|--------|--------|--------|--------|
E|--------|--------|--------|--------|--------|--------|--------|--------|--------|


E|--------|--------|--------|--------|--------|--------|--------|--------|--------|
B|--------|--------|--------|--------|--------|--------|--------|--------|--------|
G|--------|--------|--------|--------|--------|--------|--------|--------|--------|
D|--------|--------|--------|--------|--------|--------|--------|--------|--------|
A|--------|--------|--------|--------|--------|--------|--------|--------|--------|
E|--------|--------|--------|--------|--------|--------|--------|--------|--------|


E|--------|--------|--------|--------|--------|--------|--------|--------|--------|
B|--------|--------|--------|--------|--------|--------|--------|--------|--------|
G|--------|--------|--------|--------|--------|--------|--------|--------|--------|
D|--------|--------|--------|--------|--------|--------|--------|--------|--------|
A|--------|--------|--------|--------|--------|--------|--------|--------|--------|
E|--------|--------|--------|--------|--------|--------|--------|--------|--------|


E|--------|--------|--------|--------|--------|--------|--------|
B|--------|--------|--------|--------|--------|--------|--------|
G|--------|--------|--------|--------|--------|--------|--------|
D|--------|--------|--------|--------|--------|--------|--------|
A|--------|--------|--------|--------|--------|--------|--------|
E|--------|--------|--------|--------|--------|--------|--------|





Track 4: Untitled

G|--------|--------|--------|--------|--------|--------|--------|--------|--------|
D|--------|--------|--------|--------|--------|--------|--------|--------|--------|
A|--------|--------|--------|--------|--------|--------|--------|--------|--------|
E|--------|--------|--------|--------|--------|--------|--------|--------|--------|


G|--------|--------|--------|--------|--------|--------|--------|--------|--------|
D|--------|--------|--------|--------|--------|--------|--------|--------|--------|
A|--------|--------|--------|--------|--------|--------|--------|--------|--------|
E|--------|--------|--------|--------|--------|--------|--------|--------|--------|


G|--------|--------|--------|--------|--------|--------|--------|--------|--------|
D|--------|--------|--------|--------|--------|--------|--------|--------|--------|
A|--------|--------|--------|--------|--------|--------|--------|--------|--------|
E|--------|--------|--------|--------|--------|--------|--------|--------|--------|


G|--------|--------|--------|--------|--------|--------|--------|--------|--------|
D|--------|--------|--------|--------|--------|--------|--------|--------|--------|
A|--------|--------|--------|--------|--------|--------|--------|--------|--------|
E|--------|--------|--------|--------|--------|--------|--------|--------|--------|


G|--------|--------|--------|--------|--------|--------|--------|--------|--------|
D|--------|--------|--------|--------|--------|--------|--------|--------|--------|
A|--------|--------|--------|--------|--------|--------|--------|--------|--------|
E|--------|--------|--------|--------|--------|--------|--------|--------|--------|


G|--------|--------|--------|--------|--------|--------|--------|--------|--------|
D|--------|--------|--------|--------|--------|--------|--------|--------|--------|
A|--------|--------|--------|--------|--------|--------|--------|--------|--------|
E|--------|--------|--------|--------|--------|--------|--------|--------|--------|


G|--------|--------|--------|--------|--------|--------|--------|--------|--------|
D|--------|--------|--------|--------|--------|--------|--------|--------|--------|
A|--------|--------|--------|--------|--------|--------|--------|--------|--------|
E|--------|--------|--------|--------|--------|--------|--------|--------|--------|


G|--------|--------|--------|--------|--------|--------|--------|--------|--------|
D|--------|--------|--------|--------|--------|--------|--------|--------|--------|
A|--------|--------|--------|--------|--------|--------|--------|--------|--------|
E|--------|--------|--------|--------|--------|--------|--------|--------|--------|


G|--------|--------|--------|--------|--------|--------|--------|--------|--------|
D|--------|--------|--------|--------|--------|--------|--------|--------|--------|
A|--------|--------|--------|--------|--------|--------|--------|--------|--------|
E|--------|--------|--------|--------|--------|--------|--------|--------|--------|


G|--------|--------|--------|--------|--------|--------|--------|--------|--------|
D|--------|--------|--------|--------|--------|--------|--------|--------|--------|
A|--------|--------|--------|--------|--------|--------|--------|--------|--------|
E|--------|--------|--------|--------|--------|--------|--------|--------|--------|


G|--------|--------|--------|--------|--------|--------|--------|--------|--------|
D|--------|--------|--------|--------|--------|--------|--------|--------|--------|
A|--------|--------|--------|--------|--------|--------|--------|--------|--------|
E|--------|--------|--------|--------|--------|--------|--------|--------|--------|


G|--------|--------|--------|--------|--------|--------|--------|--------|--------|
D|--------|--------|--------|--------|--------|--------|--------|--------|--------|
A|--------|--------|--------|--------|--------|--------|--------|--------|--------|
E|--------|--------|--------|--------|--------|--------|--------|--------|--------|


G|--------|--------|--------|--------|--------|--------|--------|--------|--------|
D|--------|--------|--------|--------|--------|--------|--------|--------|--------|
A|--------|--------|--------|--------|--------|--------|--------|--------|--------|
E|--------|--------|--------|--------|--------|--------|--------|--------|--------|


G|--------|--------|--------|--------|--------|--------|--------|--------|--------|
D|--------|--------|--------|--------|--------|--------|--------|--------|--------|
A|--------|--------|--------|--------|--------|--------|--------|--------|--------|
E|--------|--------|--------|--------|--------|--------|--------|--------|--------|


G|--------|--------|--------|--------|--------|--------|--------|--------|--------|
D|--------|--------|--------|--------|--------|--------|--------|--------|--------|
A|--------|--------|--------|--------|--------|--------|--------|--------|--------|
E|--------|--------|--------|--------|--------|--------|--------|--------|--------|


G|--------|--------|--------|--------|--------|--------|--------|--------|--------|
D|--------|--------|--------|--------|--------|--------|--------|--------|--------|
A|--------|--------|--------|--------|--------|--------|--------|--------|--------|
E|--------|--------|--------|--------|--------|--------|--------|--------|--------|


G|--------|--------|--------|--------|--------|--------|--------|--------|--------|
D|--------|--------|--------|--------|--------|--------|--------|--------|--------|
A|--------|--------|--------|--------|--------|--------|--------|--------|--------|
E|--------|--------|--------|--------|--------|--------|--------|--------|--------|


G|--------|--------|--------|--------|--------|--------|--------|--------|--------|
D|--------|--------|--------|--------|--------|--------|--------|--------|--------|
A|--------|--------|--------|--------|--------|--------|--------|--------|--------|
E|--------|--------|--------|--------|--------|--------|--------|--------|--------|


G|--------|--------|--------|--------|--------|--------|--------|--------|--------|
D|--------|--------|--------|--------|--------|--------|--------|--------|--------|
A|--------|--------|--------|--------|--------|--------|--------|--------|--------|
E|--------|--------|--------|--------|--------|--------|--------|--------|--------|


G|--------|--------|--------|--------|--------|--------|--------|--------|--------|
D|--------|--------|--------|--------|--------|--------|--------|--------|--------|
A|--------|--------|--------|--------|--------|--------|--------|--------|--------|
E|--------|--------|--------|--------|--------|--------|--------|--------|--------|


G|--------|--------|--------|--------|--------|--------|--------|--------|--------|
D|--------|--------|--------|--------|--------|--------|--------|--------|--------|
A|--------|--------|--------|--------|--------|--------|--------|--------|--------|
E|--------|--------|--------|--------|--------|--------|--------|--------|--------|


G|--------|--------|--------|--------|--------|--------|--------|--------|--------|
D|--------|--------|--------|--------|--------|--------|--------|--------|--------|
A|--------|--------|--------|--------|--------|--------|--------|--------|--------|
E|--------|--------|--------|--------|--------|--------|--------|--------|--------|


G|--------|--------|--------|--------|--------|--------|--------|--------|--------|
D|--------|--------|--------|--------|--------|--------|--------|--------|--------|
A|--------|--------|--------|--------|--------|--------|--------|--------|--------|
E|--------|--------|--------|--------|--------|--------|--------|--------|--------|


G|--------|--------|--------|--------|--------|--------|--------|--------|--------|
D|--------|--------|--------|--------|--------|--------|--------|--------|--------|
A|--------|--------|--------|--------|--------|--------|--------|--------|--------|
E|--------|--------|--------|--------|--------|--------|--------|--------|--------|


G|--------|--------|--------|--------|--------|--------|--------|--------|--------|
D|--------|--------|--------|--------|--------|--------|--------|--------|--------|
A|--------|--------|--------|--------|--------|--------|--------|--------|--------|
E|--------|--------|--------|--------|--------|--------|--------|--------|--------|


G|--------|--------|--------|--------|--------|--------|--------|--------|--------|
D|--------|--------|--------|--------|--------|--------|--------|--------|--------|
A|--------|--------|--------|--------|--------|--------|--------|--------|--------|
E|--------|--------|--------|--------|--------|--------|--------|--------|--------|


G|--------|--------|--------|--------|--------|--------|--------|--------|--------|
D|--------|--------|--------|--------|--------|--------|--------|--------|--------|
A|--------|--------|--------|--------|--------|--------|--------|--------|--------|
E|--------|--------|--------|--------|--------|--------|--------|--------|--------|


G|--------|--------|--------|--------|--------|--------|--------|--------|--------|
D|--------|--------|--------|--------|--------|--------|--------|--------|--------|
A|--------|--------|--------|--------|--------|--------|--------|--------|--------|
E|--------|--------|--------|--------|--------|--------|--------|--------|--------|


G|--------|--------|--------|--------|
D|--------|--------|--------|--------|
A|--------|--------|--------|--------|
E|--------|--------|--------|--------|