Menu:

 

Search:

 

megadeth - tornado of souls:

 



Title: Tornado Of Souls
Artist: 
Album: Rust In Peace
Author: Dave Mustaine/David Ellefson


Track 1: Rhythm Guitar (Friedman)

E|-----------------|-----------------------|-----------------|-----------------|-----------------|
B|-----------------|-----------------------|-----------------|-----------------|-----------------|
G|-----------------|-----------------------|-----------------|-----------------|-----------------|
D|-----------------|-----------------------|-----------------|-----------------|-----------------|
A|-9---------------|-----------9---9---9---|-9---------------|-------------9---|-9---------------|
E|-7---------------|-----------7---7---7---|-7---------------|-------------7---|-7---------------|


E|-----------------------|-----------------|-----------------|-----------------|-----------------------|
B|-----------------------|-----------------|-----------------|-----------------|-----------------------|
G|-----------------------|-----------------|-----------------|-----------------|-----------------------|
D|-----------------------|-----------------|-----------------|-----------------|-----------------------|
A|-----------9---9---9---|-9---------------|-------------9---|-9---------------|-----------9---9---9---|
E|-----------7---7---7---|-7---------------|-------------7---|-7---------------|-----------7---7---7---|


E|-----------------|-----------------|-----------------|-----------------|-------------|
B|-----------------|-----------------|-----------------|-----------------|-------------|
G|-----------------|-----------------|-----------------|-----------------|-------------|
D|-----------------|-----------------|-----------------|-------------7---|-7-----5-----|
A|-9---------------|-------------9---|-9---------------|-------------5---|-5-----3-----|
E|-7---------------|-------------7---|-7---------------|-----------------|-------------|


E|---------------------------------------|--------|--------|--------|--------|--------|
B|---------------------------------------|--------|--------|--------|--------|--------|
G|---------------------------------------|--------|--------|--------|--------|--------|
D|-----------------------------------4---|--------|--------|--------|--------|--------|
A|-7--8--7---5--7--5---4--5--4---3---2---|--------|--------|--------|--------|--------|
E|---------------------------------------|--------|--------|--------|--------|--------|


E|--------|--------|--------|--------|--------|--------|--------|--------|--------|
B|--------|--------|--------|--------|--------|--------|--------|--------|--------|
G|--------|--------|--------|--------|--------|--------|--------|--------|--------|
D|--------|--------|--------|--------|--------|--------|--------|--------|--------|
A|--------|--------|--------|--------|--------|--------|--------|--------|--------|
E|--------|--------|--------|--------|--------|--------|--------|--------|--------|


E|--------|--------|--------|--------|--------|--------|--------|--------|--------|
B|--------|--------|--------|--------|--------|--------|--------|--------|--------|
G|--------|--------|--------|--------|--------|--------|--------|--------|--------|
D|--------|--------|--------|--------|--------|--------|--------|--------|--------|
A|--------|--------|--------|--------|--------|--------|--------|--------|--------|
E|--------|--------|--------|--------|--------|--------|--------|--------|--------|


E|--------|--------|--------|--------|--------|--------|--------|--------|--------|
B|--------|--------|--------|--------|--------|--------|--------|--------|--------|
G|--------|--------|--------|--------|--------|--------|--------|--------|--------|
D|--------|--------|--------|--------|--------|--------|--------|--------|--------|
A|--------|--------|--------|--------|--------|--------|--------|--------|--------|
E|--------|--------|--------|--------|--------|--------|--------|--------|--------|


E|--------|--------|--------|--------|--------|--------|--------|--------|--------|
B|--------|--------|--------|--------|--------|--------|--------|--------|--------|
G|--------|--------|--------|--------|--------|--------|--------|--------|--------|
D|--------|--------|--------|--------|--------|--------|--------|--------|--------|
A|--------|--------|--------|--------|--------|--------|--------|--------|--------|
E|--------|--------|--------|--------|--------|--------|--------|--------|--------|


E|--------|--------|--------|--------|--------|--------|--------|--------|--------|
B|--------|--------|--------|--------|--------|--------|--------|--------|--------|
G|--------|--------|--------|--------|--------|--------|--------|--------|--------|
D|--------|--------|--------|--------|--------|--------|--------|--------|--------|
A|--------|--------|--------|--------|--------|--------|--------|--------|--------|
E|--------|--------|--------|--------|--------|--------|--------|--------|--------|


E|--------|--------|--------|--------|--------|--------|--------|--------|--------|
B|--------|--------|--------|--------|--------|--------|--------|--------|--------|
G|--------|--------|--------|--------|--------|--------|--------|--------|--------|
D|--------|--------|--------|--------|--------|--------|--------|--------|--------|
A|--------|--------|--------|--------|--------|--------|--------|--------|--------|
E|--------|--------|--------|--------|--------|--------|--------|--------|--------|


E|--------|--------|--------|--------|--------|--------|--------|--------|--------|
B|--------|--------|--------|--------|--------|--------|--------|--------|--------|
G|--------|--------|--------|--------|--------|--------|--------|--------|--------|
D|--------|--------|--------|--------|--------|--------|--------|--------|--------|
A|--------|--------|--------|--------|--------|--------|--------|--------|--------|
E|--------|--------|--------|--------|--------|--------|--------|--------|--------|


E|--------|--------|--------|--------|--------|--------|--------|--------|--------|
B|--------|--------|--------|--------|--------|--------|--------|--------|--------|
G|--------|--------|--------|--------|--------|--------|--------|--------|--------|
D|--------|--------|--------|--------|--------|--------|--------|--------|--------|
A|--------|--------|--------|--------|--------|--------|--------|--------|--------|
E|--------|--------|--------|--------|--------|--------|--------|--------|--------|


E|--------|--------|--------|--------|--------|--------|--------|--------|--------|
B|--------|--------|--------|--------|--------|--------|--------|--------|--------|
G|--------|--------|--------|--------|--------|--------|--------|--------|--------|
D|--------|--------|--------|--------|--------|--------|--------|--------|--------|
A|--------|--------|--------|--------|--------|--------|--------|--------|--------|
E|--------|--------|--------|--------|--------|--------|--------|--------|--------|


E|--------|--------|--------|--------|--------|--------|--------|--------|--------|
B|--------|--------|--------|--------|--------|--------|--------|--------|--------|
G|--------|--------|--------|--------|--------|--------|--------|--------|--------|
D|--------|--------|--------|--------|--------|--------|--------|--------|--------|
A|--------|--------|--------|--------|--------|--------|--------|--------|--------|
E|--------|--------|--------|--------|--------|--------|--------|--------|--------|


E|--------|--------|--------|--------|--------|--------|--------|--------|--------|
B|--------|--------|--------|--------|--------|--------|--------|--------|--------|
G|--------|--------|--------|--------|--------|--------|--------|--------|--------|
D|--------|--------|--------|--------|--------|--------|--------|--------|--------|
A|--------|--------|--------|--------|--------|--------|--------|--------|--------|
E|--------|--------|--------|--------|--------|--------|--------|--------|--------|


E|--------|-----------------|--------|--------|--------|--------|--------|--------|
B|--------|-----------------|--------|--------|--------|--------|--------|--------|
G|--------|-----------------|--------|--------|--------|--------|--------|--------|
D|--------|-----------------|--------|--------|--------|--------|--------|--------|
A|--------|-----------------|--------|--------|--------|--------|--------|--------|
E|--------|-------------7---|--------|--------|--------|--------|--------|--------|


E|--------|--------|--------|--------|--------|--------|--------|--------|--------|
B|--------|--------|--------|--------|--------|--------|--------|--------|--------|
G|--------|--------|--------|--------|--------|--------|--------|--------|--------|
D|--------|--------|--------|--------|--------|--------|--------|--------|--------|
A|--------|--------|--------|--------|--------|--------|--------|--------|--------|
E|--------|--------|--------|--------|--------|--------|--------|--------|--------|


E|--------|---------------------------------|---------------------------------|---------------------------------|
B|--------|---------------------------------|---------------------------------|---------------------------------|
G|--------|---------------------------------|---------------------------------|---------------------------------|
D|--------|---------------------------------|---------------------------------|---------------------------------|
A|--------|---------5-------7---5-----------|---------7-----------5---7-------|---------5-------7---5-----------|
E|--------|-7---7-------7-----------5---7---|-7---7-------7---7-----------7---|-7---7-------7-----------5---7---|


E|---------------------------------|---------------------------------|---------------------------------|
B|---------------------------------|---------------------------------|---------------------------------|
G|---------------------------------|---------------------------------|---------------------------------|
D|---------------------------------|---------------------------------|---------------------------------|
A|---------7-----------5---7-------|---------5-------7---5-----------|---------7-----------5---7-------|
E|-7---7-------7---7-----------7---|-7---7-------7-----------5---7---|-7---7-------7---7-----------7---|


E|---------------------------------|---------------------------------|---------------------------------|
B|---------------------------------|---------------------------------|---------------------------------|
G|---------------------------------|---------------------------------|---------------------------------|
D|---------------------------------|---------------------4---5-------|---------4-------5---4-----------|
A|---------5-------7---5-----------|---------7-------------------5---|-5---5-------5-----------4---5---|
E|-7---7-------7-----------5---7---|-7---7-------7---7---------------|---------------------------------|


E|---------------------------------|---------------------------------|---------------------------------|
B|---------------------------------|---------------------------------|---------------------------------|
G|---------------------------------|---------------------------------|---------------------------------|
D|---------5-----------4---5-------|---------4-------5---4-----------|---------5-----------4---5-------|
A|-5---5-------5---5-----------5---|-5---5-------5-----------4---5---|-5---5-------5---5-----------5---|
E|---------------------------------|---------------------------------|---------------------------------|


E|---------------------------------|---------------------------------|---------------------------------|
B|---------------------------------|---------------------------------|---------------------------------|
G|---------------------------------|---------------------------------|---------------------------------|
D|---------4-------5---4-----------|---------5-----------4---5-------|---------4-------5---4-----------|
A|-5---5-------5-----------4---5---|-5---5-------5---5-----------5---|-5---5-------5-----------4---5---|
E|---------------------------------|---------------------------------|---------------------------------|


E|---------------------------------|--------|--------|--------|--------|--------|--------|
B|---------------------------------|--------|--------|--------|--------|--------|--------|
G|---------------------------------|--------|--------|--------|--------|--------|--------|
D|---------5-----------4---5-------|--------|--------|--------|--------|--------|--------|
A|-5---5-------5---5-----------9---|--------|--------|--------|--------|--------|--------|
E|-----------------------------7---|--------|--------|--------|--------|--------|--------|


E|--------|--------|--------|--------|--------|--------|--------|--------|--------|
B|--------|--------|--------|--------|--------|--------|--------|--------|--------|
G|--------|--------|--------|--------|--------|--------|--------|--------|--------|
D|--------|--------|--------|--------|--------|--------|--------|--------|--------|
A|--------|--------|--------|--------|--------|--------|--------|--------|--------|
E|--------|--------|--------|--------|--------|--------|--------|--------|--------|


E|--------|--------|--------|--------|--------|--------|--------|--------|--------|
B|--------|--------|--------|--------|--------|--------|--------|--------|--------|
G|--------|--------|--------|--------|--------|--------|--------|--------|--------|
D|--------|--------|--------|--------|--------|--------|--------|--------|--------|
A|--------|--------|--------|--------|--------|--------|--------|--------|--------|
E|--------|--------|--------|--------|--------|--------|--------|--------|--------|


E|--------|--------|--------|--------|--------|--------|--------|--------|--------|
B|--------|--------|--------|--------|--------|--------|--------|--------|--------|
G|--------|--------|--------|--------|--------|--------|--------|--------|--------|
D|--------|--------|--------|--------|--------|--------|--------|--------|--------|
A|--------|--------|--------|--------|--------|--------|--------|--------|--------|
E|--------|--------|--------|--------|--------|--------|--------|--------|--------|


E|--------|--------|--------|--------|--------|--------|--------|--------|--------|
B|--------|--------|--------|--------|--------|--------|--------|--------|--------|
G|--------|--------|--------|--------|--------|--------|--------|--------|--------|
D|--------|--------|--------|--------|--------|--------|--------|--------|--------|
A|--------|--------|--------|--------|--------|--------|--------|--------|--------|
E|--------|--------|--------|--------|--------|--------|--------|--------|--------|


E|--------|--------|--------|--------|--------|--------|--------|--------|--------|
B|--------|--------|--------|--------|--------|--------|--------|--------|--------|
G|--------|--------|--------|--------|--------|--------|--------|--------|--------|
D|--------|--------|--------|--------|--------|--------|--------|--------|--------|
A|--------|--------|--------|--------|--------|--------|--------|--------|--------|
E|--------|--------|--------|--------|--------|--------|--------|--------|--------|


E|--------|--------|--------|--------|--------|--------|--------|--------|--------|
B|--------|--------|--------|--------|--------|--------|--------|--------|--------|
G|--------|--------|--------|--------|--------|--------|--------|--------|--------|
D|--------|--------|--------|--------|--------|--------|--------|--------|--------|
A|--------|--------|--------|--------|--------|--------|--------|--------|--------|
E|--------|--------|--------|--------|--------|--------|--------|--------|--------|


E|--------|--------|--------|--------|---------------------------------|------------------------------|
B|--------|--------|--------|--------|---------------------------------|------------------------------|
G|--------|--------|--------|--------|---------------------------------|------------------------------|
D|--------|--------|--------|--------|---------------------7-----------|----------------------7-------|
A|--------|--------|--------|--------|-2-----------7---9-------9---7---|-9------------7---9-------9---|
E|--------|--------|--------|--------|-----7---9-----------------------|------7---9-------------------|


E|---------------------------------|------------------------------|---------------------------------|
B|---------------------------------|------------------------------|---------------------------------|
G|---------------------------------|------------------------------|---------------------------------|
D|---------------------7-----------|----------------------7-------|---------------------7-----------|
A|-9-----------7---9-------9---7---|-9------------7---9-------9---|-9-----------7---9-------9---7---|
E|-----7---9-----------------------|------7---9-------------------|-----7---9-----------------------|


E|------------------------------|---------------------------------|------------------------------|
B|------------------------------|---------------------------------|------------------------------|
G|------------------------------|---------------------------------|------------------------------|
D|----------------------7-------|---------------------7-----------|----------------------7-------|
A|-9------------7---9-------9---|-9-----------7---9-------9---7---|-9------------7---9-------2---|
E|------7---9-------------------|-----7---9-----------------------|------7---9-------------------|


E|--------|--------|--------|--------|--------|--------|--------|--------|--------|
B|--------|--------|--------|--------|--------|--------|--------|--------|--------|
G|--------|--------|--------|--------|--------|--------|--------|--------|--------|
D|--------|--------|--------|--------|--------|--------|--------|--------|--------|
A|--------|--------|--------|--------|--------|--------|--------|--------|--------|
E|--------|--------|--------|--------|--------|--------|--------|--------|--------|


E|--------|--------|--------|--------|--------|--------|--------|--------|--------|
B|--------|--------|--------|--------|--------|--------|--------|--------|--------|
G|--------|--------|--------|--------|--------|--------|--------|--------|--------|
D|--------|--------|--------|--------|--------|--------|--------|--------|--------|
A|--------|--------|--------|--------|--------|--------|--------|--------|--------|
E|--------|--------|--------|--------|--------|--------|--------|--------|--------|


E|--------|--------|--------|--------|--------|--------|--------|--------|--------|
B|--------|--------|--------|--------|--------|--------|--------|--------|--------|
G|--------|--------|--------|--------|--------|--------|--------|--------|--------|
D|--------|--------|--------|--------|--------|--------|--------|--------|--------|
A|--------|--------|--------|--------|--------|--------|--------|--------|--------|
E|--------|--------|--------|--------|--------|--------|--------|--------|--------|


E|--------|--------|--------|--------|--------|
B|--------|--------|--------|--------|--------|
G|--------|--------|--------|--------|--------|
D|--------|--------|--------|--------|--------|
A|--------|--------|--------|--------|--------|
E|--------|--------|--------|--------|--------|





Track 2: Rhythm Guitar (Mustaine)

E|------------------------------|---------------------------------|------------------------------|
B|------------------------------|---------------------------------|------------------------------|
G|------------------------------|-------------7-------------------|------------------------------|
D|------------------------------|-7-------------------------------|------------------------------|
A|-9----------------------------|---------------------9---9---9---|-9----------------------------|
E|-7----7---7---7---7---7---7---|-----7---7-------7---7---7---7---|-7----7---7---7---7---7---7---|


E|---------------------------------|------------------------------|---------------------------------|
B|---------------------------------|------------------------------|---------------------------------|
G|-------------7-------------------|------------------------------|-------------7-------------------|
D|-7-----------------------7-------|------------------------------|-7-------------------------------|
A|-----------------------------9---|-9----------------------------|---------------------9---9---9---|
E|-----7---7-------7---7-------7---|-7----7---7---7---7---7---7---|-----7---7-------7---7---7---7---|


E|------------------------------|---------------------------------|-----------------------------------|
B|------------------------------|---------------------------------|-----------------------------------|
G|------------------------------|-------------7-------------------|-----------------------------------|
D|------------------------------|-7-----------------------7-------|-----------------------------------|
A|-9----------------------------|---------------------------------|-----------------7---8--7------7---|
E|-7----7---7---7---7---7---7---|-----7---7-------7---7-------7---|-7---7---9---10------------10------|


E|---------------------------------|-----------------------------------|---------------------------------|
B|---------------------------------|-----------------------------------|---------------------------------|
G|-------------------------7-------|-----------------------------------|---------------------------------|
D|---------7-------9---7-----------|-----------------------------------|---------7-------9---7-----------|
A|-8---9-------9-------------------|-----------------7---8--7------7---|-8---9-------9-----------9-------|
E|-----------------------------7---|-7---7---9---10------------10------|-----------------------------7---|


E|-----------------------------------|---------------------------------|-------------|
B|-----------------------------------|---------------------------------|-------------|
G|-----------------------------------|-------------------------7-------|-------------|
D|-----------------------------------|---------7-------9---7-------7---|-7-----5-----|
A|-----------------7---8--7------7---|-8---9-------9---------------5---|-5-----3-----|
E|-7---7---9---10------------10------|---------------------------------|-------------|


E|---------------------------------------|------------------------------|---------------------------------|
B|---------------------------------------|------------------------------|---------------------------------|
G|---------------------------------------|------------------------------|---------------------------------|
D|-----------------------------------4---|-4----------------------------|-----------------------------4---|
A|-7--8--7---5--7--5---4--5--4---3---2---|-2----2---2---2---------------|-----------------------------2---|
E|---------------------------------------|------------------2---2---3---|-3---0---0---2---2---3---0-------|


E|------------------------------|---------------------------------|------------------------------|
B|------------------------------|---------------------------------|------------------------------|
G|------------------------------|---------------------------------|------------------------------|
D|-4----------------------------|-----------------------------4---|-4----------------------------|
A|-2----2---2---2---------------|-----------------------------2---|-2----2---2---2---------------|
E|------------------2---2---3---|-3---0---0---2---2---3---0-------|------------------2---2---3---|


E|---------------------------------|------------------------------|---------------------------------|
B|---------------------------------|------------------------------|---------------------------------|
G|---------------------------------|------------------------------|---------------------------------|
D|-----------------------------4---|-4----------------------------|-----------------------------4---|
A|-----------------------------2---|-2----2---2---2---------------|-----------------------------2---|
E|-3---0---0---2---2---3---0-------|------------------2---2---3---|-3---0---0---2---2---3---0-------|


E|------------------------------|---------------------------------|------------------------------|
B|------------------------------|---------------------------------|------------------------------|
G|------------------------------|---------------------------------|------------------------------|
D|-4----------------------------|-----------------------------4---|-4----------------------------|
A|-2----2---2---2---------------|-----------------------------2---|-2----2---2---2---------------|
E|------------------2---2---3---|-3---0---0---2---2---3---0-------|------------------2---2---3---|


E|---------------------------------|------------------------------|---------------------------|
B|---------------------------------|------------------------------|---------------------------|
G|---------------------------------|------------------------------|---------------------------|
D|-----------------------------2---|-2----------------------------|-------------2----5----5---|
A|-----------------------------0---|-0----0---0---0---2-------3---|-3-----------0----3----3---|
E|-3---0---0---2---2---3---0-------|------------------0---0---1---|-1---3---0-----------------|


E|------------------------------|---------------------------|------------------------------|
B|------------------------------|---------------------------|------------------------------|
G|------------------------------|---------------------------|------------------------------|
D|-2----------------------------|-------------2----5----5---|-4----------------------------|
A|-0----0---0---0---2-------3---|-3-----------0----3----3---|-2----2---2---2---------------|
E|------------------0---0---1---|-1---3---0-----------------|------------------2---2---3---|


E|---------------------------------|------------------------------|---------------------------------|
B|---------------------------------|------------------------------|---------------------------------|
G|---------------------------------|------------------------------|---------------------------------|
D|-----------------------------4---|-4----------------------------|-----------------------------4---|
A|-----------------------------2---|-2----2---2---2---------------|-----------------------------2---|
E|-3---0---0---2---2---3---0-------|------------------2---2---3---|-3---0---0---2---2---3---0-------|


E|-----------------------|---------------------------------|-----------------------|
B|-----------------------|---------------------------------|-----------------------|
G|-----------------------|---------------------------------|-----------------------|
D|-4---------------------|---------------------------------|-----------------------|
A|-2---------4-------5---|-5---------------------------2---|-2---------2-------2---|
E|-------0---2-------3---|-3---0---2---3---3---2---1---0---|-0-----0---3-------3---|


E|-----------------------|-----------------------|---------------------------------|
B|-----------------------|-----------------------|---------------------------------|
G|-----------------------|-----------------------|---------------------------------|
D|-----------7-------7---|-4---------------------|---------------------------------|
A|-1---------5-------5---|-2---------4-------5---|-5---------------------------2---|
E|-2-----0---------------|-------0---2-------3---|-3---0---2---3---3---2---1---0---|


E|-----------------------|-----------------------|-----------------------|---------------------------------|
B|-----------------------|-----------------------|-----------------------|---------------------------------|
G|-----------------------|-----------------------|-----------------------|---------------------------------|
D|-----------------------|-----------7-------7---|-4---------------------|---------------------------------|
A|-2---------2-------2---|-1---------5-------5---|-2---------4-------5---|-5---------------------------2---|
E|-0-----0---3-------3---|-2-----0---------------|-------0---2-------3---|-3---0---2---3---3---2---1---0---|


E|-----------------------|-----------------------|-----------------------|---------------------------------|
B|-----------------------|-----------------------|-----------------------|---------------------------------|
G|-----------------------|-----------------------|-----------------------|---------------------------------|
D|-----------------------|-----------7-------7---|-4---------------------|---------------------------------|
A|-2---------2-------2---|-1---------5-------5---|-2---------4-------5---|-5---------------------------2---|
E|-0-----0---3-------3---|-2-----0---------------|-------0---2-------3---|-3---0---2---3---3---2---1---0---|


E|-----------------------|--------------------------------|------------------------------|
B|-----------------------|--------------------------------|------------------------------|
G|-----------------------|--------------------------------|------------------------------|
D|-----------------------|----------------------------4---|-4----------------------------|
A|-2---------2-------2---|-1----4--5--4---4---0---1---2---|-2----2---2---2---------------|
E|-0-----0---3-------3---|-2------------------------------|------------------2---2---3---|


E|---------------------------------|------------------------------|---------------------------------|
B|---------------------------------|------------------------------|---------------------------------|
G|---------------------------------|------------------------------|---------------------------------|
D|-----------------------------4---|-4----------------------------|-----------------------------4---|
A|-----------------------------2---|-2----2---2---2---------------|-----------------------------2---|
E|-3---0---0---2---2---3---0-------|------------------2---2---3---|-3---0---0---2---2---3---0-------|


E|------------------------------|---------------------------------|------------------------------|
B|------------------------------|---------------------------------|------------------------------|
G|------------------------------|---------------------------------|------------------------------|
D|-4----------------------------|-----------------------------4---|-4----------------------------|
A|-2----2---2---2---------------|-----------------------------2---|-2----2---2---2---------------|
E|------------------2---2---3---|-3---0---0---2---2---3---0-------|------------------2---2---3---|


E|---------------------------------|------------------------------|---------------------------------|
B|---------------------------------|------------------------------|---------------------------------|
G|---------------------------------|------------------------------|---------------------------------|
D|-----------------------------4---|-4----------------------------|-----------------------------4---|
A|-----------------------------2---|-2----2---2---2---------------|-----------------------------2---|
E|-3---0---0---2---2---3---0-------|------------------2---2---3---|-3---0---0---2---2---3---0-------|


E|------------------------------|---------------------------------|------------------------------|
B|------------------------------|---------------------------------|------------------------------|
G|------------------------------|---------------------------------|------------------------------|
D|-4----------------------------|-----------------------------2---|-2----------------------------|
A|-2----2---2---2---------------|-----------------------------0---|-0----0---0---0---2-------3---|
E|------------------2---2---3---|-3---0---0---2---2---3---0-------|------------------0---0---1---|


E|---------------------------|------------------------------|---------------------------|
B|---------------------------|------------------------------|---------------------------|
G|---------------------------|------------------------------|---------------------------|
D|-------------2----5----5---|-2----------------------------|-------------2----5----5---|
A|-3-----------0----3----3---|-0----0---0---0---2-------3---|-3-----------0----3----3---|
E|-1---3---0-----------------|------------------0---0---1---|-1---3---0-----------------|


E|------------------------------|---------------------------------|------------------------------|
B|------------------------------|---------------------------------|------------------------------|
G|------------------------------|---------------------------------|------------------------------|
D|-4----------------------------|-----------------------------4---|-4----------------------------|
A|-2----2---2---2---------------|-----------------------------2---|-2----2---2---2---------------|
E|------------------2---2---3---|-3---0---0---2---2---3---0-------|------------------2---2---3---|


E|---------------------------------|-----------------------|---------------------------------|
B|---------------------------------|-----------------------|---------------------------------|
G|---------------------------------|-----------------------|---------------------------------|
D|-----------------------------4---|-4---------------------|---------------------------------|
A|-----------------------------2---|-2---------4-------5---|-5---------------------------2---|
E|-3---0---0---2---2---3---0-------|-------0---2-------3---|-3---0---2---3---3---2---1---0---|


E|-----------------------|-----------------------|-----------------------|---------------------------------|
B|-----------------------|-----------------------|-----------------------|---------------------------------|
G|-----------------------|-----------------------|-----------------------|---------------------------------|
D|-----------------------|-----------7-------7---|-4---------------------|---------------------------------|
A|-2---------2-------2---|-1---------5-------5---|-2---------4-------5---|-5---------------------------2---|
E|-0-----0---3-------3---|-2-----0---------------|-------0---2-------3---|-3---0---2---3---3---2---1---0---|


E|-----------------------|-----------------------|-----------------------|---------------------------------|
B|-----------------------|-----------------------|-----------------------|---------------------------------|
G|-----------------------|-----------------------|-----------------------|---------------------------------|
D|-----------------------|-----------7-------7---|-4---------------------|---------------------------------|
A|-2---------2-------2---|-1---------5-------5---|-2---------4-------5---|-5---------------------------2---|
E|-0-----0---3-------3---|-2-----0---------------|-------0---2-------3---|-3---0---2---3---3---2---1---0---|


E|-----------------------|-----------------------|-----------------------|---------------------------------|
B|-----------------------|-----------------------|-----------------------|---------------------------------|
G|-----------------------|-----------------------|-----------------------|---------------------------------|
D|-----------------------|-----------7-------7---|-4---------------------|---------------------------------|
A|-2---------2-------2---|-1---------5-------5---|-2---------4-------5---|-5---------------------------2---|
E|-0-----0---3-------3---|-2-----0---------------|-------0---2-------3---|-3---0---2---3---3---2---1---0---|


E|-----------------------|--------------------------------|---------------------------|
B|-----------------------|--------------------------------|---------------------------|
G|-----------------------|--------------------------------|---------------------------|
D|-----------------------|----------------------------4---|-4----4----4---------------|
A|-2---------2-------2---|-1----4--5--4---4---0---1---2---|-2----2----2---4-------5---|
E|-0-----0---3-------3---|-2------------------------------|---------------2-------3---|


E|--------------------|---------------------------|---------------------------|---------------------------|
B|--------------------|---------------------------|---------------------------|---------------------------|
G|--------------------|---------------------------|---------------------------|---------------------------|
D|--------------------|-4----4----4---------------|---------------7-------4---|-4----4----4---------------|
A|-5----5-------------|-2----2----2---4-------5---|-5----5----5---5-------2---|-2----2----2---4-------5---|
E|-3----3-------------|---------------2-------3---|-3----3----3---------------|---------------2-------3---|


E|--------------------|---------------------------|---------------------------|---------------------------|
B|--------------------|---------------------------|---------------------------|---------------------------|
G|--------------------|---------------------------|---------------------------|---------------------------|
D|--------------------|-4----4----4---------------|---------------7-------2---|-2----2----2---------------|
A|-5----5-------------|-2----2----2---4-------5---|-5----5----5---5-------0---|-0----0----0---2-------3---|
E|-3----3-------------|---------------2-------3---|-3----3----3---------------|---------------0-------1---|


E|--------------------|---------------------------|---------------------------|---------------------------|
B|--------------------|---------------------------|---------------------------|---------------------------|
G|--------------------|---------------------------|---------------------------|---------------------------|
D|--------------------|-2----2----2---------------|---------------5-------4---|-4----4----4---------------|
A|-3----3-------------|-0----0----0---2-------3---|-3----3----3---3-------2---|-2----2----2---4-------5---|
E|-1----1-------------|---------------0-------1---|-1----1----1---------------|---------------2-------3---|


E|--------------------|---------------------------|---------------------------|--------|
B|--------------------|---------------------------|---------------------------|--------|
G|--------------------|---------------------------|---------------------------|--------|
D|--------------------|-4----4----4---------------|---------------7-------4---|--------|
A|-5----5-------------|-2----2----2---4-------5---|-5----5----5---5-------2---|--------|
E|-3----3-------------|---------------2-------3---|-3----3----3---------------|--------|


E|-----------------|-----------------------------------|---------------------------------|
B|-----------------|-----------------------------------|---------------------------------|
G|-----------------|-----------------------------------|-------------------------7-------|
D|-----------------|-----------------------------------|---------7-------9---7-----------|
A|-----------------|-----------------7---8--7------7---|-8---9-------9-------------------|
E|-------------7---|-7---7---9---10------------10------|-----------------------------7---|


E|-----------------------------------|---------------------------------|-----------------------------------|
B|-----------------------------------|---------------------------------|-----------------------------------|
G|-----------------------------------|---------------------------------|-----------------------------------|
D|-----------------------------------|---------7-------9---7-----------|-----------------------------------|
A|-----------------7---8--7------7---|-8---9-------9-----------9-------|-----------------7---8--7------7---|
E|-7---7---9---10------------10------|-----------------------------7---|-7---7---9---10------------10------|


E|---------------------------------|-----------------------------------|---------------------------------|
B|---------------------------------|-----------------------------------|---------------------------------|
G|-------------------------7-------|-----------------------------------|---------------------------------|
D|---------7-------9---7-----------|-----------------------------------|---------7-------9---7-----------|
A|-8---9-------9-------------------|-----------------7---8--7------7---|-8---9-------9-----------9-------|
E|-----------------------------7---|-7---7---9---10------------10------|-----------------------------7---|


E|-----------------------------------|---------------------------------|-----------------------------------|
B|-----------------------------------|---------------------------------|-----------------------------------|
G|-----------------------------------|-------------------------7-------|-----------------------------------|
D|-----------------------------------|---------7-------9---7-----------|-----------------------------------|
A|-----------------7---8--7------7---|-8---9-------9-------------------|-----------------7---8--7------7---|
E|-7---7---9---10------------10------|-----------------------------7---|-7---7---9---10------------10------|


E|---------------------------------|-----------------------------------|---------------------------------|
B|---------------------------------|-----------------------------------|---------------------------------|
G|---------------------------------|-----------------------------------|-------------------------7-------|
D|---------7-------9---7-----------|-----------------------------------|---------7-------9---7-----------|
A|-8---9-------9-----------9-------|-----------------7---8--7------7---|-8---9-------9-------------------|
E|-----------------------------7---|-7---7---9---10------------10------|-----------------------------7---|


E|-----------------------------------|---------------------------------|-----------------------------------|
B|-----------------------------------|---------------------------------|-----------------------------------|
G|-----------------------------------|---------------------------------|-----------------------------------|
D|-----------------------------------|---------7-------9---7-----------|-----------------------------------|
A|-----------------7---8--7------7---|-8---9-------9-----------9-------|-----------------7---8--7------7---|
E|-7---7---9---10------------10------|-----------------------------7---|-7---7---9---10------------10------|


E|---------------------------------|-----------------------------------|---------------------------------|
B|---------------------------------|-----------------------------------|---------------------------------|
G|-------------------------7-------|-----------------------------------|---------------------------------|
D|---------7-------9---7-----------|-----------------------------------|---------7-------9---7-----------|
A|-8---9-------9-------------------|-----------------7---8--7------7---|-8---9-------9-----------9-------|
E|-----------------------------7---|-7---7---9---10------------10------|-----------------------------7---|


E|-----------------------------------|---------------------------------|-----------------------------------|
B|-----------------------------------|---------------------------------|-----------------------------------|
G|-----------------------------------|-------------------------7-------|-----------------------------------|
D|-----------------------------------|---------7-------9---7-----------|-----------------------------------|
A|-----------------7---8--7------7---|-8---9-------9-------------------|-----------------7---8--7------7---|
E|-7---7---9---10------------10------|-----------------------------7---|-7---7---9---10------------10------|


E|---------------------------------|-----------------------------------|---------------------------------|
B|---------------------------------|-----------------------------------|---------------------------------|
G|---------------------------------|-----------------------------------|-------------------------7-------|
D|---------7-------9---7-----------|-----------------------------------|---------7-------9---7-----------|
A|-8---9-------9-----------9-------|-----------------7---8--7------7---|-8---9-------9-------------------|
E|-----------------------------7---|-7---7---9---10------------10------|-----------------------------7---|


E|-----------------------------------|---------------------------------|-----------------------------------|
B|-----------------------------------|---------------------------------|-----------------------------------|
G|-----------------------------------|---------------------------------|-----------------------------------|
D|-----------------------------------|---------7-------9---7-----------|-----------------------------------|
A|-----------------7---8--7------7---|-8---9-------9-----------9-------|-----------------7---8--7------7---|
E|-7---7---9---10------------10------|-----------------------------7---|-7---7---9---10------------10------|


E|---------------------------------|-----------------------------------|---------------------------------|
B|---------------------------------|-----------------------------------|---------------------------------|
G|-------------------------7-------|-----------------------------------|---------------------------------|
D|---------7-------9---7-----------|-----------------------------------|---------7-------9---7-----------|
A|-8---9-------9-------------------|-----------------7---8--7------7---|-8---9-------9-----------9-------|
E|-----------------------------7---|-7---7---9---10------------10------|-----------------------------7---|


E|---------------------------------|---------------------------------|---------------------------------|
B|---------------------------------|---------------------------------|---------------------------------|
G|---------------------------------|---------------------------------|---------------------------------|
D|---------------------------------|---------------------------------|---------------------------------|
A|---------5-------7---5-----------|---------7-----------5---7-------|---------5-------7---5-----------|
E|-7---7-------7-----------5---7---|-7---7-------7---7-----------7---|-7---7-------7-----------5---7---|


E|---------------------------------|---------------------------------|---------------------------------|
B|---------------------------------|---------------------------------|---------------------------------|
G|---------------------------------|---------------------------------|---------------------------------|
D|---------------------------------|---------------------------------|---------------------------------|
A|---------7-----------5---7-------|---------5-------7---5-----------|---------7-----------5---7-------|
E|-7---7-------7---7-----------7---|-7---7-------7-----------5---7---|-7---7-------7---7-----------7---|


E|---------------------------------|---------------------------------|---------------------------------|
B|---------------------------------|---------------------------------|---------------------------------|
G|---------------------------------|---------------------------------|---------------------------------|
D|---------------------------------|---------------------------------|---------------------------------|
A|---------5-------7---5-----------|---------7-----------5---7-------|---------5-------7---5-----------|
E|-7---7-------7-----------5---7---|-7---7-------7---7-----------7---|-7---7-------7-----------5---7---|


E|---------------------------------|---------------------------------|---------------------------------|
B|---------------------------------|---------------------------------|---------------------------------|
G|---------------------------------|---------------------------------|---------------------------------|
D|---------------------------------|---------------------------------|---------------------------------|
A|---------7-----------5---7-------|---------5-------7---5-----------|---------7-----------5---7-------|
E|-7---7-------7---7-----------7---|-7---7-------7-----------5---7---|-7---7-------7---7-----------7---|


E|---------------------------------|---------------------------------|---------------------------------|
B|---------------------------------|---------------------------------|---------------------------------|
G|---------------------------------|---------------------------------|---------------------------------|
D|---------------------------------|---------------------------------|---------------------------------|
A|---------5-------7---5-----------|---------7-----------5---7-------|---------5-------7---5-----------|
E|-7---7-------7-----------5---7---|-7---7-------7---7-----------7---|-7---7-------7-----------5---7---|


E|---------------------------------|------------------------------|---------------------------------|
B|---------------------------------|------------------------------|---------------------------------|
G|---------------------------------|------------------------------|---------------------------------|
D|---------------------------------|------------------------------|---------------------------------|
A|---------7-----------5---7---9---|-9----------------------------|-----------------9---9---9---5---|
E|-7---7-------7---7-----------7---|-7----7---7---7---7---7---7---|-7---7---7---7---7---7---7---3---|


E|------------------------------|---------------------------------|------------------------------|
B|------------------------------|---------------------------------|------------------------------|
G|------------------------------|---------------------------------|------------------------------|
D|------------------------------|---------------------------------|------------------------------|
A|-5----------------------------|-----------------5---5-------2---|-2----------------------------|
E|-3----3---3---3---3---3---3---|-3---3---3---3---3---3---3---0---|-0----0---0---0---0---0---0---|


E|---------------------------------|------------------------------|------------------------------|
B|---------------------------------|------------------------------|------------------------------|
G|---------------------------------|------------------------------|------------------------------|
D|---------------------------------|------------------------------|------------------------------|
A|-----------------2---2-------4---|-4------------------------7---|-7----------------8-------9---|
E|-0---0---0---0---0---0---0---2---|-2----2---2---2---2---2---5---|-5----5---5---5---6---6---7---|


E|------------------------------|---------------------------------|------------------------------|
B|------------------------------|---------------------------------|------------------------------|
G|------------------------------|---------------------------------|------------------------------|
D|------------------------------|---------------------------------|------------------------------|
A|-9----------------------------|-----------------9---9---9---5---|-5----------------------------|
E|-7----7---7---7---7---7---7---|-7---7---7---7---7---7---7---3---|-3----3---3---3---3---3---3---|


E|---------------------------------|------------------------------|---------------------------------|
B|---------------------------------|------------------------------|---------------------------------|
G|---------------------------------|------------------------------|---------------------------------|
D|---------------------------------|------------------------------|---------------------------------|
A|-----------------5---5-------2---|-2----------------------------|-----------------2---2-------4---|
E|-3---3---3---3---3---3---3---0---|-0----0---0---0---0---0---0---|-0---0---0---0---0---0---0---2---|


E|------------------------------|------------------------------|------------------------------|
B|------------------------------|------------------------------|------------------------------|
G|------------------------------|------------------------------|------------------------------|
D|------------------------------|------------------------------|------------------------------|
A|-4------------------------7---|-7----------------8-------9---|-9----------------------------|
E|-2----2---2---2---2---2---5---|-5----5---5---5---6---6---7---|-7----7---7---7---7---7---7---|


E|---------------------------------|------------------------------|---------------------------------|
B|---------------------------------|------------------------------|---------------------------------|
G|---------------------------------|------------------------------|---------------------------------|
D|---------------------------------|------------------------------|---------------------------------|
A|-----------------9---9---9---5---|-5----------------------------|-----------------5---5-------2---|
E|-7---7---7---7---7---7---7---3---|-3----3---3---3---3---3---3---|-3---3---3---3---3---3---3---0---|


E|------------------------------|---------------------------------|------------------------------|
B|------------------------------|---------------------------------|------------------------------|
G|------------------------------|---------------------------------|------------------------------|
D|------------------------------|---------------------------------|------------------------------|
A|-2----------------------------|-----------------2---2-------4---|-4------------------------7---|
E|-0----0---0---0---0---0---0---|-0---0---0---0---0---0---0---2---|-2----2---2---2---2---2---5---|


E|------------------------------|------------------------------|---------------------------------|
B|------------------------------|------------------------------|---------------------------------|
G|------------------------------|------------------------------|---------------------------------|
D|------------------------------|------------------------------|---------------------------------|
A|-7----------------8-------9---|-9----------------------------|-----------------9---9---9---5---|
E|-5----5---5---5---6---6---7---|-7----7---7---7---7---7---7---|-7---7---7---7---7---7---7---3---|


E|------------------------------|---------------------------------|------------------------------|
B|------------------------------|---------------------------------|------------------------------|
G|------------------------------|---------------------------------|------------------------------|
D|------------------------------|---------------------------------|------------------------------|
A|-5----------------------------|-----------------5---5-------2---|-2----------------------------|
E|-3----3---3---3---3---3---3---|-3---3---3---3---3---3---3---0---|-0----0---0---0---0---0---0---|


E|---------------------------------|------------------------------|------------------------------|
B|---------------------------------|------------------------------|------------------------------|
G|---------------------------------|------------------------------|------------------------------|
D|---------------------------------|------------------------------|------------------------------|
A|-----------------2---2-------4---|-4------------------------7---|-7----------------8-------9---|
E|-0---0---0---0---0---0---0---2---|-2----2---2---2---2---2---5---|-5----5---5---5---6---6---7---|


E|------------------------------|---------------------------------|------------------------------|
B|------------------------------|---------------------------------|------------------------------|
G|------------------------------|---------------------------------|------------------------------|
D|------------------------------|---------------------------------|------------------------------|
A|-9----------------------------|-----------------9---9---9---5---|-5----------------------------|
E|-7----7---7---7---7---7---7---|-7---7---7---7---7---7---7---3---|-3----3---3---3---3---3---3---|


E|---------------------------------|------------------------------|---------------------------------|
B|---------------------------------|------------------------------|---------------------------------|
G|---------------------------------|------------------------------|---------------------------------|
D|---------------------------------|------------------------------|---------------------------------|
A|-----------------5---5-------2---|-2----------------------------|-----------------2---2-------4---|
E|-3---3---3---3---3---3---3---0---|-0----0---0---0---0---0---0---|-0---0---0---0---0---0---0---2---|


E|------------------------------|------------------------------|------------------------------|
B|------------------------------|------------------------------|------------------------------|
G|------------------------------|------------------------------|------------------------------|
D|------------------------------|------------------------------|------------------------------|
A|-4------------------------7---|-7----------------8-------9---|-9----------------------------|
E|-2----2---2---2---2---2---5---|-5----5---5---5---6---6---7---|-7----7---7---7---7---7---7---|


E|---------------------------------|------------------------------|---------------------------------|
B|---------------------------------|------------------------------|---------------------------------|
G|---------------------------------|------------------------------|---------------------------------|
D|---------------------------------|------------------------------|---------------------------------|
A|-----------------9---9---9---5---|-5----------------------------|-----------------5---5-------2---|
E|-7---7---7---7---7---7---7---3---|-3----3---3---3---3---3---3---|-3---3---3---3---3---3---3---0---|


E|------------------------------|---------------------------------|------------------------------|
B|------------------------------|---------------------------------|------------------------------|
G|------------------------------|---------------------------------|------------------------------|
D|------------------------------|---------------------------------|------------------------------|
A|-2----------------------------|-----------------2---2-------4---|-4------------------------7---|
E|-0----0---0---0---0---0---0---|-0---0---0---0---0---0---0---2---|-2----2---2---2---2---2---5---|


E|------------------------------|---------------------------------|---------------------------------|
B|------------------------------|---------------------------------|---------------------------------|
G|------------------------------|---------4-----------------------|-4-----------2-------2---4-------|
D|------------------------------|---------4-----------4-----------|-4-----------2-------2---4-------|
A|-7----------------8-------2---|-2---2-------2---2---4---2---2---|-----2---2-------2---------------|
E|-5----5---5---5---6---6-------|---------------------------------|-----------------------------3---|


E|---------------------------------|---------------------------------|---------------------------------|
B|---------------------------------|---------------------------------|---------------------------------|
G|---------4-----------------------|-4-----------2-------2---4-------|---------4-----------------------|
D|---------4-----------4-----------|-4-----------2-------2---4-------|---------4-----------4-----------|
A|---------------------4-----------|---------------------------------|---------------------4-----------|
E|-3---3-------3---3-------3---3---|-----3---3-------3-----------0---|-0---0-------0---0-------0---0---|


E|---------------------------------|---------------------------------|---------------------------------|
B|---------------------------------|---------------------------------|---------------------------------|
G|-4-----------2-------2---4-------|---------4-----------------------|---------4-----------------------|
D|-4-----------2-------2---4-------|---------4-----------4-----------|---------4-----------------------|
A|---------------------------------|---------------------4-------0---|-0---0-------0---0---1-------2---|
E|-----0---0-------0-----------2---|-2---2-------2---2-------2-------|---------------------------------|


E|---------------------------------|---------------------------------|---------------------------------|
B|---------------------------------|---------------------------------|---------------------------------|
G|---------4-----------------------|-4-----------2-------2---4-------|---------4-----------------------|
D|---------4-----------4-----------|-4-----------2-------2---4-------|---------4-----------4-----------|
A|-2---2-------2---2---4---2---2---|-----2---2-------2---------------|---------------------4-----------|
E|---------------------------------|-----------------------------3---|-3---3-------3---3-------3---3---|


E|---------------------------------|---------------------------------|---------------------------------|
B|---------------------------------|---------------------------------|---------------------------------|
G|-4-----------2-------2---4-------|---------4-----------------------|-4-----------2-------2---4-------|
D|-4-----------2-------2---4-------|---------4-----------4-----------|-4-----------2-------2---4-------|
A|---------------------------------|---------------------4-----------|---------------------------------|
E|-----3---3-------3-----------0---|-0---0-------0---0-------0---0---|-----0---0-------0-----------2---|


E|---------------------------------|---------------------------------|---------------------------------|
B|---------------------------------|---------------------------------|---------------------------------|
G|---------4-----------------------|---------4-----------------------|---------------------------------|
D|---------4-----------4-----------|---------4-----------------------|---------------------0-----------|
A|---------------------4-------0---|-0---0-------0---0---1-------2---|-2-----------0---2-------2---0---|
E|-2---2-------2---2-------2-------|---------------------------------|-----0---2-----------------------|


E|------------------------------|---------------------------------|------------------------------|
B|------------------------------|---------------------------------|------------------------------|
G|------------------------------|---------------------------------|------------------------------|
D|----------------------0-------|---------------------0-----------|----------------------0-------|
A|-2------------0---2-------2---|-2-----------0---2-------2---0---|-2------------0---2-------2---|
E|------0---2-------------------|-----0---2-----------------------|------0---2-------------------|


E|---------------------------------|------------------------------|---------------------------------|
B|---------------------------------|------------------------------|---------------------------------|
G|---------------------------------|------------------------------|---------------------------------|
D|---------------------0-----------|----------------------0-------|---------------------0-----------|
A|-2-----------0---2-------2---0---|-2------------0---2-------2---|-2-----------0---2-------2---0---|
E|-----0---2-----------------------|------0---2-------------------|-----0---2-----------------------|


E|------------------------------|---------------------------------|------------------------------|
B|------------------------------|---------------------------------|------------------------------|
G|------------------------------|---------------------------------|------------------------------|
D|----------------------0-------|---------------------0-----------|----------------------0-------|
A|-2------------0---2-------2---|-2-----------0---2-------2---0---|-2------------0---2-------2---|
E|------0---2-------------------|-----0---2-----------------------|------0---2-------------------|


E|---------------------------------|------------------------------|---------------------------------|
B|---------------------------------|------------------------------|---------------------------------|
G|---------------------------------|------------------------------|---------------------------------|
D|---------------------0-----------|----------------------0-------|---------------------0-----------|
A|-2-----------0---2-------2---0---|-2------------0---2-------2---|-2-----------0---2-------2---0---|
E|-----0---2-----------------------|------0---2-------------------|-----0---2-----------------------|


E|------------------------------|---------------------------------|------------------------------|
B|------------------------------|---------------------------------|------------------------------|
G|------------------------------|---------------------------------|------------------------------|
D|----------------------0-------|---------------------0-----------|----------------------0-------|
A|-2------------0---2-------2---|-2-----------0---2-------2---0---|-2------------0---2-------2---|
E|------0---2-------------------|-----0---2-----------------------|------0---2-------------------|


E|---------------------------------|------------------------------|---------------------------------|
B|---------------------------------|------------------------------|---------------------------------|
G|---------------------------------|------------------------------|---------------------------------|
D|---------------------0-----------|----------------------0-------|---------------------0-----------|
A|-2-----------0---2-------2---0---|-2------------0---2-------2---|-2-----------0---2-------2---0---|
E|-----0---2-----------------------|------0---2-------------------|-----0---2-----------------------|


E|------------------------------|---------------------------------|------------------------------|
B|------------------------------|---------------------------------|------------------------------|
G|------------------------------|---------------------------------|------------------------------|
D|----------------------0-------|---------------------0-----------|----------------------0-------|
A|-2------------0---2-------2---|-2-----------0---2-------2---0---|-2------------0---2-------2---|
E|------0---2-------------------|-----0---2-----------------------|------0---2-------------------|


E|---------------------------------|------------------------------|---------------------------------|
B|---------------------------------|------------------------------|---------------------------------|
G|---------------------------------|------------------------------|---------------------------------|
D|---------------------0-----------|----------------------0-------|---------------------0-----------|
A|-2-----------0---2-------2---0---|-2------------0---2-------3---|-3-----------0---3-------3---0---|
E|-----0---2-----------------------|------0---2-------------------|-----0---3-----------------------|


E|------------------------------|---------------------------------|------------------------------|
B|------------------------------|---------------------------------|------------------------------|
G|------------------------------|---------------------------------|------------------------------|
D|----------------------0-------|---------------------0-----------|----------------------0-------|
A|-3------------0---3-------2---|-2-----------0---2-------2---0---|-2------------0---2-------3---|
E|------0---3-------------------|-----0---2-----------------------|------0---2-------------------|


E|---------------------------------|------------------------------|---------------------------------|
B|---------------------------------|------------------------------|---------------------------------|
G|---------------------------------|------------------------------|---------------------------------|
D|---------------------0-----------|----------------------0-------|---------------------0-----------|
A|-3-----------0---3-------3---0---|-3------------0---3-------2---|-2-----------0---2-------2---0---|
E|-----0---3-----------------------|------0---3-------------------|-----0---2-----------------------|


E|------------------------------|---------------------------|---------------------------|
B|------------------------------|---------------------------|---------------------------|
G|------------------------------|---------------------------|---------------------------|
D|----------------------0---4---|-4----4----4---------------|---------------2-----------|
A|-2------------0---2-------2---|-2----2----2---4-------5---|-5----5----5---0-------2---|
E|------0---2-------------------|---------------2-------3---|-3----3----3-----------0---|


E|---------------------------|---------------------------|---------------------------|
B|---------------------------|---------------------------|---------------------------|
G|---------------------------|---------------------------|---------------------------|
D|---------------------------|----------2---2----2---4---|-4----4----4---------------|
A|-2----2----2---4-------5---|-5----5---0---0----0---2---|-2----2----2---4-------5---|
E|-0----0----0---2-------3---|-3----3--------------------|---------------2-------3---|


E|---------------------------|-------------|---------------------------------------|
B|---------------------------|-------------|---------------------------------------|
G|---------------------------|-------------|---------------------------------------|
D|---------------2-------7---|-7-----5-----|-----------------------------------4---|
A|-5----5----5---0-------5---|-5-----3-----|-7--8--7---5--7--5---4--5--4---3---2---|
E|-3----3----3---------------|-------------|---------------------------------------|





Track 3: Lead Guitar

E|--------|--------|--------|--------|--------|--------|--------|--------|--------|
B|--------|--------|--------|--------|--------|--------|--------|--------|--------|
G|--------|--------|--------|--------|--------|--------|--------|--------|--------|
D|--------|--------|--------|--------|--------|--------|--------|--------|--------|
A|--------|--------|--------|--------|--------|--------|--------|--------|--------|
E|--------|--------|--------|--------|--------|--------|--------|--------|--------|


E|--------|--------|--------|--------|--------|--------|--------|--------|--------|
B|--------|--------|--------|--------|--------|--------|--------|--------|--------|
G|--------|--------|--------|--------|--------|--------|--------|--------|--------|
D|--------|--------|--------|--------|--------|--------|--------|--------|--------|
A|--------|--------|--------|--------|--------|--------|--------|--------|--------|
E|--------|--------|--------|--------|--------|--------|--------|--------|--------|


E|--------|--------|--------|--------|--------|--------|--------|--------|--------|
B|--------|--------|--------|--------|--------|--------|--------|--------|--------|
G|--------|--------|--------|--------|--------|--------|--------|--------|--------|
D|--------|--------|--------|--------|--------|--------|--------|--------|--------|
A|--------|--------|--------|--------|--------|--------|--------|--------|--------|
E|--------|--------|--------|--------|--------|--------|--------|--------|--------|


E|--------|--------|--------|--------|--------|--------|--------|--------|--------|
B|--------|--------|--------|--------|--------|--------|--------|--------|--------|
G|--------|--------|--------|--------|--------|--------|--------|--------|--------|
D|--------|--------|--------|--------|--------|--------|--------|--------|--------|
A|--------|--------|--------|--------|--------|--------|--------|--------|--------|
E|--------|--------|--------|--------|--------|--------|--------|--------|--------|


E|--------|--------|--------|--------|--------|--------|--------|--------|--------|
B|--------|--------|--------|--------|--------|--------|--------|--------|--------|
G|--------|--------|--------|--------|--------|--------|--------|--------|--------|
D|--------|--------|--------|--------|--------|--------|--------|--------|--------|
A|--------|--------|--------|--------|--------|--------|--------|--------|--------|
E|--------|--------|--------|--------|--------|--------|--------|--------|--------|


E|--------|--------|--------|--------|--------|--------|--------|--------|--------|
B|--------|--------|--------|--------|--------|--------|--------|--------|--------|
G|--------|--------|--------|--------|--------|--------|--------|--------|--------|
D|--------|--------|--------|--------|--------|--------|--------|--------|--------|
A|--------|--------|--------|--------|--------|--------|--------|--------|--------|
E|--------|--------|--------|--------|--------|--------|--------|--------|--------|


E|--------|--------|--------|--------|--------|--------|--------|--------|--------|
B|--------|--------|--------|--------|--------|--------|--------|--------|--------|
G|--------|--------|--------|--------|--------|--------|--------|--------|--------|
D|--------|--------|--------|--------|--------|--------|--------|--------|--------|
A|--------|--------|--------|--------|--------|--------|--------|--------|--------|
E|--------|--------|--------|--------|--------|--------|--------|--------|--------|


E|--------|--------|--------|--------|--------|--------|--------|--------|--------|
B|--------|--------|--------|--------|--------|--------|--------|--------|--------|
G|--------|--------|--------|--------|--------|--------|--------|--------|--------|
D|--------|--------|--------|--------|--------|--------|--------|--------|--------|
A|--------|--------|--------|--------|--------|--------|--------|--------|--------|
E|--------|--------|--------|--------|--------|--------|--------|--------|--------|


E|--------|--------|--------|--------|--------|--------|--------|--------|--------|
B|--------|--------|--------|--------|--------|--------|--------|--------|--------|
G|--------|--------|--------|--------|--------|--------|--------|--------|--------|
D|--------|--------|--------|--------|--------|--------|--------|--------|--------|
A|--------|--------|--------|--------|--------|--------|--------|--------|--------|
E|--------|--------|--------|--------|--------|--------|--------|--------|--------|


E|--------|--------|--------|--------|--------|--------|--------|--------|--------|
B|--------|--------|--------|--------|--------|--------|--------|--------|--------|
G|--------|--------|--------|--------|--------|--------|--------|--------|--------|
D|--------|--------|--------|--------|--------|--------|--------|--------|--------|
A|--------|--------|--------|--------|--------|--------|--------|--------|--------|
E|--------|--------|--------|--------|--------|--------|--------|--------|--------|


E|--------|--------|--------|--------|--------|--------|--------|--------|--------|
B|--------|--------|--------|--------|--------|--------|--------|--------|--------|
G|--------|--------|--------|--------|--------|--------|--------|--------|--------|
D|--------|--------|--------|--------|--------|--------|--------|--------|--------|
A|--------|--------|--------|--------|--------|--------|--------|--------|--------|
E|--------|--------|--------|--------|--------|--------|--------|--------|--------|


E|--------|--------|--------|--------|--------|--------|--------|--------|--------|
B|--------|--------|--------|--------|--------|--------|--------|--------|--------|
G|--------|--------|--------|--------|--------|--------|--------|--------|--------|
D|--------|--------|--------|--------|--------|--------|--------|--------|--------|
A|--------|--------|--------|--------|--------|--------|--------|--------|--------|
E|--------|--------|--------|--------|--------|--------|--------|--------|--------|


E|--------|--------|--------|--------|--------|--------|--------|--------|--------|
B|--------|--------|--------|--------|--------|--------|--------|--------|--------|
G|--------|--------|--------|--------|--------|--------|--------|--------|--------|
D|--------|--------|--------|--------|--------|--------|--------|--------|--------|
A|--------|--------|--------|--------|--------|--------|--------|--------|--------|
E|--------|--------|--------|--------|--------|--------|--------|--------|--------|


E|--------|--------|--------|--------|--------|--------|--------|--------|--------|
B|--------|--------|--------|--------|--------|--------|--------|--------|--------|
G|--------|--------|--------|--------|--------|--------|--------|--------|--------|
D|--------|--------|--------|--------|--------|--------|--------|--------|--------|
A|--------|--------|--------|--------|--------|--------|--------|--------|--------|
E|--------|--------|--------|--------|--------|--------|--------|--------|--------|


E|--------|--------|--------|--------|--------|--------|--------|--------|--------|
B|--------|--------|--------|--------|--------|--------|--------|--------|--------|
G|--------|--------|--------|--------|--------|--------|--------|--------|--------|
D|--------|--------|--------|--------|--------|--------|--------|--------|--------|
A|--------|--------|--------|--------|--------|--------|--------|--------|--------|
E|--------|--------|--------|--------|--------|--------|--------|--------|--------|


E|--------|--------|--------|--------|--------|--------|--------|--------|--------|
B|--------|--------|--------|--------|--------|--------|--------|--------|--------|
G|--------|--------|--------|--------|--------|--------|--------|--------|--------|
D|--------|--------|--------|--------|--------|--------|--------|--------|--------|
A|--------|--------|--------|--------|--------|--------|--------|--------|--------|
E|--------|--------|--------|--------|--------|--------|--------|--------|--------|


E|--------|--------|--------|--------|--------|--------|--------|--------|--------|
B|--------|--------|--------|--------|--------|--------|--------|--------|--------|
G|--------|--------|--------|--------|--------|--------|--------|--------|--------|
D|--------|--------|--------|--------|--------|--------|--------|--------|--------|
A|--------|--------|--------|--------|--------|--------|--------|--------|--------|
E|--------|--------|--------|--------|--------|--------|--------|--------|--------|


E|-----------------|-------------|---------------------------|---------------------------|
B|-----------------|-------------|---------------------------|---------------------------|
G|-------------3---|-3-----3-----|-4--------6---6-------7----|-7---9---9----9---9---11---|
D|-----------------|-------------|---------------------------|---------------------------|
A|-----------------|-------------|---------------------------|---------------------------|
E|-----------------|-------------|---------------------------|---------------------------|


E|------------------------------|-----------------------|-----------------------------------|
B|------------------------------|-------------------10--|-7---------------------------------|
G|-11--9---9----9---9---7---8---|-8-----8---7---9-------|-----9---7---6---7-----------6--7--|
D|------------------------------|-----------------------|----------------------9--9---------|
A|------------------------------|-----------------------|-----------------------------------|
E|------------------------------|-----------------------|-----------------------------------|


E|----------------|---------------------------------|-----------------------|-----------------------------------|
B|----------------|---------------------------------|-----------------------|---------12--14--12--14--14--12-14-|
G|-6------6---6---|-7---6---------------------------|-----------------------|-----11----------------------------|
D|----------------|---------9---7-------7---9-------|---------------9---11--|-12--------------------------------|
A|----------------|-----------------9-----------9---|-9-----9---10----------|-----------------------------------|
E|----------------|---------------------------------|-----------------------|-----------------------------------|


E|-----------------------|-----------------------------|---------------14--14--15--|
B|-13----13---14-14--12--|-13--13----13-13-12--12--14--|---------------------------|
G|-----------------------|-----------------------------|-12----12--12--------------|
D|-----------------------|-----------------------------|---------------------------|
A|-----------------------|-----------------------------|---------------------------|
E|-----------------------|-----------------------------|---------------------------|


E|-14--10--14--10-14-10------10------|---------------------------------|--------------------14--|
B|-----------------------14------14--|-12------------------------------|------------------------|
G|-----------------------------------|-----11--9---11--9---7---9-------|-7---6-----6---15-------|
D|-----------------------------------|---------------------------------|------------------------|
A|-----------------------------------|---------------------------------|------------------------|
E|-----------------------------------|---------------------------------|------------------------|


E|-14--10-14-10---------------------10--|-19--14----------------------14--|-19--15-19-15---------------------15--19--|
B|--------------14--12------12--14------|---------15--14------14--15------|--------------17--------------17----------|
G|----------------------11--------------|-----------------16--------------|------------------16------16--------------|
D|--------------------------------------|---------------------------------|----------------------17------------------|
A|--------------------------------------|---------------------------------|------------------------------------------|
E|--------------------------------------|---------------------------------|------------------------------------------|


E|-19---19-19-19-18-19---0---19--|-19--16-19-16-----------------------12-16-|-12--------------------------------|
B|-------------------------------|--------------17--------------------------|-----------------------------------|
G|-------------------------------|------------------16--13------13-16-------|-----16--13------13--9---9-----11--|
D|-------------------------------|--------------------------14--------------|-------------15--------------------|
A|-------------------------------|------------------------------------------|-----------------------------------|
E|-------------------------------|------------------------------------------|-----------------------------------|


E|-----------------------------------------|--------------------------|----------------|
B|-----------------------------------------|--------------------------|----------------|
G|-11--11-11-12--12-12-15--15-15-7---7--7--|-9---9--9--6----6-----7---|-7--------------|
D|-----------------------------------------|--------------------------|--------9-------|
A|-----------------------------------------|--------------------------|------------9---|
E|-----------------------------------------|--------------------------|----------------|


E|-----------------------|--------------------|-----------------------|------------------------------|
B|-----------------------|--------------------|-----------------------|------------------------------|
G|-----------7---9---8---|-8----8-----8---7---|-7---------7-----------|------7-------9---7-----------|
D|-------9---------------|--------------------|-------9-------9---9---|-9--------9-----------9---7---|
A|-9---------------------|--------------------|-----------------------|------------------------------|
E|-----------------------|--------------------|-----------------------|------------------------------|


E|---------------------------|-------------------------------------------------|-------------------------------------------------|
B|---------------------------|-------------------8--11-14--11------------------|-------------10--14--19--14--10------10--14--10--|
G|---------------------------|----------------9----------------12--------------|---------------------------------12--------------|
D|-9---9---7-----------------|-----8---11--11----------------------14--12------|-----11--14--------------------------------------|
A|-------------7---7-----5---|-9-------------------------------------------14--|-12----------------------------------------------|
E|---------------------------|-------------------------------------------------|-------------------------------------------------|


E|-14-10----10-14-10-14-10----10-14-10-14-10----10-|-15-10----10-14-10----10-15-10----10-14-10----10-|
B|-------12----------------12----------------12----|-------12----------12----------12----------12----|
G|-------------------------------------------------|-------------------------------------------------|
D|-------------------------------------------------|-------------------------------------------------|
A|-------------------------------------------------|-------------------------------------------------|
E|-------------------------------------------------|-------------------------------------------------|


E|-15-10----10-15-10-15-10----10-15-10-15-10----10-|-17-10----10-15-10----10-17-10----10-15-10----10-|
B|-------12----------------12----------------12----|-------12----------12----------12----------12----|
G|-------------------------------------------------|-------------------------------------------------|
D|-------------------------------------------------|-------------------------------------------------|
A|-------------------------------------------------|-------------------------------------------------|
E|-------------------------------------------------|-------------------------------------------------|


E|-16-10----10-16-10-16-10----10-16-10-16-10----10-|-17-10----10-16-10----10-17-10----10-16-10----14-|
B|-------12----------------12----------------12----|-------12----------12----------12----------12----|
G|-------------------------------------------------|-------------------------------------------------|
D|-------------------------------------------------|-------------------------------------------------|
A|-------------------------------------------------|-------------------------------------------------|
E|-------------------------------------------------|-------------------------------------------------|


E|-18-14----14-18-14-18-14----14-18-14-18-14----14-|-17-12----12-17-12-17-12----12-17-12-12-12-17--|
B|-------14----------------14----------------14----|-------14----------------14--------------------|
G|-------------------------------------------------|-----------------------------------------------|
D|-------------------------------------------------|-----------------------------------------------|
A|-------------------------------------------------|-----------------------------------------------|
E|-------------------------------------------------|-----------------------------------------------|


E|-17----17-17-17--2---13--10--|-14--10-----------10-14--10--17--14-17-21-17-|-------------19-24-19----19-------------22-------------19----|
B|-----------------------------|---------14-12-------------------------------|-19----19-19----------22----22-22-19-22----22-19-18-20----18-|
G|-----------------------------|---------------12----------------------------|----19-------------------------------------------------------|
D|-----------------------------|---------------------------------------------|-------------------------------------------------------------|
A|-----------------------------|---------------------------------------------|-------------------------------------------------------------|
E|-----------------------------|---------------------------------------------|-------------------------------------------------------------|


E|-------17----------15----------14----------------------------|------------------------------------------------|
B|-15-17----15-14-15----14-12-14----12-10-12-10-12-10-8--10-10-|-8--7--8--7--10-7--8--7-------------------------|
G|-------------------------------------------------------------|-------------------------9--7--10-9--7--9--7----|
D|-------------------------------------------------------------|------------------------------------------------|
A|-------------------------------------------------------------|------------------------------------------------|
E|-------------------------------------------------------------|------------------------------------------------|


E|----------7----------------------|-------------------------------------------------|
B|-------------10-7--10--10---10---|----------4--5--4--------------------8--7--------|
G|-7--9--9-------------------------|-4--5--7-----------7--10-7--8--10-7--------10-12-|
D|---------------------------------|-------------------------------------------------|
A|---------------------------------|-------------------------------------------------|
E|---------------------------------|-------------------------------------------------|


E|---------------------------------------------|-------------|--------|--------|--------|
B|-----------12-11----11-12-11----11-12-11-12--|-12----------|--------|--------|--------|
G|-11-12-14--------14----------14--------------|-------------|--------|--------|--------|
D|---------------------------------------------|-------------|--------|--------|--------|
A|---------------------------------------------|-------------|--------|--------|--------|
E|---------------------------------------------|-------------|--------|--------|--------|


E|--------|--------|--------|--------|--------|--------|--------|--------|--------|
B|--------|--------|--------|--------|--------|--------|--------|--------|--------|
G|--------|--------|--------|--------|--------|--------|--------|--------|--------|
D|--------|--------|--------|--------|--------|--------|--------|--------|--------|
A|--------|--------|--------|--------|--------|--------|--------|--------|--------|
E|--------|--------|--------|--------|--------|--------|--------|--------|--------|


E|--------|--------|--------|--------|--------|--------|--------|--------|--------|
B|--------|--------|--------|--------|--------|--------|--------|--------|--------|
G|--------|--------|--------|--------|--------|--------|--------|--------|--------|
D|--------|--------|--------|--------|--------|--------|--------|--------|--------|
A|--------|--------|--------|--------|--------|--------|--------|--------|--------|
E|--------|--------|--------|--------|--------|--------|--------|--------|--------|


E|--------|--------|--------|--------|--------|--------|--------|--------|--------|
B|--------|--------|--------|--------|--------|--------|--------|--------|--------|
G|--------|--------|--------|--------|--------|--------|--------|--------|--------|
D|--------|--------|--------|--------|--------|--------|--------|--------|--------|
A|--------|--------|--------|--------|--------|--------|--------|--------|--------|
E|--------|--------|--------|--------|--------|--------|--------|--------|--------|


E|--------|--------|--------|--------|--------|--------|--------|--------|--------|
B|--------|--------|--------|--------|--------|--------|--------|--------|--------|
G|--------|--------|--------|--------|--------|--------|--------|--------|--------|
D|--------|--------|--------|--------|--------|--------|--------|--------|--------|
A|--------|--------|--------|--------|--------|--------|--------|--------|--------|
E|--------|--------|--------|--------|--------|--------|--------|--------|--------|


E|--------|--------|--------|--------|--------|--------|--------|--------|--------|
B|--------|--------|--------|--------|--------|--------|--------|--------|--------|
G|--------|--------|--------|--------|--------|--------|--------|--------|--------|
D|--------|--------|--------|--------|--------|--------|--------|--------|--------|
A|--------|--------|--------|--------|--------|--------|--------|--------|--------|
E|--------|--------|--------|--------|--------|--------|--------|--------|--------|


E|--------|--------|--------|--------|--------|--------|--------|
B|--------|--------|--------|--------|--------|--------|--------|
G|--------|--------|--------|--------|--------|--------|--------|
D|--------|--------|--------|--------|--------|--------|--------|
A|--------|--------|--------|--------|--------|--------|--------|
E|--------|--------|--------|--------|--------|--------|--------|





Track 4: Untitled

G|--------|--------|--------|--------|--------|--------|--------|--------|--------|
D|--------|--------|--------|--------|--------|--------|--------|--------|--------|
A|--------|--------|--------|--------|--------|--------|--------|--------|--------|
E|--------|--------|--------|--------|--------|--------|--------|--------|--------|


G|--------|--------|--------|--------|--------|--------|--------|--------|--------|
D|--------|--------|--------|--------|--------|--------|--------|--------|--------|
A|--------|--------|--------|--------|--------|--------|--------|--------|--------|
E|--------|--------|--------|--------|--------|--------|--------|--------|--------|


G|--------|--------|--------|--------|--------|--------|--------|--------|--------|
D|--------|--------|--------|--------|--------|--------|--------|--------|--------|
A|--------|--------|--------|--------|--------|--------|--------|--------|--------|
E|--------|--------|--------|--------|--------|--------|--------|--------|--------|


G|--------|--------|--------|--------|--------|--------|--------|--------|--------|
D|--------|--------|--------|--------|--------|--------|--------|--------|--------|
A|--------|--------|--------|--------|--------|--------|--------|--------|--------|
E|--------|--------|--------|--------|--------|--------|--------|--------|--------|


G|--------|--------|--------|--------|--------|--------|--------|--------|--------|
D|--------|--------|--------|--------|--------|--------|--------|--------|--------|
A|--------|--------|--------|--------|--------|--------|--------|--------|--------|
E|--------|--------|--------|--------|--------|--------|--------|--------|--------|


G|--------|--------|--------|--------|--------|--------|--------|--------|--------|
D|--------|--------|--------|--------|--------|--------|--------|--------|--------|
A|--------|--------|--------|--------|--------|--------|--------|--------|--------|
E|--------|--------|--------|--------|--------|--------|--------|--------|--------|


G|--------|--------|--------|--------|--------|--------|--------|--------|--------|
D|--------|--------|--------|--------|--------|--------|--------|--------|--------|
A|--------|--------|--------|--------|--------|--------|--------|--------|--------|
E|--------|--------|--------|--------|--------|--------|--------|--------|--------|


G|--------|--------|--------|--------|--------|--------|--------|--------|--------|
D|--------|--------|--------|--------|--------|--------|--------|--------|--------|
A|--------|--------|--------|--------|--------|--------|--------|--------|--------|
E|--------|--------|--------|--------|--------|--------|--------|--------|--------|


G|--------|--------|--------|--------|--------|--------|--------|--------|--------|
D|--------|--------|--------|--------|--------|--------|--------|--------|--------|
A|--------|--------|--------|--------|--------|--------|--------|--------|--------|
E|--------|--------|--------|--------|--------|--------|--------|--------|--------|


G|--------|--------|--------|--------|--------|--------|--------|--------|--------|
D|--------|--------|--------|--------|--------|--------|--------|--------|--------|
A|--------|--------|--------|--------|--------|--------|--------|--------|--------|
E|--------|--------|--------|--------|--------|--------|--------|--------|--------|


G|--------|--------|--------|--------|--------|--------|--------|--------|--------|
D|--------|--------|--------|--------|--------|--------|--------|--------|--------|
A|--------|--------|--------|--------|--------|--------|--------|--------|--------|
E|--------|--------|--------|--------|--------|--------|--------|--------|--------|


G|--------|--------|--------|--------|--------|--------|--------|--------|--------|
D|--------|--------|--------|--------|--------|--------|--------|--------|--------|
A|--------|--------|--------|--------|--------|--------|--------|--------|--------|
E|--------|--------|--------|--------|--------|--------|--------|--------|--------|


G|--------|--------|--------|--------|--------|--------|--------|--------|--------|
D|--------|--------|--------|--------|--------|--------|--------|--------|--------|
A|--------|--------|--------|--------|--------|--------|--------|--------|--------|
E|--------|--------|--------|--------|--------|--------|--------|--------|--------|


G|--------|--------|--------|--------|--------|--------|--------|--------|--------|
D|--------|--------|--------|--------|--------|--------|--------|--------|--------|
A|--------|--------|--------|--------|--------|--------|--------|--------|--------|
E|--------|--------|--------|--------|--------|--------|--------|--------|--------|


G|--------|--------|--------|--------|--------|--------|--------|--------|--------|
D|--------|--------|--------|--------|--------|--------|--------|--------|--------|
A|--------|--------|--------|--------|--------|--------|--------|--------|--------|
E|--------|--------|--------|--------|--------|--------|--------|--------|--------|


G|--------|--------|--------|--------|--------|--------|--------|--------|--------|
D|--------|--------|--------|--------|--------|--------|--------|--------|--------|
A|--------|--------|--------|--------|--------|--------|--------|--------|--------|
E|--------|--------|--------|--------|--------|--------|--------|--------|--------|


G|--------|--------|--------|--------|--------|--------|--------|--------|--------|
D|--------|--------|--------|--------|--------|--------|--------|--------|--------|
A|--------|--------|--------|--------|--------|--------|--------|--------|--------|
E|--------|--------|--------|--------|--------|--------|--------|--------|--------|


G|--------|--------|--------|--------|--------|--------|--------|--------|--------|
D|--------|--------|--------|--------|--------|--------|--------|--------|--------|
A|--------|--------|--------|--------|--------|--------|--------|--------|--------|
E|--------|--------|--------|--------|--------|--------|--------|--------|--------|


G|--------|--------|--------|--------|--------|--------|--------|--------|--------|
D|--------|--------|--------|--------|--------|--------|--------|--------|--------|
A|--------|--------|--------|--------|--------|--------|--------|--------|--------|
E|--------|--------|--------|--------|--------|--------|--------|--------|--------|


G|--------|--------|--------|--------|--------|--------|--------|--------|--------|
D|--------|--------|--------|--------|--------|--------|--------|--------|--------|
A|--------|--------|--------|--------|--------|--------|--------|--------|--------|
E|--------|--------|--------|--------|--------|--------|--------|--------|--------|


G|--------|--------|--------|--------|--------|--------|--------|--------|--------|
D|--------|--------|--------|--------|--------|--------|--------|--------|--------|
A|--------|--------|--------|--------|--------|--------|--------|--------|--------|
E|--------|--------|--------|--------|--------|--------|--------|--------|--------|


G|--------|--------|--------|--------|--------|--------|--------|--------|--------|
D|--------|--------|--------|--------|--------|--------|--------|--------|--------|
A|--------|--------|--------|--------|--------|--------|--------|--------|--------|
E|--------|--------|--------|--------|--------|--------|--------|--------|--------|


G|--------|--------|--------|--------|--------|--------|--------|--------|--------|
D|--------|--------|--------|--------|--------|--------|--------|--------|--------|
A|--------|--------|--------|--------|--------|--------|--------|--------|--------|
E|--------|--------|--------|--------|--------|--------|--------|--------|--------|


G|--------|--------|--------|--------|--------|--------|--------|--------|--------|
D|--------|--------|--------|--------|--------|--------|--------|--------|--------|
A|--------|--------|--------|--------|--------|--------|--------|--------|--------|
E|--------|--------|--------|--------|--------|--------|--------|--------|--------|


G|--------|--------|--------|--------|--------|--------|--------|--------|--------|
D|--------|--------|--------|--------|--------|--------|--------|--------|--------|
A|--------|--------|--------|--------|--------|--------|--------|--------|--------|
E|--------|--------|--------|--------|--------|--------|--------|--------|--------|


G|--------|--------|--------|--------|--------|--------|--------|--------|--------|
D|--------|--------|--------|--------|--------|--------|--------|--------|--------|
A|--------|--------|--------|--------|--------|--------|--------|--------|--------|
E|--------|--------|--------|--------|--------|--------|--------|--------|--------|


G|--------|--------|--------|--------|--------|--------|--------|--------|--------|
D|--------|--------|--------|--------|--------|--------|--------|--------|--------|
A|--------|--------|--------|--------|--------|--------|--------|--------|--------|
E|--------|--------|--------|--------|--------|--------|--------|--------|--------|


G|--------|--------|--------|--------|--------|--------|--------|--------|--------|
D|--------|--------|--------|--------|--------|--------|--------|--------|--------|
A|--------|--------|--------|--------|--------|--------|--------|--------|--------|
E|--------|--------|--------|--------|--------|--------|--------|--------|--------|


G|--------|--------|--------|--------|--------|--------|
D|--------|--------|--------|--------|--------|--------|
A|--------|--------|--------|--------|--------|--------|
E|--------|--------|--------|--------|--------|--------|